0
SECTION
2
HEADER
9
$ACADVER
1
AC1015
9
$ACADMAINTVER
 70
6
9
$DWGCODEPAGE
3
ANSI_932
9
$EXTMIN
10
0.000
20
0.000
30
0.0
9
$EXTMAX
10
4200.000
20
2970.000
30
0.0
9
$LIMMIN
10
0.000
20
0.000
9
$LIMMAX
10
4200.000
20
2970.000
9
$DIMSCALE
40
10.000000
9
$LTSCALE
40
10.000
9
$PDMODE
70
0
9
$PDSIZE
40
40.0
9
$HANDSEED
5
61f5e
9
$UNITMODE
70
0
9
$VISRETAIN
70
0
9
$PLINEGEN
70
0
9
$PSLTSCALE
70
1
9
$TREEDEPTH
70
3020
9
$CMLSTYLE
2
STANDARD
9
$CMLJUST
70
0
9
$CMLSCALE
40
1.0
9
$PROXYGRAPHICS
70
1
9
$MEASUREMENT
70
0
9
$CELWEIGHT
370
-1
9
$ENDCAPS
280
0
9
$JOINSTYLE
280
0
9
$LWDISPLAY
290
0
9
$INSUNITS
70
0
9
$HYPERLINKBASE
1

9
$STYLESHEET
1

9
$XEDIT
290
1
9
$CEPSNTYPE
380
0
9
$PSTYLEMODE
290
1
9
$FINGERPRINTGUID
2
{5F082321-0195-11D3-BDFB-0060B0CD5109}
9
$VERSIONGUID
2
{12943756-294D-11D3-98C2-0060B087942D}
9
$EXTNAMES
290
1
9
$PSVPSCALE
40
0.0
9
$OLESTARTUP
290
0
0
ENDSEC
0
SECTION
  2
CLASSES
0
ENDSEC
0
SECTION
2
TABLES
0
TABLE
2
VPORT
5
190
100
AcDbSymbolTable
70
2
0
VPORT
5
191
100
AcDbSymbolTableRecord
100
AcDbViewportTableRecord
2
*ACTIVE
70
0
10
0.0
20
0.0
11
1.0
21
1.0
12
2100.000
22
1485.000
13
0.0
23
0.0
14
1.0
24
1.0
15
0.0
25
0.0
16
0.0
26
0.0
36
1.0
17
0.0
27
0.0
37
0.0
40
3043.478
41
2.0
42
50.0
43
0.0
44
0.0
50
0.0
51
0.0
71
0
72
1000
73
1
74
1
75
0
76
0
77
0
78
0
0
ENDTAB
0
TABLE
2
LTYPE
5
1f4
100
AcDbSymbolTable
70
9
0
LTYPE
5
1f5
100
AcDbSymbolTableRecord
100
AcDbLinetypeTableRecord
2
BYBLOCK
70
 64
3

72
 65
73
  0
40
0.0
0
LTYPE
5
1f6
100
AcDbSymbolTableRecord
100
AcDbLinetypeTableRecord
2
BYLAYER
70
 64
3

72
 65
73
  0
40
0.0
0
LTYPE
5
1f7
100
AcDbSymbolTableRecord
100
AcDbLinetypeTableRecord
2
CONTINUOUS
70
64
3
SolidLine
72
65
73
0
40
0.0
0
LTYPE
5
1f8
100
AcDbSymbolTableRecord
100
AcDbLinetypeTableRecord
2
DOT
70
64
3
--  --  --  --  --  --  --  --     
72
65
73
2
40
3.000
49
1.000
74
0
49
-2.000
74
0
0
LTYPE
5
1f9
100
AcDbSymbolTableRecord
100
AcDbLinetypeTableRecord
2
DASHED
70
64
3
----    ----    ----    ----    
72
65
73
2
40
5.000
49
2.000
74
0
49
-3.000
74
0
0
LTYPE
5
1fa
100
AcDbSymbolTableRecord
100
AcDbLinetypeTableRecord
2
DASHED2
70
64
3
------  ------  ------  ------ 
72
65
73
2
40
10.000
49
4.000
74
0
49
-6.000
74
0
0
LTYPE
5
1fb
100
AcDbSymbolTableRecord
100
AcDbLinetypeTableRecord
2
CENTER
70
64
3
----- - ----- - ----- - ----- - 
72
65
73
4
40
10.000
49
6.000
74
0
49
-3.000
74
0
49
1.000
74
0
49
-3.000
74
0
0
LTYPE
5
1fc
100
AcDbSymbolTableRecord
100
AcDbLinetypeTableRecord
2
CENTER2
70
64
3
----------  --  ----------  -- 
72
65
73
4
40
17.000
49
12.000
74
0
49
-5.000
74
0
49
2.000
74
0
49
-5.000
74
0
0
LTYPE
5
1fd
100
AcDbSymbolTableRecord
100
AcDbLinetypeTableRecord
2
PHANTOM
70
64
3
--- - - --- - - --- - - --- - -
72
65
73
6
40
13.000
49
5.000
74
0
49
-3.000
74
0
49
1.000
74
0
49
-3.000
74
0
49
1.000
74
0
49
-3.000
74
0
0
LTYPE
5
1fe
100
AcDbSymbolTableRecord
100
AcDbLinetypeTableRecord
2
PHANTOM2
70
64
3
--------  -  -  --------  -  -
72
65
73
6
40
20.000
49
6.000
74
0
49
-5.000
74
0
49
2.000
74
0
49
-5.000
74
0
49
2.000
74
0
49
-5.000
74
0
0
LTYPE
5
1ff
100
AcDbSymbolTableRecord
100
AcDbLinetypeTableRecord
2
HIDDEN
70
64
3
-   -   -   -   -   -   -   -   
72
65
73
2
40
3.000
49
0.500
74
0
49
-2.500
74
0
0
ENDTAB
0
TABLE
2
STYLE
5
200
100
AcDbSymbolTable
70
1
0
STYLE
5
201
100
AcDbSymbolTableRecord
100
AcDbTextStyleTableRecord
2
STANDARD
70
0
40
0.0
41
1.0
50
0.0
71
0
42
0.0
3
txt.shx
4
extfont.shx
0
STYLE
5
202
100
AcDbSymbolTableRecord
100
AcDbTextStyleTableRecord
2
TATEGAKI
70
4
40
0.0
41
1.0
50
0.0
71
0
42
0.0
3
txt.shx
4
extfont.shx
0
STYLE
5
203
100
AcDbSymbolTableRecord
100
AcDbTextStyleTableRecord
2
DIM
70
0
40
0.0
41
0.75
50
0.0
71
0
42
0.0
3
txt.shx
4
extfont.shx
0
STYLE
5
204
100
AcDbSymbolTableRecord
100
AcDbTextStyleTableRecord
2
_Gothic_
70
0
40
1.0
41
1.0
50
0.0
71
0
42
10.0
3

4

1001
ACAD
1000
MS Gothic
1071
32817
0
STYLE
5
205
100
AcDbSymbolTableRecord
100
AcDbTextStyleTableRecord
2
_TateGothic_
70
4
40
0.0
41
1.0
50
0.0
71
0
42
0.0
3
@MS Gothic
4

0
ENDTAB
0
TABLE
2
VIEW
5
206
100
AcDbSymbolTable
70
0
0
ENDTAB
0
TABLE
2
UCS
5
207
100
AcDbSymbolTable
70
0
0
ENDTAB
0
TABLE
2
APPID
5
208
100
AcDbSymbolTable
70
1
0
APPID
5
209
100
AcDbSymbolTableRecord
100
AcDbRegAppTableRecord
2
ACAD
70
0
0
ENDTAB
0
TABLE
2
DIMSTYLE
5
403
330
0
100
AcDbSymbolTable
70
1
100
AcDbDimStyleTable
71
0
0
DIMSTYLE
105
404
330
402
100
AcDbSymbolTableRecord
100
AcDbDimStyleTableRecord
2
JAC_DIM
70
0
41
20.000
42
0.000
44
0.0
73
0
74
0
77
1
78
8
79
2
140
0.000
170
0
171
2
172
0
173
0
174
0
175
0
176
0
177
0
178
0
270
2
271
0
272
0
273
2
274
2
340
201
275
0
280
0
281
0
282
0
283
0
284
0
285
0
286
0
287
3
288
0
0
ENDTAB
0
TABLE
2
BLOCK_RECORD
5
405
100
AcDbSymbolTable
70
0
0
BLOCK_RECORD
5
406
100
AcDbSymbolTableRecord
100
AcDbBlockTableRecord
2
*MODEL_SPACE
0
BLOCK_RECORD
5
407
100
AcDbSymbolTableRecord
100
AcDbBlockTableRecord
2
*PAPER_SPACE
0
BLOCK_RECORD
5
408
100
AcDbSymbolTableRecord
100
AcDbBlockTableRecord
2
_JACCONVERT_
0
ENDTAB
0
TABLE
2
LAYER
5
409
100
AcDbSymbolTable
70
10
0
LAYER
5
40a
100
AcDbSymbolTableRecord
100
AcDbLayerTableRecord
2
0
70
0
62
7
6
CONTINUOUS
370
-3
390
14
0
LAYER
5
40b
100
AcDbSymbolTableRecord
100
AcDbLayerTableRecord
2
0-3RC
70
0
62
7
6
CONTINUOUS
370
-3
390
14
0
LAYER
5
40c
100
AcDbSymbolTableRecord
100
AcDbLayerTableRecord
2
0-4陰線
70
0
62
7
6
CONTINUOUS
370
-3
390
14
0
LAYER
5
40d
100
AcDbSymbolTableRecord
100
AcDbLayerTableRecord
2
0-5基準線
70
0
62
7
6
CONTINUOUS
370
-3
390
14
0
LAYER
5
40e
100
AcDbSymbolTableRecord
100
AcDbLayerTableRecord
2
0-6戸当り
70
0
62
7
6
CONTINUOUS
370
-3
390
14
0
LAYER
5
40f
100
AcDbSymbolTableRecord
100
AcDbLayerTableRecord
2
0-7図枠
70
0
62
7
6
CONTINUOUS
370
-3
390
14
0
LAYER
5
410
100
AcDbSymbolTableRecord
100
AcDbLayerTableRecord
2
0-8寸法
70
0
62
7
6
CONTINUOUS
370
-3
390
14
0
LAYER
5
411
100
AcDbSymbolTableRecord
100
AcDbLayerTableRecord
2
0-9扉体
70
0
62
7
6
CONTINUOUS
370
-3
390
14
0
LAYER
5
412
100
AcDbSymbolTableRecord
100
AcDbLayerTableRecord
2
0-A文字
70
0
62
7
6
CONTINUOUS
370
-3
390
14
0
LAYER
5
413
100
AcDbSymbolTableRecord
100
AcDbLayerTableRecord
2
F-F_J_ADD
70
0
62
-7
6
CONTINUOUS
290
0
370
-3
390
14
0
ENDTAB
0
ENDSEC
0
SECTION
2
BLOCKS
0
BLOCK
5
414
100
AcDbEntity
67
1
8
0
100
AcDbBlockBegin
2
*MODEL_SPACE
70
0
10
0.0
20
0.0
30
0.0
3
*MODEL_SPACE
1

0
ENDBLK
5
415
100
AcDbEntity
8
0
100
AcDbBlockEnd
0
BLOCK
5
416
100
AcDbEntity
67
1
8
0
100
AcDbBlockBegin
2
*PAPER_SPACE
70
0
10
0.0
20
0.0
30
0.0
3
*PAPER_SPACE
1

0
ENDBLK
5
417
100
AcDbEntity
67
1
8
0
100
AcDbBlockEnd
0
BLOCK
5
418
100
AcDbEntity
8
0
100
AcDbBlockBegin
2
_JACCONVERT_
70
2
10
0.0
20
0.0
30
0.0
3
_JACCONVERT_
1
_JACCONVERT_
0
ATTDEF
5
419
100
AcDbEntity
8
0
62
0
100
AcDbText
10
0.0
20
0.0
30
0.0
40
1.0
1
User:33307E08109409567083093083089083760830E50960850900C608B4808D6408F6408F4F08E
100
AcDbAttributeDefinition
3

2
USER
70
8
0
ATTDEF
5
41a
100
AcDbEntity
8
0
62
0
100
AcDbText
10
0.0
20
2.0
30
0.0
40
1.0
1
Date:24/01/30 10:33
100
AcDbAttributeDefinition
3

2
REVDATE
70
8
0
ATTDEF
5
41b
100
AcDbEntity
8
0
62
0
100
AcDbText
10
0.0
20
4.0
30
0.0
40
1.0
1
File:_MFR-A0303K.dxf
100
AcDbAttributeDefinition
3

2
FNAME
70
8
0
ATTDEF
5
41c
100
AcDbEntity
8
0
62
0
100
AcDbText
10
0.0
20
6.0
30
0.0
40
1.0
1
JacConvert Version3.13p copyright (c) 2001-2021 K.Nakahara
100
AcDbAttributeDefinition
3

2
VER
70
8
0
ENDBLK
5
41d
100
AcDbEntity
67
1
8
0
100
AcDbBlockEnd
0
ENDSEC
0
SECTION
2
ENTITIES
0
LINE
5
41e
100
AcDbEntity
8
0-5基準線
6
CENTER2
62
7
100
AcDbLine
10
1149.220000000000
20
2231.876000000000
30
0.0
11
1149.220000000000
21
2242.422000000000
31
0.0
0
POLYLINE
5
41f
100
AcDbEntity
8
0-7図枠
6
CONTINUOUS
62
  2
100
AcDb2dPolyline
66
1
10
0.0
20
0.0
30
0.0
70
0
0
VERTEX
5
420
100
AcDbEntity
8
0-7図枠
6
CONTINUOUS
62
  2
100
AcDbVertex
100
AcDb2dVertex
10
4050.000000000000
20
2770.000000000000
30
0.0
0
VERTEX
5
421
100
AcDbEntity
8
0-7図枠
6
CONTINUOUS
62
  2
100
AcDbVertex
100
AcDb2dVertex
10
4050.000000000000
20
150.000000000000
30
0.0
0
VERTEX
5
422
100
AcDbEntity
8
0-7図枠
6
CONTINUOUS
62
  2
100
AcDbVertex
100
AcDb2dVertex
10
250.000000000000
20
150.000000000000
30
0.0
0
SEQEND
5
423
100
AcDbEntity
8
0-7図枠
0
POLYLINE
5
424
100
AcDbEntity
8
0-7図枠
6
CONTINUOUS
62
  2
100
AcDb2dPolyline
66
1
10
0.0
20
0.0
30
0.0
70
0
0
VERTEX
5
425
100
AcDbEntity
8
0-7図枠
6
CONTINUOUS
62
  2
100
AcDbVertex
100
AcDb2dVertex
10
4050.000000000000
20
2770.000000000000
30
0.0
0
VERTEX
5
426
100
AcDbEntity
8
0-7図枠
6
CONTINUOUS
62
  2
100
AcDbVertex
100
AcDb2dVertex
10
250.000000000000
20
2770.000000000000
30
0.0
0
VERTEX
5
427
100
AcDbEntity
8
0-7図枠
6
CONTINUOUS
62
  2
100
AcDbVertex
100
AcDb2dVertex
10
250.000000000000
20
150.000000000000
30
0.0
0
SEQEND
5
428
100
AcDbEntity
8
0-7図枠
0
LINE
5
429
100
AcDbEntity
8
0-7図枠
6
CONTINUOUS
62
2
100
AcDbLine
10
3105.001000000000
20
2695.000000000000
30
0.0
11
4050.000000000000
21
2695.000000000000
31
0.0
0
LINE
5
42a
100
AcDbEntity
8
0-7図枠
6
CONTINUOUS
62
2
100
AcDbLine
10
3105.001000000000
20
2770.000000000000
30
0.0
11
3105.001000000000
21
2695.000000000000
31
0.0
0
LINE
5
42b
100
AcDbEntity
8
0-7図枠
6
CONTINUOUS
62
2
100
AcDbLine
10
3655.001000000000
20
2770.000000000000
30
0.0
11
3655.001000000000
21
2695.000000000000
31
0.0
0
LINE
5
42c
100
AcDbEntity
8
0-7図枠
6
CONTINUOUS
62
2
100
AcDbLine
10
3855.001000000000
20
2770.000000000000
30
0.0
11
3855.001000000000
21
2695.000000000000
31
0.0
0
LINE
5
42d
100
AcDbEntity
8
0-7図枠
6
CONTINUOUS
62
2
100
AcDbLine
10
3215.001000000000
20
2770.000000000000
30
0.0
11
3215.001000000000
21
2695.000000000000
31
0.0
0
TEXT
5
42e
100
AcDbEntity
8
0-7図枠
62
7
370
-3
100
AcDbText
10
3128.899
20
2720.239
30
0.0
40
29.405
1
記号
41
0.856
50
0.000
100
AcDbText
0
TEXT
5
42f
100
AcDbEntity
8
0-7図枠
62
7
370
-3
100
AcDbText
10
3281.399
20
2720.239
30
0.0
40
29.405
1
修　　　　　　　正
41
0.856
50
0.000
100
AcDbText
0
TEXT
5
430
100
AcDbEntity
8
0-7図枠
62
7
370
-3
100
AcDbText
10
3688.899
20
2720.239
30
0.0
40
29.405
1
日　　付
41
0.856
50
0.000
100
AcDbText
0
TEXT
5
431
100
AcDbEntity
8
0-7図枠
62
7
370
-3
100
AcDbText
10
3886.399
20
2720.239
30
0.0
40
29.405
1
担　　当
41
0.856
50
0.000
100
AcDbText
0
LINE
5
432
100
AcDbEntity
8
F-F_J_ADD
6
HIDDEN
62
109
100
AcDbLine
10
0.000000000000
20
2970.000000000000
30
0.0
11
4200.000000000000
21
2970.000000000000
31
0.0
0
LINE
5
433
100
AcDbEntity
8
F-F_J_ADD
6
HIDDEN
62
109
100
AcDbLine
10
4200.000000000000
20
2970.000000000000
30
0.0
11
4200.000000000000
21
0.000000000000
31
0.0
0
LINE
5
434
100
AcDbEntity
8
F-F_J_ADD
6
HIDDEN
62
109
100
AcDbLine
10
0.000000000000
20
0.000000000000
30
0.0
11
4200.000000000000
21
0.000000000000
31
0.0
0
LINE
5
435
100
AcDbEntity
8
F-F_J_ADD
6
HIDDEN
62
109
100
AcDbLine
10
0.000000000000
20
2970.000000000000
30
0.0
11
0.000000000000
21
0.000000000000
31
0.0
0
ARC
5
436
100
AcDbEntity
8
0-6戸当り
6
CONTINUOUS
62
2
100
AcDbCircle
10
2432.652000000000
20
1213.362000000000
30
0.0
40
9.000000000000
100
AcDbArc
50
90.832000000000
51
232.562000000000
0
ARC
5
437
100
AcDbEntity
8
0-6戸当り
6
CONTINUOUS
62
2
100
AcDbCircle
10
2432.652000000000
20
1213.362000000000
30
0.0
40
9.000000000000
100
AcDbArc
50
90.832000000000
51
232.562000000000
0
LINE
5
438
100
AcDbEntity
8
0-9扉体
6
CONTINUOUS
62
2
100
AcDbLine
10
1154.720000000000
20
1186.662000000000
30
0.0
11
1154.720000000000
21
1176.662000000000
31
0.0
0
POLYLINE
5
439
100
AcDbEntity
  8
0-8寸法
6
CONTINUOUS
62
4
100
AcDb2dPolyline
66
1
10
0
20
0
70
1
40
4.000
41
4.000
0
VERTEX
5
43a
100
AcDbEntity
  8
0-8寸法
6
CONTINUOUS
62
4
100
AcDbVertex
100
AcDb2dVertex
10
1140.576
20
876.016
30
0.0
42
1.000
0
VERTEX
5
43b
100
AcDbEntity
  8
0-8寸法
6
CONTINUOUS
62
4
100
AcDbVertex
100
AcDb2dVertex
10
1144.576
20
876.016
30
0.0
42
1.000
0
SEQEND
5
43c
100
AcDbEntity
  8
0-8寸法
0
POLYLINE
5
43d
100
AcDbEntity
  8
0-8寸法
6
CONTINUOUS
62
4
100
AcDb2dPolyline
66
1
10
0
20
0
70
1
40
4.000
41
4.000
0
VERTEX
5
43e
100
AcDbEntity
  8
0-8寸法
6
CONTINUOUS
62
4
100
AcDbVertex
100
AcDb2dVertex
10
1140.576
20
876.016
30
0.0
42
1.000
0
VERTEX
5
43f
100
AcDbEntity
  8
0-8寸法
6
CONTINUOUS
62
4
100
AcDbVertex
100
AcDb2dVertex
10
1144.576
20
876.016
30
0.0
42
1.000
0
SEQEND
5
440
100
AcDbEntity
  8
0-8寸法
0
LINE
5
441
100
AcDbEntity
8
0-9扉体
6
CONTINUOUS
62
2
100
AcDbLine
10
1173.720000000000
20
1186.662000000000
30
0.0
11
1173.720000000000
21
1176.662000000000
31
0.0
0
LINE
5
442
100
AcDbEntity
8
0-9扉体
6
CONTINUOUS
62
2
100
AcDbLine
10
1173.720000000000
20
1186.662000000000
30
0.0
11
1154.720000000000
21
1186.662000000000
31
0.0
0
LINE
5
443
100
AcDbEntity
8
0-9扉体
6
CONTINUOUS
62
2
100
AcDbLine
10
1164.220000000000
20
1185.814000000000
30
0.0
11
1164.220000000000
21
1176.662000000000
31
0.0
0
LINE
5
444
100
AcDbEntity
8
0-9扉体
6
CONTINUOUS
62
2
100
AcDbLine
10
1314.220000000000
20
1171.362000000000
30
0.0
11
1454.220000000000
21
1171.362000000000
31
0.0
0
LINE
5
445
100
AcDbEntity
8
0-9扉体
6
CONTINUOUS
62
2
100
AcDbLine
10
1314.220000000000
20
1171.362000000000
30
0.0
11
1314.220000000000
21
1162.362000000000
31
0.0
0
LINE
5
446
100
AcDbEntity
8
0-9扉体
6
CONTINUOUS
62
2
100
AcDbLine
10
1454.220000000000
20
1171.362000000000
30
0.0
11
1454.220000000000
21
1162.362000000000
31
0.0
0
POLYLINE
5
447
100
AcDbEntity
8
0-9扉体
6
CONTINUOUS
62
  2
100
AcDb2dPolyline
66
1
10
0.0
20
0.0
30
0.0
70
0
0
VERTEX
5
448
100
AcDbEntity
8
0-9扉体
6
CONTINUOUS
62
  2
100
AcDbVertex
100
AcDb2dVertex
10
1414.220000000000
20
1236.362000000000
30
0.0
0
VERTEX
5
449
100
AcDbEntity
8
0-9扉体
6
CONTINUOUS
62
  2
100
AcDbVertex
100
AcDb2dVertex
10
1405.220000000000
20
1236.362000000000
30
0.0
0
VERTEX
5
44a
100
AcDbEntity
8
0-9扉体
6
CONTINUOUS
62
  2
100
AcDbVertex
100
AcDb2dVertex
10
1405.220000000000
20
1171.362000000000
30
0.0
0
SEQEND
5
44b
100
AcDbEntity
8
0-9扉体
0
LINE
5
44c
100
AcDbEntity
8
0-9扉体
6
CONTINUOUS
62
2
100
AcDbLine
10
1414.220000000000
20
1236.362000000000
30
0.0
11
1414.220000000000
21
1171.362000000000
31
0.0
0
LINE
5
44d
100
AcDbEntity
8
0-6戸当り
6
DOT
62
2
100
AcDbLine
10
1403.220000000000
20
1203.362000000000
30
0.0
11
1365.220000000000
21
1203.362000000000
31
0.0
0
LINE
5
44e
100
AcDbEntity
8
0-6戸当り
6
CONTINUOUS
62
2
100
AcDbLine
10
1403.220000000000
20
1195.362000000000
30
0.0
11
1365.220000000000
21
1195.362000000000
31
0.0
0
LINE
5
44f
100
AcDbEntity
8
0-6戸当り
6
CONTINUOUS
62
2
100
AcDbLine
10
1403.220000000000
20
1229.362000000000
30
0.0
11
1403.220000000000
21
1195.362000000000
31
0.0
0
POLYLINE
5
450
100
AcDbEntity
8
0-6戸当り
6
CONTINUOUS
62
  2
100
AcDb2dPolyline
66
1
10
0.0
20
0.0
30
0.0
70
0
0
VERTEX
5
451
100
AcDbEntity
8
0-6戸当り
6
CONTINUOUS
62
  2
100
AcDbVertex
100
AcDb2dVertex
10
1403.220000000000
20
1229.362000000000
30
0.0
0
VERTEX
5
452
100
AcDbEntity
8
0-6戸当り
6
CONTINUOUS
62
  2
100
AcDbVertex
100
AcDb2dVertex
10
1365.220000000000
20
1229.362000000000
30
0.0
0
VERTEX
5
453
100
AcDbEntity
8
0-6戸当り
6
CONTINUOUS
62
  2
100
AcDbVertex
100
AcDb2dVertex
10
1365.220000000000
20
1195.362000000000
30
0.0
0
SEQEND
5
454
100
AcDbEntity
8
0-6戸当り
0
LINE
5
455
100
AcDbEntity
8
0-9扉体
6
CONTINUOUS
62
2
100
AcDbLine
10
1416.820000000000
20
1228.362000000000
30
0.0
11
1416.820000000000
21
1196.362000000000
31
0.0
0
LINE
5
456
100
AcDbEntity
8
0-9扉体
6
CONTINUOUS
62
2
100
AcDbLine
10
1416.820000000000
20
1228.362000000000
30
0.0
11
1414.220000000000
21
1228.362000000000
31
0.0
0
LINE
5
457
100
AcDbEntity
8
0-9扉体
6
CONTINUOUS
62
2
100
AcDbLine
10
1416.820000000000
20
1196.362000000000
30
0.0
11
1414.220000000000
21
1196.362000000000
31
0.0
0
LINE
5
458
100
AcDbEntity
8
0-9扉体
6
CONTINUOUS
62
2
100
AcDbLine
10
1427.720000000000
20
1220.362000000000
30
0.0
11
1427.720000000000
21
1204.362000000000
31
0.0
0
LINE
5
459
100
AcDbEntity
8
0-9扉体
6
CONTINUOUS
62
2
100
AcDbLine
10
1427.720000000000
20
1220.362000000000
30
0.0
11
1416.820000000000
21
1220.362000000000
31
0.0
0
LINE
5
45a
100
AcDbEntity
8
0-9扉体
6
CONTINUOUS
62
2
100
AcDbLine
10
1427.720000000000
20
1204.362000000000
30
0.0
11
1416.820000000000
21
1204.362000000000
31
0.0
0
LINE
5
45b
100
AcDbEntity
8
0-9扉体
6
CONTINUOUS
62
2
100
AcDbLine
10
1405.220000000000
20
1204.362000000000
30
0.0
11
1403.220000000000
21
1204.362000000000
31
0.0
0
LINE
5
45c
100
AcDbEntity
8
0-6戸当り
6
DOT
62
2
100
AcDbLine
10
1403.220000000000
20
1221.362000000000
30
0.0
11
1365.220000000000
21
1221.362000000000
31
0.0
0
LINE
5
45d
100
AcDbEntity
8
0-9扉体
6
CONTINUOUS
62
2
100
AcDbLine
10
1405.220000000000
20
1220.362000000000
30
0.0
11
1403.220000000000
21
1220.362000000000
31
0.0
0
LINE
5
45e
100
AcDbEntity
8
0-5基準線
6
CENTER2
62
7
100
AcDbLine
10
1434.220000000000
20
1212.362000000000
30
0.0
11
1334.220000000000
21
1212.362000000000
31
0.0
0
LINE
5
45f
100
AcDbEntity
8
0-9扉体
6
CONTINUOUS
62
2
100
AcDbLine
10
1351.620000000000
20
1228.362000000000
30
0.0
11
1351.620000000000
21
1196.362000000000
31
0.0
0
LINE
5
460
100
AcDbEntity
8
0-9扉体
6
CONTINUOUS
62
2
100
AcDbLine
10
1351.620000000000
20
1228.362000000000
30
0.0
11
1354.220000000000
21
1228.362000000000
31
0.0
0
LINE
5
461
100
AcDbEntity
8
0-9扉体
6
CONTINUOUS
62
2
100
AcDbLine
10
1351.620000000000
20
1196.362000000000
30
0.0
11
1354.220000000000
21
1196.362000000000
31
0.0
0
LINE
5
462
100
AcDbEntity
8
0-9扉体
6
CONTINUOUS
62
2
100
AcDbLine
10
1340.720000000000
20
1220.362000000000
30
0.0
11
1340.720000000000
21
1204.362000000000
31
0.0
0
LINE
5
463
100
AcDbEntity
8
0-9扉体
6
CONTINUOUS
62
2
100
AcDbLine
10
1340.720000000000
20
1220.362000000000
30
0.0
11
1351.620000000000
21
1220.362000000000
31
0.0
0
LINE
5
464
100
AcDbEntity
8
0-9扉体
6
CONTINUOUS
62
2
100
AcDbLine
10
1340.720000000000
20
1204.362000000000
30
0.0
11
1351.620000000000
21
1204.362000000000
31
0.0
0
LINE
5
465
100
AcDbEntity
8
0-9扉体
6
CONTINUOUS
62
2
100
AcDbLine
10
1363.220000000000
20
1204.362000000000
30
0.0
11
1365.220000000000
21
1204.362000000000
31
0.0
0
LINE
5
466
100
AcDbEntity
8
0-9扉体
6
CONTINUOUS
62
2
100
AcDbLine
10
1363.220000000000
20
1220.362000000000
30
0.0
11
1365.220000000000
21
1220.362000000000
31
0.0
0
POLYLINE
5
467
100
AcDbEntity
8
0-9扉体
6
CONTINUOUS
62
  2
100
AcDb2dPolyline
66
1
10
0.0
20
0.0
30
0.0
70
0
0
VERTEX
5
468
100
AcDbEntity
8
0-9扉体
6
CONTINUOUS
62
  2
100
AcDbVertex
100
AcDb2dVertex
10
1354.220000000000
20
1236.362000000000
30
0.0
0
VERTEX
5
469
100
AcDbEntity
8
0-9扉体
6
CONTINUOUS
62
  2
100
AcDbVertex
100
AcDb2dVertex
10
1363.220000000000
20
1236.362000000000
30
0.0
0
VERTEX
5
46a
100
AcDbEntity
8
0-9扉体
6
CONTINUOUS
62
  2
100
AcDbVertex
100
AcDb2dVertex
10
1363.220000000000
20
1171.362000000000
30
0.0
0
SEQEND
5
46b
100
AcDbEntity
8
0-9扉体
0
LINE
5
46c
100
AcDbEntity
8
0-9扉体
6
CONTINUOUS
62
2
100
AcDbLine
10
1354.220000000000
20
1236.362000000000
30
0.0
11
1354.220000000000
21
1171.362000000000
31
0.0
0
LINE
5
46d
100
AcDbEntity
8
0-9扉体
6
CONTINUOUS
62
2
100
AcDbLine
10
1284.220000000000
20
1171.362000000000
30
0.0
11
1284.220000000000
21
1162.362000000000
31
0.0
0
LINE
5
46e
100
AcDbEntity
8
0-9扉体
6
CONTINUOUS
62
2
100
AcDbLine
10
1144.220000000000
20
1171.362000000000
30
0.0
11
1144.220000000000
21
1162.362000000000
31
0.0
0
POLYLINE
5
46f
100
AcDbEntity
8
0-9扉体
6
CONTINUOUS
62
  2
100
AcDb2dPolyline
66
1
10
0.0
20
0.0
30
0.0
70
0
0
VERTEX
5
470
100
AcDbEntity
8
0-9扉体
6
CONTINUOUS
62
  2
100
AcDbVertex
100
AcDb2dVertex
10
1184.220000000000
20
1236.362000000000
30
0.0
0
VERTEX
5
471
100
AcDbEntity
8
0-9扉体
6
CONTINUOUS
62
  2
100
AcDbVertex
100
AcDb2dVertex
10
1193.220000000000
20
1236.362000000000
30
0.0
0
VERTEX
5
472
100
AcDbEntity
8
0-9扉体
6
CONTINUOUS
62
  2
100
AcDbVertex
100
AcDb2dVertex
10
1193.220000000000
20
1171.362000000000
30
0.0
0
SEQEND
5
473
100
AcDbEntity
8
0-9扉体
0
LINE
5
474
100
AcDbEntity
8
0-9扉体
6
CONTINUOUS
62
2
100
AcDbLine
10
1184.220000000000
20
1236.362000000000
30
0.0
11
1184.220000000000
21
1171.362000000000
31
0.0
0
LINE
5
475
100
AcDbEntity
8
0-6戸当り
6
DOT
62
2
100
AcDbLine
10
1195.220000000000
20
1203.362000000000
30
0.0
11
1233.220000000000
21
1203.362000000000
31
0.0
0
LINE
5
476
100
AcDbEntity
8
0-6戸当り
6
CONTINUOUS
62
2
100
AcDbLine
10
1195.220000000000
20
1195.362000000000
30
0.0
11
1233.220000000000
21
1195.362000000000
31
0.0
0
LINE
5
477
100
AcDbEntity
8
0-6戸当り
6
CONTINUOUS
62
2
100
AcDbLine
10
1195.220000000000
20
1229.362000000000
30
0.0
11
1195.220000000000
21
1195.362000000000
31
0.0
0
POLYLINE
5
478
100
AcDbEntity
8
0-6戸当り
6
CONTINUOUS
62
  2
100
AcDb2dPolyline
66
1
10
0.0
20
0.0
30
0.0
70
0
0
VERTEX
5
479
100
AcDbEntity
8
0-6戸当り
6
CONTINUOUS
62
  2
100
AcDbVertex
100
AcDb2dVertex
10
1195.220000000000
20
1229.362000000000
30
0.0
0
VERTEX
5
47a
100
AcDbEntity
8
0-6戸当り
6
CONTINUOUS
62
  2
100
AcDbVertex
100
AcDb2dVertex
10
1233.220000000000
20
1229.362000000000
30
0.0
0
VERTEX
5
47b
100
AcDbEntity
8
0-6戸当り
6
CONTINUOUS
62
  2
100
AcDbVertex
100
AcDb2dVertex
10
1233.220000000000
20
1195.362000000000
30
0.0
0
SEQEND
5
47c
100
AcDbEntity
8
0-6戸当り
0
LINE
5
47d
100
AcDbEntity
8
0-9扉体
6
CONTINUOUS
62
2
100
AcDbLine
10
1181.620000000000
20
1228.362000000000
30
0.0
11
1181.620000000000
21
1196.362000000000
31
0.0
0
LINE
5
47e
100
AcDbEntity
8
0-9扉体
6
CONTINUOUS
62
2
100
AcDbLine
10
1170.720000000000
20
1220.362000000000
30
0.0
11
1170.720000000000
21
1204.362000000000
31
0.0
0
LINE
5
47f
100
AcDbEntity
8
0-9扉体
6
CONTINUOUS
62
2
100
AcDbLine
10
1170.720000000000
20
1220.362000000000
30
0.0
11
1181.620000000000
21
1220.362000000000
31
0.0
0
LINE
5
480
100
AcDbEntity
8
0-9扉体
6
CONTINUOUS
62
2
100
AcDbLine
10
1170.720000000000
20
1204.362000000000
30
0.0
11
1181.620000000000
21
1204.362000000000
31
0.0
0
LINE
5
481
100
AcDbEntity
8
0-9扉体
6
CONTINUOUS
62
2
100
AcDbLine
10
1193.220000000000
20
1204.362000000000
30
0.0
11
1195.220000000000
21
1204.362000000000
31
0.0
0
LINE
5
482
100
AcDbEntity
8
0-6戸当り
6
DOT
62
2
100
AcDbLine
10
1195.220000000000
20
1221.362000000000
30
0.0
11
1233.220000000000
21
1221.362000000000
31
0.0
0
LINE
5
483
100
AcDbEntity
8
0-9扉体
6
CONTINUOUS
62
2
100
AcDbLine
10
1193.220000000000
20
1220.362000000000
30
0.0
11
1195.220000000000
21
1220.362000000000
31
0.0
0
LINE
5
484
100
AcDbEntity
8
0-5基準線
6
CENTER2
62
7
100
AcDbLine
10
1164.220000000000
20
1212.362000000000
30
0.0
11
1264.220000000000
21
1212.362000000000
31
0.0
0
LINE
5
485
100
AcDbEntity
8
0-9扉体
6
CONTINUOUS
62
2
100
AcDbLine
10
1246.820000000000
20
1228.362000000000
30
0.0
11
1246.820000000000
21
1196.362000000000
31
0.0
0
LINE
5
486
100
AcDbEntity
8
0-9扉体
6
CONTINUOUS
62
2
100
AcDbLine
10
1246.820000000000
20
1228.362000000000
30
0.0
11
1244.220000000000
21
1228.362000000000
31
0.0
0
LINE
5
487
100
AcDbEntity
8
0-9扉体
6
CONTINUOUS
62
2
100
AcDbLine
10
1246.820000000000
20
1196.362000000000
30
0.0
11
1244.220000000000
21
1196.362000000000
31
0.0
0
LINE
5
488
100
AcDbEntity
8
0-9扉体
6
CONTINUOUS
62
2
100
AcDbLine
10
1257.720000000000
20
1220.362000000000
30
0.0
11
1257.720000000000
21
1204.362000000000
31
0.0
0
LINE
5
489
100
AcDbEntity
8
0-9扉体
6
CONTINUOUS
62
2
100
AcDbLine
10
1257.720000000000
20
1220.362000000000
30
0.0
11
1246.820000000000
21
1220.362000000000
31
0.0
0
LINE
5
48a
100
AcDbEntity
8
0-9扉体
6
CONTINUOUS
62
2
100
AcDbLine
10
1257.720000000000
20
1204.362000000000
30
0.0
11
1246.820000000000
21
1204.362000000000
31
0.0
0
LINE
5
48b
100
AcDbEntity
8
0-9扉体
6
CONTINUOUS
62
2
100
AcDbLine
10
1235.220000000000
20
1204.362000000000
30
0.0
11
1233.220000000000
21
1204.362000000000
31
0.0
0
LINE
5
48c
100
AcDbEntity
8
0-9扉体
6
CONTINUOUS
62
2
100
AcDbLine
10
1235.220000000000
20
1220.362000000000
30
0.0
11
1233.220000000000
21
1220.362000000000
31
0.0
0
POLYLINE
5
48d
100
AcDbEntity
8
0-9扉体
6
CONTINUOUS
62
  2
100
AcDb2dPolyline
66
1
10
0.0
20
0.0
30
0.0
70
0
0
VERTEX
5
48e
100
AcDbEntity
8
0-9扉体
6
CONTINUOUS
62
  2
100
AcDbVertex
100
AcDb2dVertex
10
1244.220000000000
20
1236.362000000000
30
0.0
0
VERTEX
5
48f
100
AcDbEntity
8
0-9扉体
6
CONTINUOUS
62
  2
100
AcDbVertex
100
AcDb2dVertex
10
1235.220000000000
20
1236.362000000000
30
0.0
0
VERTEX
5
490
100
AcDbEntity
8
0-9扉体
6
CONTINUOUS
62
  2
100
AcDbVertex
100
AcDb2dVertex
10
1235.220000000000
20
1171.362000000000
30
0.0
0
SEQEND
5
491
100
AcDbEntity
8
0-9扉体
0
LINE
5
492
100
AcDbEntity
8
0-9扉体
6
CONTINUOUS
62
2
100
AcDbLine
10
1244.220000000000
20
1236.362000000000
30
0.0
11
1244.220000000000
21
1171.362000000000
31
0.0
0
LINE
5
493
100
AcDbEntity
8
0-6戸当り
6
CONTINUOUS
62
2
100
AcDbLine
10
1158.720000000000
20
1232.847000000000
30
0.0
11
1149.220000000000
21
1238.332000000000
31
0.0
0
LINE
5
494
100
AcDbEntity
8
0-6戸当り
6
CONTINUOUS
62
2
100
AcDbLine
10
1158.720000000000
20
1232.847000000000
30
0.0
11
1158.720000000000
21
1221.878000000000
31
0.0
0
LINE
5
495
100
AcDbEntity
8
0-6戸当り
6
CONTINUOUS
62
2
100
AcDbLine
10
1149.220000000000
20
1216.393000000000
30
0.0
11
1158.720000000000
21
1221.878000000000
31
0.0
0
POLYLINE
5
496
100
AcDbEntity
8
0-6戸当り
6
CONTINUOUS
62
  2
100
AcDb2dPolyline
66
1
10
0.0
20
0.0
30
0.0
70
0
0
VERTEX
5
497
100
AcDbEntity
8
0-6戸当り
6
CONTINUOUS
62
  2
100
AcDbVertex
100
AcDb2dVertex
10
1149.220000000000
20
1216.393000000000
30
0.0
0
VERTEX
5
498
100
AcDbEntity
8
0-6戸当り
6
CONTINUOUS
62
  2
100
AcDbVertex
100
AcDb2dVertex
10
1139.720000000000
20
1221.878000000000
30
0.0
0
VERTEX
5
499
100
AcDbEntity
8
0-6戸当り
6
CONTINUOUS
62
  2
100
AcDbVertex
100
AcDb2dVertex
10
1139.720000000000
20
1232.847000000000
30
0.0
0
VERTEX
5
49a
100
AcDbEntity
8
0-6戸当り
6
CONTINUOUS
62
  2
100
AcDbVertex
100
AcDb2dVertex
10
1149.220000000000
20
1238.332000000000
30
0.0
0
SEQEND
5
49b
100
AcDbEntity
8
0-6戸当り
0
LINE
5
49c
100
AcDbEntity
8
0-A文字
6
CONTINUOUS
62
2
100
AcDbLine
10
2057.670000000000
20
992.363000000000
30
0.0
11
2258.370000000000
21
992.363000000000
31
0.0
0
LINE
5
49d
100
AcDbEntity
8
0-A文字
6
CONTINUOUS
62
2
100
AcDbLine
10
2057.670000000000
20
952.362000000000
30
0.0
11
2258.370000000000
21
952.362000000000
31
0.0
0
LINE
5
49e
100
AcDbEntity
8
0-A文字
6
CONTINUOUS
62
2
100
AcDbLine
10
2057.670000000000
20
992.363000000000
30
0.0
11
2057.670000000000
21
952.362000000000
31
0.0
0
LINE
5
49f
100
AcDbEntity
8
0-A文字
6
CONTINUOUS
62
2
100
AcDbLine
10
2258.370000000000
20
992.363000000000
30
0.0
11
2258.370000000000
21
1012.363000000000
31
0.0
0
LINE
5
4a0
100
AcDbEntity
8
0-A文字
6
CONTINUOUS
62
2
100
AcDbLine
10
2258.370000000000
20
952.362000000000
30
0.0
11
2258.370000000000
21
932.362000000000
31
0.0
0
LINE
5
4a1
100
AcDbEntity
8
0-A文字
6
CONTINUOUS
62
2
100
AcDbLine
10
2258.370000000000
20
1012.363000000000
30
0.0
11
2327.652000000000
21
972.362000000000
31
0.0
0
LINE
5
4a2
100
AcDbEntity
8
0-A文字
6
CONTINUOUS
62
2
100
AcDbLine
10
2258.370000000000
20
932.362000000000
30
0.0
11
2327.652000000000
21
972.362000000000
31
0.0
0
LINE
5
4a3
100
AcDbEntity
8
0-5基準線
6
CENTER2
62
7
100
AcDbLine
10
1214.220000000000
20
1272.363000000000
30
0.0
11
1214.220000000000
21
1150.898000000000
31
0.0
0
LINE
5
4a4
100
AcDbEntity
8
0-5基準線
6
CENTER2
62
7
100
AcDbLine
10
1384.220000000000
20
1272.363000000000
30
0.0
11
1384.220000000000
21
1150.898000000000
31
0.0
0
LINE
5
4a5
100
AcDbEntity
8
0-8寸法
6
CONTINUOUS
62
2
100
AcDbLine
10
1214.220000000000
20
1472.362000000000
30
0.0
11
1233.539000000000
21
1477.539000000000
31
0.0
0
LINE
5
4a6
100
AcDbEntity
8
0-8寸法
6
CONTINUOUS
62
2
100
AcDbLine
10
1214.220000000000
20
1472.362000000000
30
0.0
11
1233.539000000000
21
1467.186000000000
31
0.0
0
LINE
5
4a7
100
AcDbEntity
8
0-8寸法
6
CONTINUOUS
62
2
100
AcDbLine
10
1384.220000000000
20
1472.362000000000
30
0.0
11
1364.902000000000
21
1477.539000000000
31
0.0
0
LINE
5
4a8
100
AcDbEntity
8
0-8寸法
6
CONTINUOUS
62
2
100
AcDbLine
10
1384.220000000000
20
1472.362000000000
30
0.0
11
1364.902000000000
21
1467.186000000000
31
0.0
0
LINE
5
4a9
100
AcDbEntity
8
0-5基準線
6
CENTER2
62
7
100
AcDbLine
10
1449.220000000000
20
2211.419000000000
30
0.0
11
1449.220000000000
21
2250.347000000000
31
0.0
0
LINE
5
4aa
100
AcDbEntity
8
0-9扉体
6
CONTINUOUS
62
2
100
AcDbLine
10
1151.220000000000
20
1173.662000000000
30
0.0
11
1177.220000000000
21
1173.662000000000
31
0.0
0
LINE
5
4ab
100
AcDbEntity
8
0-9扉体
6
CONTINUOUS
62
2
100
AcDbLine
10
1151.220000000000
20
1173.662000000000
30
0.0
11
1151.220000000000
21
1171.362000000000
31
0.0
0
LINE
5
4ac
100
AcDbEntity
8
0-9扉体
6
CONTINUOUS
62
2
100
AcDbLine
10
1177.220000000000
20
1173.662000000000
30
0.0
11
1177.220000000000
21
1171.362000000000
31
0.0
0
LINE
5
4ad
100
AcDbEntity
8
0-9扉体
6
CONTINUOUS
62
2
100
AcDbLine
10
1158.220000000000
20
1196.362000000000
30
0.0
11
1170.220000000000
21
1196.362000000000
31
0.0
0
LINE
5
4ae
100
AcDbEntity
8
0-9扉体
6
CONTINUOUS
62
2
100
AcDbLine
10
1158.220000000000
20
1196.362000000000
30
0.0
11
1158.220000000000
21
1186.662000000000
31
0.0
0
LINE
5
4af
100
AcDbEntity
8
0-9扉体
6
CONTINUOUS
62
2
100
AcDbLine
10
1170.220000000000
20
1196.362000000000
30
0.0
11
1170.220000000000
21
1186.662000000000
31
0.0
0
LINE
5
4b0
100
AcDbEntity
8
0-9扉体
6
CONTINUOUS
62
2
100
AcDbLine
10
1159.220000000000
20
1196.362000000000
30
0.0
11
1159.220000000000
21
1186.662000000000
31
0.0
0
LINE
5
4b1
100
AcDbEntity
8
0-9扉体
6
CONTINUOUS
62
2
100
AcDbLine
10
1169.220000000000
20
1196.362000000000
30
0.0
11
1169.220000000000
21
1186.662000000000
31
0.0
0
LINE
5
4b2
100
AcDbEntity
8
0-9扉体
6
CONTINUOUS
62
2
100
AcDbLine
10
1164.220000000000
20
1176.662000000000
30
0.0
11
1161.220000000000
21
1173.662000000000
31
0.0
0
LINE
5
4b3
100
AcDbEntity
8
0-9扉体
6
CONTINUOUS
62
2
100
AcDbLine
10
1164.220000000000
20
1173.662000000000
30
0.0
11
1167.220000000000
21
1176.662000000000
31
0.0
0
LINE
5
4b4
100
AcDbEntity
8
0-9扉体
6
CONTINUOUS
62
2
100
AcDbLine
10
1153.470000000000
20
1176.662000000000
30
0.0
11
1153.470000000000
21
1173.662000000000
31
0.0
0
POLYLINE
5
4b5
100
AcDbEntity
8
0-9扉体
6
CONTINUOUS
62
  2
100
AcDb2dPolyline
66
1
10
0.0
20
0.0
30
0.0
70
0
0
VERTEX
5
4b6
100
AcDbEntity
8
0-9扉体
6
CONTINUOUS
62
  2
100
AcDbVertex
100
AcDb2dVertex
10
1153.470000000000
20
1176.662000000000
30
0.0
0
VERTEX
5
4b7
100
AcDbEntity
8
0-9扉体
6
CONTINUOUS
62
  2
100
AcDbVertex
100
AcDb2dVertex
10
1174.970000000000
20
1176.662000000000
30
0.0
0
VERTEX
5
4b8
100
AcDbEntity
8
0-9扉体
6
CONTINUOUS
62
  2
100
AcDbVertex
100
AcDb2dVertex
10
1174.970000000000
20
1173.662000000000
30
0.0
0
SEQEND
5
4b9
100
AcDbEntity
8
0-9扉体
0
LINE
5
4ba
100
AcDbEntity
8
0-5基準線
6
CENTER2
62
7
100
AcDbLine
10
1164.220000000000
20
1176.662000000000
30
0.0
11
1164.220000000000
21
1150.898000000000
31
0.0
0
LINE
5
4bb
100
AcDbEntity
8
0-5基準線
6
CENTER2
62
7
100
AcDbLine
10
1164.220000000000
20
1199.317000000000
30
0.0
11
1164.220000000000
21
1185.814000000000
31
0.0
0
LINE
5
4bc
100
AcDbEntity
8
0-9扉体
6
CONTINUOUS
62
2
100
AcDbLine
10
1273.720000000000
20
1186.662000000000
30
0.0
11
1273.720000000000
21
1176.662000000000
31
0.0
0
LINE
5
4bd
100
AcDbEntity
8
0-9扉体
6
CONTINUOUS
62
2
100
AcDbLine
10
1254.720000000000
20
1186.662000000000
30
0.0
11
1254.720000000000
21
1176.662000000000
31
0.0
0
LINE
5
4be
100
AcDbEntity
8
0-9扉体
6
CONTINUOUS
62
2
100
AcDbLine
10
1254.720000000000
20
1186.662000000000
30
0.0
11
1273.720000000000
21
1186.662000000000
31
0.0
0
LINE
5
4bf
100
AcDbEntity
8
0-9扉体
6
CONTINUOUS
62
2
100
AcDbLine
10
1264.220000000000
20
1185.814000000000
30
0.0
11
1264.220000000000
21
1176.662000000000
31
0.0
0
LINE
5
4c0
100
AcDbEntity
8
0-9扉体
6
CONTINUOUS
62
2
100
AcDbLine
10
1277.220000000000
20
1173.662000000000
30
0.0
11
1251.220000000000
21
1173.662000000000
31
0.0
0
LINE
5
4c1
100
AcDbEntity
8
0-9扉体
6
CONTINUOUS
62
2
100
AcDbLine
10
1277.220000000000
20
1173.662000000000
30
0.0
11
1277.220000000000
21
1171.362000000000
31
0.0
0
LINE
5
4c2
100
AcDbEntity
8
0-9扉体
6
CONTINUOUS
62
2
100
AcDbLine
10
1251.220000000000
20
1173.662000000000
30
0.0
11
1251.220000000000
21
1171.362000000000
31
0.0
0
LINE
5
4c3
100
AcDbEntity
8
0-9扉体
6
CONTINUOUS
62
2
100
AcDbLine
10
1270.220000000000
20
1196.362000000000
30
0.0
11
1258.220000000000
21
1196.362000000000
31
0.0
0
LINE
5
4c4
100
AcDbEntity
8
0-9扉体
6
CONTINUOUS
62
2
100
AcDbLine
10
1270.220000000000
20
1196.362000000000
30
0.0
11
1270.220000000000
21
1186.662000000000
31
0.0
0
LINE
5
4c5
100
AcDbEntity
8
0-9扉体
6
CONTINUOUS
62
2
100
AcDbLine
10
1258.220000000000
20
1196.362000000000
30
0.0
11
1258.220000000000
21
1186.662000000000
31
0.0
0
LINE
5
4c6
100
AcDbEntity
8
0-9扉体
6
CONTINUOUS
62
2
100
AcDbLine
10
1269.220000000000
20
1196.362000000000
30
0.0
11
1269.220000000000
21
1186.662000000000
31
0.0
0
LINE
5
4c7
100
AcDbEntity
8
0-9扉体
6
CONTINUOUS
62
2
100
AcDbLine
10
1259.220000000000
20
1196.362000000000
30
0.0
11
1259.220000000000
21
1186.662000000000
31
0.0
0
LINE
5
4c8
100
AcDbEntity
8
0-9扉体
6
CONTINUOUS
62
2
100
AcDbLine
10
1264.220000000000
20
1176.662000000000
30
0.0
11
1267.220000000000
21
1173.662000000000
31
0.0
0
LINE
5
4c9
100
AcDbEntity
8
0-9扉体
6
CONTINUOUS
62
2
100
AcDbLine
10
1264.220000000000
20
1173.662000000000
30
0.0
11
1261.220000000000
21
1176.662000000000
31
0.0
0
LINE
5
4ca
100
AcDbEntity
8
0-9扉体
6
CONTINUOUS
62
2
100
AcDbLine
10
1274.970000000000
20
1176.662000000000
30
0.0
11
1274.970000000000
21
1173.662000000000
31
0.0
0
POLYLINE
5
4cb
100
AcDbEntity
8
0-9扉体
6
CONTINUOUS
62
  2
100
AcDb2dPolyline
66
1
10
0.0
20
0.0
30
0.0
70
0
0
VERTEX
5
4cc
100
AcDbEntity
8
0-9扉体
6
CONTINUOUS
62
  2
100
AcDbVertex
100
AcDb2dVertex
10
1274.970000000000
20
1176.662000000000
30
0.0
0
VERTEX
5
4cd
100
AcDbEntity
8
0-9扉体
6
CONTINUOUS
62
  2
100
AcDbVertex
100
AcDb2dVertex
10
1253.470000000000
20
1176.662000000000
30
0.0
0
VERTEX
5
4ce
100
AcDbEntity
8
0-9扉体
6
CONTINUOUS
62
  2
100
AcDbVertex
100
AcDb2dVertex
10
1253.470000000000
20
1173.662000000000
30
0.0
0
SEQEND
5
4cf
100
AcDbEntity
8
0-9扉体
0
LINE
5
4d0
100
AcDbEntity
8
0-5基準線
6
CENTER2
62
7
100
AcDbLine
10
1264.220000000000
20
1176.662000000000
30
0.0
11
1264.220000000000
21
1150.898000000000
31
0.0
0
LINE
5
4d1
100
AcDbEntity
8
0-5基準線
6
CENTER2
62
7
100
AcDbLine
10
1264.220000000000
20
1199.317000000000
30
0.0
11
1264.220000000000
21
1185.814000000000
31
0.0
0
LINE
5
4d2
100
AcDbEntity
8
0-9扉体
6
CONTINUOUS
62
2
100
AcDbLine
10
1443.720000000000
20
1186.662000000000
30
0.0
11
1443.720000000000
21
1176.662000000000
31
0.0
0
LINE
5
4d3
100
AcDbEntity
8
0-9扉体
6
CONTINUOUS
62
2
100
AcDbLine
10
1424.720000000000
20
1186.662000000000
30
0.0
11
1424.720000000000
21
1176.662000000000
31
0.0
0
LINE
5
4d4
100
AcDbEntity
8
0-9扉体
6
CONTINUOUS
62
2
100
AcDbLine
10
1424.720000000000
20
1186.662000000000
30
0.0
11
1443.720000000000
21
1186.662000000000
31
0.0
0
LINE
5
4d5
100
AcDbEntity
8
0-9扉体
6
CONTINUOUS
62
2
100
AcDbLine
10
1434.220000000000
20
1185.814000000000
30
0.0
11
1434.220000000000
21
1176.662000000000
31
0.0
0
LINE
5
4d6
100
AcDbEntity
8
0-9扉体
6
CONTINUOUS
62
2
100
AcDbLine
10
1447.220000000000
20
1173.662000000000
30
0.0
11
1421.220000000000
21
1173.662000000000
31
0.0
0
LINE
5
4d7
100
AcDbEntity
8
0-9扉体
6
CONTINUOUS
62
2
100
AcDbLine
10
1447.220000000000
20
1173.662000000000
30
0.0
11
1447.220000000000
21
1171.362000000000
31
0.0
0
LINE
5
4d8
100
AcDbEntity
8
0-9扉体
6
CONTINUOUS
62
2
100
AcDbLine
10
1421.220000000000
20
1173.662000000000
30
0.0
11
1421.220000000000
21
1171.362000000000
31
0.0
0
LINE
5
4d9
100
AcDbEntity
8
0-9扉体
6
CONTINUOUS
62
2
100
AcDbLine
10
1440.220000000000
20
1196.362000000000
30
0.0
11
1428.220000000000
21
1196.362000000000
31
0.0
0
LINE
5
4da
100
AcDbEntity
8
0-9扉体
6
CONTINUOUS
62
2
100
AcDbLine
10
1440.220000000000
20
1196.362000000000
30
0.0
11
1440.220000000000
21
1186.662000000000
31
0.0
0
LINE
5
4db
100
AcDbEntity
8
0-9扉体
6
CONTINUOUS
62
2
100
AcDbLine
10
1428.220000000000
20
1196.362000000000
30
0.0
11
1428.220000000000
21
1186.662000000000
31
0.0
0
LINE
5
4dc
100
AcDbEntity
8
0-9扉体
6
CONTINUOUS
62
2
100
AcDbLine
10
1439.220000000000
20
1196.362000000000
30
0.0
11
1439.220000000000
21
1186.662000000000
31
0.0
0
LINE
5
4dd
100
AcDbEntity
8
0-9扉体
6
CONTINUOUS
62
2
100
AcDbLine
10
1429.220000000000
20
1196.362000000000
30
0.0
11
1429.220000000000
21
1186.662000000000
31
0.0
0
LINE
5
4de
100
AcDbEntity
8
0-9扉体
6
CONTINUOUS
62
2
100
AcDbLine
10
1434.220000000000
20
1176.662000000000
30
0.0
11
1437.220000000000
21
1173.662000000000
31
0.0
0
LINE
5
4df
100
AcDbEntity
8
0-9扉体
6
CONTINUOUS
62
2
100
AcDbLine
10
1434.220000000000
20
1173.662000000000
30
0.0
11
1431.220000000000
21
1176.662000000000
31
0.0
0
LINE
5
4e0
100
AcDbEntity
8
0-9扉体
6
CONTINUOUS
62
2
100
AcDbLine
10
1444.970000000000
20
1176.662000000000
30
0.0
11
1444.970000000000
21
1173.662000000000
31
0.0
0
POLYLINE
5
4e1
100
AcDbEntity
8
0-9扉体
6
CONTINUOUS
62
  2
100
AcDb2dPolyline
66
1
10
0.0
20
0.0
30
0.0
70
0
0
VERTEX
5
4e2
100
AcDbEntity
8
0-9扉体
6
CONTINUOUS
62
  2
100
AcDbVertex
100
AcDb2dVertex
10
1444.970000000000
20
1176.662000000000
30
0.0
0
VERTEX
5
4e3
100
AcDbEntity
8
0-9扉体
6
CONTINUOUS
62
  2
100
AcDbVertex
100
AcDb2dVertex
10
1423.470000000000
20
1176.662000000000
30
0.0
0
VERTEX
5
4e4
100
AcDbEntity
8
0-9扉体
6
CONTINUOUS
62
  2
100
AcDbVertex
100
AcDb2dVertex
10
1423.470000000000
20
1173.662000000000
30
0.0
0
SEQEND
5
4e5
100
AcDbEntity
8
0-9扉体
0
LINE
5
4e6
100
AcDbEntity
8
0-5基準線
6
CENTER2
62
7
100
AcDbLine
10
1434.220000000000
20
1176.662000000000
30
0.0
11
1434.220000000000
21
1150.898000000000
31
0.0
0
LINE
5
4e7
100
AcDbEntity
8
0-5基準線
6
CENTER2
62
7
100
AcDbLine
10
1434.220000000000
20
1199.317000000000
30
0.0
11
1434.220000000000
21
1185.814000000000
31
0.0
0
LINE
5
4e8
100
AcDbEntity
8
0-9扉体
6
CONTINUOUS
62
2
100
AcDbLine
10
1324.720000000000
20
1186.662000000000
30
0.0
11
1324.720000000000
21
1176.662000000000
31
0.0
0
LINE
5
4e9
100
AcDbEntity
8
0-9扉体
6
CONTINUOUS
62
2
100
AcDbLine
10
1343.720000000000
20
1186.662000000000
30
0.0
11
1343.720000000000
21
1176.662000000000
31
0.0
0
LINE
5
4ea
100
AcDbEntity
8
0-9扉体
6
CONTINUOUS
62
2
100
AcDbLine
10
1343.720000000000
20
1186.662000000000
30
0.0
11
1324.720000000000
21
1186.662000000000
31
0.0
0
LINE
5
4eb
100
AcDbEntity
8
0-9扉体
6
CONTINUOUS
62
2
100
AcDbLine
10
1334.220000000000
20
1185.814000000000
30
0.0
11
1334.220000000000
21
1176.662000000000
31
0.0
0
LINE
5
4ec
100
AcDbEntity
8
0-9扉体
6
CONTINUOUS
62
2
100
AcDbLine
10
1321.220000000000
20
1173.662000000000
30
0.0
11
1347.220000000000
21
1173.662000000000
31
0.0
0
LINE
5
4ed
100
AcDbEntity
8
0-9扉体
6
CONTINUOUS
62
2
100
AcDbLine
10
1321.220000000000
20
1173.662000000000
30
0.0
11
1321.220000000000
21
1171.362000000000
31
0.0
0
LINE
5
4ee
100
AcDbEntity
8
0-9扉体
6
CONTINUOUS
62
2
100
AcDbLine
10
1347.220000000000
20
1173.662000000000
30
0.0
11
1347.220000000000
21
1171.362000000000
31
0.0
0
LINE
5
4ef
100
AcDbEntity
8
0-9扉体
6
CONTINUOUS
62
2
100
AcDbLine
10
1328.220000000000
20
1196.362000000000
30
0.0
11
1340.220000000000
21
1196.362000000000
31
0.0
0
LINE
5
4f0
100
AcDbEntity
8
0-9扉体
6
CONTINUOUS
62
2
100
AcDbLine
10
1328.220000000000
20
1196.362000000000
30
0.0
11
1328.220000000000
21
1186.662000000000
31
0.0
0
LINE
5
4f1
100
AcDbEntity
8
0-9扉体
6
CONTINUOUS
62
2
100
AcDbLine
10
1340.220000000000
20
1196.362000000000
30
0.0
11
1340.220000000000
21
1186.662000000000
31
0.0
0
LINE
5
4f2
100
AcDbEntity
8
0-9扉体
6
CONTINUOUS
62
2
100
AcDbLine
10
1329.220000000000
20
1196.362000000000
30
0.0
11
1329.220000000000
21
1186.662000000000
31
0.0
0
LINE
5
4f3
100
AcDbEntity
8
0-9扉体
6
CONTINUOUS
62
2
100
AcDbLine
10
1339.220000000000
20
1196.362000000000
30
0.0
11
1339.220000000000
21
1186.662000000000
31
0.0
0
LINE
5
4f4
100
AcDbEntity
8
0-9扉体
6
CONTINUOUS
62
2
100
AcDbLine
10
1334.220000000000
20
1176.662000000000
30
0.0
11
1331.220000000000
21
1173.662000000000
31
0.0
0
LINE
5
4f5
100
AcDbEntity
8
0-9扉体
6
CONTINUOUS
62
2
100
AcDbLine
10
1334.220000000000
20
1173.662000000000
30
0.0
11
1337.220000000000
21
1176.662000000000
31
0.0
0
LINE
5
4f6
100
AcDbEntity
8
0-9扉体
6
CONTINUOUS
62
2
100
AcDbLine
10
1323.470000000000
20
1176.662000000000
30
0.0
11
1323.470000000000
21
1173.662000000000
31
0.0
0
POLYLINE
5
4f7
100
AcDbEntity
8
0-9扉体
6
CONTINUOUS
62
  2
100
AcDb2dPolyline
66
1
10
0.0
20
0.0
30
0.0
70
0
0
VERTEX
5
4f8
100
AcDbEntity
8
0-9扉体
6
CONTINUOUS
62
  2
100
AcDbVertex
100
AcDb2dVertex
10
1323.470000000000
20
1176.662000000000
30
0.0
0
VERTEX
5
4f9
100
AcDbEntity
8
0-9扉体
6
CONTINUOUS
62
  2
100
AcDbVertex
100
AcDb2dVertex
10
1344.970000000000
20
1176.662000000000
30
0.0
0
VERTEX
5
4fa
100
AcDbEntity
8
0-9扉体
6
CONTINUOUS
62
  2
100
AcDbVertex
100
AcDb2dVertex
10
1344.970000000000
20
1173.662000000000
30
0.0
0
SEQEND
5
4fb
100
AcDbEntity
8
0-9扉体
0
LINE
5
4fc
100
AcDbEntity
8
0-5基準線
6
CENTER2
62
7
100
AcDbLine
10
1334.220000000000
20
1176.662000000000
30
0.0
11
1334.220000000000
21
1150.898000000000
31
0.0
0
LINE
5
4fd
100
AcDbEntity
8
0-5基準線
6
CENTER2
62
7
100
AcDbLine
10
1334.220000000000
20
1199.317000000000
30
0.0
11
1334.220000000000
21
1185.814000000000
31
0.0
0
LINE
5
4fe
100
AcDbEntity
8
0-9扉体
6
CONTINUOUS
62
2
100
AcDbLine
10
1181.620000000000
20
1228.362000000000
30
0.0
11
1184.220000000000
21
1228.362000000000
31
0.0
0
LINE
5
4ff
100
AcDbEntity
8
0-9扉体
6
CONTINUOUS
62
2
100
AcDbLine
10
1181.620000000000
20
1196.362000000000
30
0.0
11
1184.220000000000
21
1196.362000000000
31
0.0
0
LINE
5
500
100
AcDbEntity
8
0-6戸当り
6
DOT
62
2
100
AcDbLine
10
1195.220000000000
20
2197.822000000000
30
0.0
11
1233.220000000000
21
2197.822000000000
31
0.0
0
LINE
5
501
100
AcDbEntity
8
0-6戸当り
6
CONTINUOUS
62
2
100
AcDbLine
10
1195.220000000000
20
2189.822000000000
30
0.0
11
1233.220000000000
21
2189.822000000000
31
0.0
0
LINE
5
502
100
AcDbEntity
8
0-5基準線
6
CENTER2
62
7
100
AcDbLine
10
1299.220000000000
20
2463.822000000000
30
0.0
11
1299.220000000000
21
2161.532000000000
31
0.0
0
LINE
5
503
100
AcDbEntity
8
0-8寸法
6
CONTINUOUS
62
2
100
AcDbLine
10
2454.652000000000
20
1022.363000000000
30
0.0
11
2329.065000000000
21
1022.363000000000
31
0.0
0
LINE
5
504
100
AcDbEntity
8
0-8寸法
6
CONTINUOUS
62
2
100
AcDbLine
10
2396.544000000000
20
1122.362000000000
30
0.0
11
2296.652000000000
21
1122.362000000000
31
0.0
0
LINE
5
505
100
AcDbEntity
8
0-8寸法
6
CONTINUOUS
62
2
100
AcDbLine
10
2396.544000000000
20
1162.362000000000
30
0.0
11
2296.652000000000
21
1162.362000000000
31
0.0
0
LINE
5
506
100
AcDbEntity
8
0-8寸法
6
CONTINUOUS
62
2
100
AcDbLine
10
2306.652000000000
20
1122.362000000000
30
0.0
11
2301.475000000000
21
1103.044000000000
31
0.0
0
LINE
5
507
100
AcDbEntity
8
0-8寸法
6
CONTINUOUS
62
2
100
AcDbLine
10
2306.652000000000
20
1122.362000000000
30
0.0
11
2311.828000000000
21
1103.044000000000
31
0.0
0
LINE
5
508
100
AcDbEntity
8
0-8寸法
6
CONTINUOUS
62
2
100
AcDbLine
10
2396.544000000000
20
1212.362000000000
30
0.0
11
2296.652000000000
21
1212.362000000000
31
0.0
0
LINE
5
509
100
AcDbEntity
8
0-8寸法
6
CONTINUOUS
62
2
100
AcDbLine
10
2306.652000000000
20
1212.362000000000
30
0.0
11
2301.475000000000
21
1231.681000000000
31
0.0
0
LINE
5
50a
100
AcDbEntity
8
0-8寸法
6
CONTINUOUS
62
2
100
AcDbLine
10
2306.652000000000
20
1212.362000000000
30
0.0
11
2311.828000000000
21
1231.681000000000
31
0.0
0
POLYLINE
5
50b
100
AcDbEntity
8
0-8寸法
6
CONTINUOUS
62
  2
100
AcDb2dPolyline
66
1
10
0.0
20
0.0
30
0.0
70
0
0
VERTEX
5
50c
100
AcDbEntity
8
0-8寸法
6
CONTINUOUS
62
  2
100
AcDbVertex
100
AcDb2dVertex
10
2306.652000000000
20
1047.144000000000
30
0.0
0
VERTEX
5
50d
100
AcDbEntity
8
0-8寸法
6
CONTINUOUS
62
  2
100
AcDbVertex
100
AcDb2dVertex
10
2306.652000000000
20
1162.362000000000
30
0.0
0
VERTEX
5
50e
100
AcDbEntity
8
0-8寸法
6
CONTINUOUS
62
  2
100
AcDbVertex
100
AcDb2dVertex
10
2306.652000000000
20
1281.554000000000
30
0.0
0
SEQEND
5
50f
100
AcDbEntity
8
0-8寸法
0
LINE
5
510
100
AcDbEntity
8
0-6戸当り
6
CONTINUOUS
62
2
100
AcDbLine
10
2480.652000000000
20
722.362000000000
30
0.0
11
2492.652000000000
21
722.362000000000
31
0.0
0
LINE
5
511
100
AcDbEntity
8
0-6戸当り
6
CONTINUOUS
62
2
100
AcDbLine
10
2496.853000000000
20
747.362000000000
30
0.0
11
2526.365000000000
21
749.863000000000
31
0.0
0
LINE
5
512
100
AcDbEntity
8
0-6戸当り
6
CONTINUOUS
62
2
100
AcDbLine
10
2496.853000000000
20
742.362000000000
30
0.0
11
2526.365000000000
21
744.862000000000
31
0.0
0
LINE
5
513
100
AcDbEntity
8
0-6戸当り
6
CONTINUOUS
62
2
100
AcDbLine
10
2496.853000000000
20
747.362000000000
30
0.0
11
2496.853000000000
21
737.362000000000
31
0.0
0
LINE
5
514
100
AcDbEntity
8
0-6戸当り
6
CONTINUOUS
62
2
100
AcDbLine
10
2501.069000000000
20
747.720000000000
30
0.0
11
2501.069000000000
21
742.719000000000
31
0.0
0
LINE
5
515
100
AcDbEntity
8
0-6戸当り
6
CONTINUOUS
62
2
100
AcDbLine
10
2505.286000000000
20
748.076000000000
30
0.0
11
2505.286000000000
21
743.076000000000
31
0.0
0
LINE
5
516
100
AcDbEntity
8
0-6戸当り
6
CONTINUOUS
62
2
100
AcDbLine
10
2509.501000000000
20
748.434000000000
30
0.0
11
2509.501000000000
21
743.434000000000
31
0.0
0
LINE
5
517
100
AcDbEntity
8
0-6戸当り
6
CONTINUOUS
62
2
100
AcDbLine
10
2513.718000000000
20
748.791000000000
30
0.0
11
2513.718000000000
21
743.791000000000
31
0.0
0
LINE
5
518
100
AcDbEntity
8
0-6戸当り
6
CONTINUOUS
62
2
100
AcDbLine
10
2517.933000000000
20
749.148000000000
30
0.0
11
2517.933000000000
21
744.148000000000
31
0.0
0
LINE
5
519
100
AcDbEntity
8
0-6戸当り
6
CONTINUOUS
62
2
100
AcDbLine
10
2522.150000000000
20
749.505000000000
30
0.0
11
2522.150000000000
21
744.505000000000
31
0.0
0
POLYLINE
5
51a
100
AcDbEntity
8
0-6戸当り
6
CONTINUOUS
62
  2
100
AcDb2dPolyline
66
1
10
0.0
20
0.0
30
0.0
70
0
0
VERTEX
5
51b
100
AcDbEntity
8
0-6戸当り
6
CONTINUOUS
62
  2
100
AcDbVertex
100
AcDb2dVertex
10
2496.853000000000
20
737.362000000000
30
0.0
0
VERTEX
5
51c
100
AcDbEntity
8
0-6戸当り
6
CONTINUOUS
62
  2
100
AcDbVertex
100
AcDb2dVertex
10
2526.365000000000
20
734.862000000000
30
0.0
0
VERTEX
5
51d
100
AcDbEntity
8
0-6戸当り
6
CONTINUOUS
62
  2
100
AcDbVertex
100
AcDb2dVertex
10
2526.365000000000
20
739.862000000000
30
0.0
0
SEQEND
5
51e
100
AcDbEntity
8
0-6戸当り
0
LINE
5
51f
100
AcDbEntity
8
0-6戸当り
6
CONTINUOUS
62
2
100
AcDbLine
10
2496.853000000000
20
742.362000000000
30
0.0
11
2526.365000000000
21
739.862000000000
31
0.0
0
LINE
5
520
100
AcDbEntity
8
0-6戸当り
6
CONTINUOUS
62
2
100
AcDbLine
10
2501.069000000000
20
737.005000000000
30
0.0
11
2501.069000000000
21
742.005000000000
31
0.0
0
LINE
5
521
100
AcDbEntity
8
0-6戸当り
6
CONTINUOUS
62
2
100
AcDbLine
10
2505.286000000000
20
736.648000000000
30
0.0
11
2505.286000000000
21
741.648000000000
31
0.0
0
LINE
5
522
100
AcDbEntity
8
0-6戸当り
6
CONTINUOUS
62
2
100
AcDbLine
10
2509.501000000000
20
736.291000000000
30
0.0
11
2509.501000000000
21
741.291000000000
31
0.0
0
LINE
5
523
100
AcDbEntity
8
0-6戸当り
6
CONTINUOUS
62
2
100
AcDbLine
10
2513.718000000000
20
735.934000000000
30
0.0
11
2513.718000000000
21
740.934000000000
31
0.0
0
LINE
5
524
100
AcDbEntity
8
0-6戸当り
6
CONTINUOUS
62
2
100
AcDbLine
10
2517.933000000000
20
735.577000000000
30
0.0
11
2517.933000000000
21
740.576000000000
31
0.0
0
LINE
5
525
100
AcDbEntity
8
0-6戸当り
6
CONTINUOUS
62
2
100
AcDbLine
10
2522.150000000000
20
735.219000000000
30
0.0
11
2522.150000000000
21
740.220000000000
31
0.0
0
LINE
5
526
100
AcDbEntity
8
0-6戸当り
6
CONTINUOUS
62
2
100
AcDbLine
10
2479.051000000000
20
753.362000000000
30
0.0
11
2480.652000000000
21
753.362000000000
31
0.0
0
LINE
5
527
100
AcDbEntity
8
0-6戸当り
6
CONTINUOUS
62
2
100
AcDbLine
10
2479.051000000000
20
731.362000000000
30
0.0
11
2480.652000000000
21
731.362000000000
31
0.0
0
LINE
5
528
100
AcDbEntity
8
0-6戸当り
6
CONTINUOUS
62
2
100
AcDbLine
10
2471.052000000000
20
750.862000000000
30
0.0
11
2471.811000000000
21
752.178000000000
31
0.0
0
POLYLINE
5
529
100
AcDbEntity
8
0-6戸当り
6
CONTINUOUS
62
  2
100
AcDb2dPolyline
66
1
10
0.0
20
0.0
30
0.0
70
0
0
VERTEX
5
52a
100
AcDbEntity
8
0-6戸当り
6
CONTINUOUS
62
  2
100
AcDbVertex
100
AcDb2dVertex
10
2471.052000000000
20
750.862000000000
30
0.0
0
VERTEX
5
52b
100
AcDbEntity
8
0-6戸当り
6
CONTINUOUS
62
  2
100
AcDbVertex
100
AcDb2dVertex
10
2471.052000000000
20
733.862000000000
30
0.0
0
VERTEX
5
52c
100
AcDbEntity
8
0-6戸当り
6
CONTINUOUS
62
  2
100
AcDbVertex
100
AcDb2dVertex
10
2471.811000000000
20
732.547000000000
30
0.0
0
SEQEND
5
52d
100
AcDbEntity
8
0-6戸当り
0
LINE
5
52e
100
AcDbEntity
8
0-6戸当り
6
CONTINUOUS
62
2
100
AcDbLine
10
2479.051000000000
20
732.547000000000
30
0.0
11
2471.811000000000
21
732.547000000000
31
0.0
0
LINE
5
52f
100
AcDbEntity
8
0-6戸当り
6
CONTINUOUS
62
2
100
AcDbLine
10
2479.051000000000
20
747.270000000000
30
0.0
11
2471.811000000000
21
747.270000000000
31
0.0
0
LINE
5
530
100
AcDbEntity
8
0-6戸当り
6
CONTINUOUS
62
2
100
AcDbLine
10
2479.051000000000
20
737.455000000000
30
0.0
11
2471.811000000000
21
737.455000000000
31
0.0
0
LINE
5
531
100
AcDbEntity
8
0-6戸当り
6
CONTINUOUS
62
2
100
AcDbLine
10
2479.051000000000
20
752.178000000000
30
0.0
11
2471.811000000000
21
752.178000000000
31
0.0
0
LINE
5
532
100
AcDbEntity
8
0-6戸当り
6
CONTINUOUS
62
2
100
AcDbLine
10
2479.051000000000
20
731.362000000000
30
0.0
11
2479.051000000000
21
753.362000000000
31
0.0
0
LINE
5
533
100
AcDbEntity
8
0-6戸当り
6
CONTINUOUS
62
2
100
AcDbLine
10
2471.052000000000
20
737.362000000000
30
0.0
11
2466.366000000000
21
737.362000000000
31
0.0
0
LINE
5
534
100
AcDbEntity
8
0-6戸当り
6
CONTINUOUS
62
2
100
AcDbLine
10
2471.052000000000
20
747.363000000000
30
0.0
11
2466.366000000000
21
747.363000000000
31
0.0
0
LINE
5
535
100
AcDbEntity
8
0-6戸当り
6
CONTINUOUS
62
2
100
AcDbLine
10
2471.052000000000
20
738.362000000000
30
0.0
11
2466.135000000000
21
738.362000000000
31
0.0
0
LINE
5
536
100
AcDbEntity
8
0-6戸当り
6
CONTINUOUS
62
2
100
AcDbLine
10
2471.052000000000
20
746.362000000000
30
0.0
11
2466.135000000000
21
746.362000000000
31
0.0
0
LINE
5
537
100
AcDbEntity
8
0-6戸当り
6
CONTINUOUS
62
2
100
AcDbLine
10
2466.366000000000
20
737.362000000000
30
0.0
11
2466.366000000000
21
747.363000000000
31
0.0
0
LINE
5
538
100
AcDbEntity
8
0-6戸当り
6
CONTINUOUS
62
2
100
AcDbLine
10
2526.365000000000
20
749.863000000000
30
0.0
11
2526.365000000000
21
744.862000000000
31
0.0
0
LINE
5
539
100
AcDbEntity
8
0-6戸当り
6
CONTINUOUS
62
2
100
AcDbLine
10
1529.220000000000
20
752.162000000000
30
0.0
11
1520.733000000000
21
747.262000000000
31
0.0
0
LINE
5
53a
100
AcDbEntity
8
0-6戸当り
6
CONTINUOUS
62
2
100
AcDbLine
10
1529.220000000000
20
732.562000000000
30
0.0
11
1520.733000000000
21
737.462000000000
31
0.0
0
LINE
5
53b
100
AcDbEntity
8
0-6戸当り
6
CONTINUOUS
62
2
100
AcDbLine
10
1520.733000000000
20
747.262000000000
30
0.0
11
1520.733000000000
21
737.462000000000
31
0.0
0
LINE
5
53c
100
AcDbEntity
8
0-6戸当り
6
CONTINUOUS
62
2
100
AcDbLine
10
1529.220000000000
20
732.562000000000
30
0.0
11
1537.707000000000
21
737.462000000000
31
0.0
0
LINE
5
53d
100
AcDbEntity
8
0-6戸当り
6
CONTINUOUS
62
2
100
AcDbLine
10
1529.220000000000
20
752.162000000000
30
0.0
11
1537.707000000000
21
747.262000000000
31
0.0
0
LINE
5
53e
100
AcDbEntity
8
0-6戸当り
6
CONTINUOUS
62
2
100
AcDbLine
10
1537.707000000000
20
737.462000000000
30
0.0
11
1537.707000000000
21
747.262000000000
31
0.0
0
LINE
5
53f
100
AcDbEntity
8
0-5基準線
6
CENTER2
62
7
100
AcDbLine
10
1529.220000000000
20
727.362000000000
30
0.0
11
1529.220000000000
21
757.362000000000
31
0.0
0
LINE
5
540
100
AcDbEntity
8
0-5基準線
6
CENTER2
62
7
100
AcDbLine
10
1514.220000000000
20
742.362000000000
30
0.0
11
1544.220000000000
21
742.362000000000
31
0.0
0
LINE
5
541
100
AcDbEntity
8
0-6戸当り
6
CONTINUOUS
62
2
100
AcDbLine
10
2492.652000000000
20
747.362000000000
30
0.0
11
2496.853000000000
21
747.362000000000
31
0.0
0
LINE
5
542
100
AcDbEntity
8
0-6戸当り
6
CONTINUOUS
62
2
100
AcDbLine
10
2492.652000000000
20
737.362000000000
30
0.0
11
2496.853000000000
21
737.362000000000
31
0.0
0
LINE
5
543
100
AcDbEntity
8
0-5基準線
6
CENTER2
62
7
100
AcDbLine
10
2462.479000000000
20
742.362000000000
30
0.0
11
2531.435000000000
21
742.362000000000
31
0.0
0
LINE
5
544
100
AcDbEntity
8
0-9扉体
6
CONTINUOUS
62
2
100
AcDbLine
10
1284.220000000000
20
1171.362000000000
30
0.0
11
1144.220000000000
21
1171.362000000000
31
0.0
0
LINE
5
545
100
AcDbEntity
8
0-6戸当り
6
CONTINUOUS
62
2
100
AcDbLine
10
1549.220000000000
20
722.362000000000
30
0.0
11
1049.220000000000
21
722.362000000000
31
0.0
0
LINE
5
546
100
AcDbEntity
8
0-6戸当り
6
CONTINUOUS
62
2
100
AcDbLine
10
1379.220000000000
20
752.162000000000
30
0.0
11
1370.733000000000
21
747.262000000000
31
0.0
0
LINE
5
547
100
AcDbEntity
8
0-6戸当り
6
CONTINUOUS
62
2
100
AcDbLine
10
1379.220000000000
20
732.562000000000
30
0.0
11
1370.733000000000
21
737.462000000000
31
0.0
0
LINE
5
548
100
AcDbEntity
8
0-6戸当り
6
CONTINUOUS
62
2
100
AcDbLine
10
1370.733000000000
20
747.262000000000
30
0.0
11
1370.733000000000
21
737.462000000000
31
0.0
0
LINE
5
549
100
AcDbEntity
8
0-6戸当り
6
CONTINUOUS
62
2
100
AcDbLine
10
1379.220000000000
20
732.562000000000
30
0.0
11
1387.707000000000
21
737.462000000000
31
0.0
0
LINE
5
54a
100
AcDbEntity
8
0-6戸当り
6
CONTINUOUS
62
2
100
AcDbLine
10
1379.220000000000
20
752.162000000000
30
0.0
11
1387.707000000000
21
747.262000000000
31
0.0
0
LINE
5
54b
100
AcDbEntity
8
0-6戸当り
6
CONTINUOUS
62
2
100
AcDbLine
10
1387.707000000000
20
737.462000000000
30
0.0
11
1387.707000000000
21
747.262000000000
31
0.0
0
LINE
5
54c
100
AcDbEntity
8
0-5基準線
6
CENTER2
62
7
100
AcDbLine
10
1379.220000000000
20
727.362000000000
30
0.0
11
1379.220000000000
21
757.362000000000
31
0.0
0
LINE
5
54d
100
AcDbEntity
8
0-5基準線
6
CENTER2
62
7
100
AcDbLine
10
1364.220000000000
20
742.362000000000
30
0.0
11
1394.220000000000
21
742.362000000000
31
0.0
0
LINE
5
54e
100
AcDbEntity
8
0-6戸当り
6
CONTINUOUS
62
2
100
AcDbLine
10
1069.220000000000
20
752.162000000000
30
0.0
11
1077.707000000000
21
747.262000000000
31
0.0
0
LINE
5
54f
100
AcDbEntity
8
0-6戸当り
6
CONTINUOUS
62
2
100
AcDbLine
10
1069.220000000000
20
732.562000000000
30
0.0
11
1077.707000000000
21
737.462000000000
31
0.0
0
LINE
5
550
100
AcDbEntity
8
0-6戸当り
6
CONTINUOUS
62
2
100
AcDbLine
10
1077.707000000000
20
747.262000000000
30
0.0
11
1077.707000000000
21
737.462000000000
31
0.0
0
LINE
5
551
100
AcDbEntity
8
0-6戸当り
6
CONTINUOUS
62
2
100
AcDbLine
10
1069.220000000000
20
732.562000000000
30
0.0
11
1060.733000000000
21
737.462000000000
31
0.0
0
LINE
5
552
100
AcDbEntity
8
0-6戸当り
6
CONTINUOUS
62
2
100
AcDbLine
10
1069.220000000000
20
752.162000000000
30
0.0
11
1060.733000000000
21
747.262000000000
31
0.0
0
LINE
5
553
100
AcDbEntity
8
0-6戸当り
6
CONTINUOUS
62
2
100
AcDbLine
10
1060.733000000000
20
737.462000000000
30
0.0
11
1060.733000000000
21
747.262000000000
31
0.0
0
LINE
5
554
100
AcDbEntity
8
0-5基準線
6
CENTER2
62
7
100
AcDbLine
10
1069.220000000000
20
727.362000000000
30
0.0
11
1069.220000000000
21
757.362000000000
31
0.0
0
LINE
5
555
100
AcDbEntity
8
0-5基準線
6
CENTER2
62
7
100
AcDbLine
10
1084.220000000000
20
742.362000000000
30
0.0
11
1054.220000000000
21
742.362000000000
31
0.0
0
LINE
5
556
100
AcDbEntity
8
0-6戸当り
6
CONTINUOUS
62
2
100
AcDbLine
10
1219.220000000000
20
752.162000000000
30
0.0
11
1227.707000000000
21
747.262000000000
31
0.0
0
LINE
5
557
100
AcDbEntity
8
0-6戸当り
6
CONTINUOUS
62
2
100
AcDbLine
10
1219.220000000000
20
732.562000000000
30
0.0
11
1227.707000000000
21
737.462000000000
31
0.0
0
LINE
5
558
100
AcDbEntity
8
0-6戸当り
6
CONTINUOUS
62
2
100
AcDbLine
10
1227.707000000000
20
747.262000000000
30
0.0
11
1227.707000000000
21
737.462000000000
31
0.0
0
LINE
5
559
100
AcDbEntity
8
0-6戸当り
6
CONTINUOUS
62
2
100
AcDbLine
10
1219.220000000000
20
732.562000000000
30
0.0
11
1210.733000000000
21
737.462000000000
31
0.0
0
LINE
5
55a
100
AcDbEntity
8
0-6戸当り
6
CONTINUOUS
62
2
100
AcDbLine
10
1219.220000000000
20
752.162000000000
30
0.0
11
1210.733000000000
21
747.262000000000
31
0.0
0
LINE
5
55b
100
AcDbEntity
8
0-6戸当り
6
CONTINUOUS
62
2
100
AcDbLine
10
1210.733000000000
20
737.462000000000
30
0.0
11
1210.733000000000
21
747.262000000000
31
0.0
0
LINE
5
55c
100
AcDbEntity
8
0-5基準線
6
CENTER2
62
7
100
AcDbLine
10
1219.220000000000
20
727.362000000000
30
0.0
11
1219.220000000000
21
757.362000000000
31
0.0
0
LINE
5
55d
100
AcDbEntity
8
0-5基準線
6
CENTER2
62
7
100
AcDbLine
10
1234.220000000000
20
742.362000000000
30
0.0
11
1204.220000000000
21
742.362000000000
31
0.0
0
LINE
5
55e
100
AcDbEntity
8
0-6戸当り
6
CONTINUOUS
62
2
100
AcDbLine
10
2480.652000000000
20
1247.362000000000
30
0.0
11
2492.652000000000
21
1247.362000000000
31
0.0
0
LINE
5
55f
100
AcDbEntity
8
0-6戸当り
6
CONTINUOUS
62
2
100
AcDbLine
10
1049.220000000000
20
722.362000000000
30
0.0
11
1049.220000000000
21
1247.362000000000
31
0.0
0
LINE
5
560
100
AcDbEntity
8
0-6戸当り
6
CONTINUOUS
62
2
100
AcDbLine
10
1549.220000000000
20
1247.362000000000
30
0.0
11
1049.220000000000
21
1247.362000000000
31
0.0
0
LINE
5
561
100
AcDbEntity
8
0-6戸当り
6
CONTINUOUS
62
2
100
AcDbLine
10
1549.220000000000
20
1247.362000000000
30
0.0
11
1549.220000000000
21
722.362000000000
31
0.0
0
LINE
5
562
100
AcDbEntity
8
0-6戸当り
6
CONTINUOUS
62
2
100
AcDbLine
10
1529.220000000000
20
1237.162000000000
30
0.0
11
1520.733000000000
21
1232.262000000000
31
0.0
0
LINE
5
563
100
AcDbEntity
8
0-6戸当り
6
CONTINUOUS
62
2
100
AcDbLine
10
1529.220000000000
20
1217.562000000000
30
0.0
11
1520.733000000000
21
1222.462000000000
31
0.0
0
LINE
5
564
100
AcDbEntity
8
0-6戸当り
6
CONTINUOUS
62
2
100
AcDbLine
10
1520.733000000000
20
1232.262000000000
30
0.0
11
1520.733000000000
21
1222.462000000000
31
0.0
0
LINE
5
565
100
AcDbEntity
8
0-6戸当り
6
CONTINUOUS
62
2
100
AcDbLine
10
1529.220000000000
20
1217.562000000000
30
0.0
11
1537.707000000000
21
1222.462000000000
31
0.0
0
LINE
5
566
100
AcDbEntity
8
0-6戸当り
6
CONTINUOUS
62
2
100
AcDbLine
10
1529.220000000000
20
1237.162000000000
30
0.0
11
1537.707000000000
21
1232.262000000000
31
0.0
0
LINE
5
567
100
AcDbEntity
8
0-6戸当り
6
CONTINUOUS
62
2
100
AcDbLine
10
1537.707000000000
20
1222.462000000000
30
0.0
11
1537.707000000000
21
1232.262000000000
31
0.0
0
LINE
5
568
100
AcDbEntity
8
0-5基準線
6
CENTER2
62
7
100
AcDbLine
10
1529.220000000000
20
1212.362000000000
30
0.0
11
1529.220000000000
21
1242.362000000000
31
0.0
0
LINE
5
569
100
AcDbEntity
8
0-5基準線
6
CENTER2
62
7
100
AcDbLine
10
1514.220000000000
20
1227.362000000000
30
0.0
11
1544.220000000000
21
1227.362000000000
31
0.0
0
LINE
5
56a
100
AcDbEntity
8
0-6戸当り
6
CONTINUOUS
62
2
100
AcDbLine
10
1529.220000000000
20
1077.162000000000
30
0.0
11
1520.733000000000
21
1072.262000000000
31
0.0
0
LINE
5
56b
100
AcDbEntity
8
0-6戸当り
6
CONTINUOUS
62
2
100
AcDbLine
10
1529.220000000000
20
1057.562000000000
30
0.0
11
1520.733000000000
21
1062.462000000000
31
0.0
0
LINE
5
56c
100
AcDbEntity
8
0-6戸当り
6
CONTINUOUS
62
2
100
AcDbLine
10
1520.733000000000
20
1072.262000000000
30
0.0
11
1520.733000000000
21
1062.462000000000
31
0.0
0
LINE
5
56d
100
AcDbEntity
8
0-6戸当り
6
CONTINUOUS
62
2
100
AcDbLine
10
1529.220000000000
20
1057.562000000000
30
0.0
11
1537.707000000000
21
1062.462000000000
31
0.0
0
LINE
5
56e
100
AcDbEntity
8
0-6戸当り
6
CONTINUOUS
62
2
100
AcDbLine
10
1529.220000000000
20
1077.162000000000
30
0.0
11
1537.707000000000
21
1072.262000000000
31
0.0
0
LINE
5
56f
100
AcDbEntity
8
0-6戸当り
6
CONTINUOUS
62
2
100
AcDbLine
10
1537.707000000000
20
1062.462000000000
30
0.0
11
1537.707000000000
21
1072.262000000000
31
0.0
0
LINE
5
570
100
AcDbEntity
8
0-5基準線
6
CENTER2
62
7
100
AcDbLine
10
1529.220000000000
20
1052.362000000000
30
0.0
11
1529.220000000000
21
1082.362000000000
31
0.0
0
LINE
5
571
100
AcDbEntity
8
0-5基準線
6
CENTER2
62
7
100
AcDbLine
10
1514.220000000000
20
1067.362000000000
30
0.0
11
1544.220000000000
21
1067.362000000000
31
0.0
0
LINE
5
572
100
AcDbEntity
8
0-6戸当り
6
CONTINUOUS
62
2
100
AcDbLine
10
1529.220000000000
20
912.162000000000
30
0.0
11
1520.733000000000
21
907.262000000000
31
0.0
0
LINE
5
573
100
AcDbEntity
8
0-6戸当り
6
CONTINUOUS
62
2
100
AcDbLine
10
1529.220000000000
20
892.562000000000
30
0.0
11
1520.733000000000
21
897.462000000000
31
0.0
0
LINE
5
574
100
AcDbEntity
8
0-6戸当り
6
CONTINUOUS
62
2
100
AcDbLine
10
1520.733000000000
20
907.262000000000
30
0.0
11
1520.733000000000
21
897.462000000000
31
0.0
0
LINE
5
575
100
AcDbEntity
8
0-6戸当り
6
CONTINUOUS
62
2
100
AcDbLine
10
1529.220000000000
20
892.562000000000
30
0.0
11
1537.707000000000
21
897.462000000000
31
0.0
0
LINE
5
576
100
AcDbEntity
8
0-6戸当り
6
CONTINUOUS
62
2
100
AcDbLine
10
1529.220000000000
20
912.162000000000
30
0.0
11
1537.707000000000
21
907.262000000000
31
0.0
0
LINE
5
577
100
AcDbEntity
8
0-6戸当り
6
CONTINUOUS
62
2
100
AcDbLine
10
1537.707000000000
20
897.462000000000
30
0.0
11
1537.707000000000
21
907.262000000000
31
0.0
0
LINE
5
578
100
AcDbEntity
8
0-5基準線
6
CENTER2
62
7
100
AcDbLine
10
1529.220000000000
20
887.362000000000
30
0.0
11
1529.220000000000
21
917.362000000000
31
0.0
0
LINE
5
579
100
AcDbEntity
8
0-5基準線
6
CENTER2
62
7
100
AcDbLine
10
1514.220000000000
20
902.362000000000
30
0.0
11
1544.220000000000
21
902.362000000000
31
0.0
0
LINE
5
57a
100
AcDbEntity
8
0-6戸当り
6
CONTINUOUS
62
2
100
AcDbLine
10
1069.220000000000
20
1237.162000000000
30
0.0
11
1077.707000000000
21
1232.262000000000
31
0.0
0
LINE
5
57b
100
AcDbEntity
8
0-6戸当り
6
CONTINUOUS
62
2
100
AcDbLine
10
1069.220000000000
20
1217.562000000000
30
0.0
11
1077.707000000000
21
1222.462000000000
31
0.0
0
LINE
5
57c
100
AcDbEntity
8
0-6戸当り
6
CONTINUOUS
62
2
100
AcDbLine
10
1077.707000000000
20
1232.262000000000
30
0.0
11
1077.707000000000
21
1222.462000000000
31
0.0
0
LINE
5
57d
100
AcDbEntity
8
0-6戸当り
6
CONTINUOUS
62
2
100
AcDbLine
10
1069.220000000000
20
1217.562000000000
30
0.0
11
1060.733000000000
21
1222.462000000000
31
0.0
0
LINE
5
57e
100
AcDbEntity
8
0-6戸当り
6
CONTINUOUS
62
2
100
AcDbLine
10
1069.220000000000
20
1237.162000000000
30
0.0
11
1060.733000000000
21
1232.262000000000
31
0.0
0
LINE
5
57f
100
AcDbEntity
8
0-6戸当り
6
CONTINUOUS
62
2
100
AcDbLine
10
1060.733000000000
20
1222.462000000000
30
0.0
11
1060.733000000000
21
1232.262000000000
31
0.0
0
LINE
5
580
100
AcDbEntity
8
0-5基準線
6
CENTER2
62
7
100
AcDbLine
10
1069.220000000000
20
1212.362000000000
30
0.0
11
1069.220000000000
21
1242.362000000000
31
0.0
0
LINE
5
581
100
AcDbEntity
8
0-5基準線
6
CENTER2
62
7
100
AcDbLine
10
1084.220000000000
20
1227.362000000000
30
0.0
11
1054.220000000000
21
1227.362000000000
31
0.0
0
LINE
5
582
100
AcDbEntity
8
0-6戸当り
6
CONTINUOUS
62
2
100
AcDbLine
10
1069.220000000000
20
1077.162000000000
30
0.0
11
1077.707000000000
21
1072.262000000000
31
0.0
0
LINE
5
583
100
AcDbEntity
8
0-6戸当り
6
CONTINUOUS
62
2
100
AcDbLine
10
1069.220000000000
20
1057.562000000000
30
0.0
11
1077.707000000000
21
1062.462000000000
31
0.0
0
LINE
5
584
100
AcDbEntity
8
0-6戸当り
6
CONTINUOUS
62
2
100
AcDbLine
10
1077.707000000000
20
1072.262000000000
30
0.0
11
1077.707000000000
21
1062.462000000000
31
0.0
0
LINE
5
585
100
AcDbEntity
8
0-6戸当り
6
CONTINUOUS
62
2
100
AcDbLine
10
1069.220000000000
20
1057.562000000000
30
0.0
11
1060.733000000000
21
1062.462000000000
31
0.0
0
LINE
5
586
100
AcDbEntity
8
0-6戸当り
6
CONTINUOUS
62
2
100
AcDbLine
10
1069.220000000000
20
1077.162000000000
30
0.0
11
1060.733000000000
21
1072.262000000000
31
0.0
0
LINE
5
587
100
AcDbEntity
8
0-6戸当り
6
CONTINUOUS
62
2
100
AcDbLine
10
1060.733000000000
20
1062.462000000000
30
0.0
11
1060.733000000000
21
1072.262000000000
31
0.0
0
LINE
5
588
100
AcDbEntity
8
0-5基準線
6
CENTER2
62
7
100
AcDbLine
10
1069.220000000000
20
1052.362000000000
30
0.0
11
1069.220000000000
21
1082.362000000000
31
0.0
0
LINE
5
589
100
AcDbEntity
8
0-5基準線
6
CENTER2
62
7
100
AcDbLine
10
1084.220000000000
20
1067.362000000000
30
0.0
11
1054.220000000000
21
1067.362000000000
31
0.0
0
LINE
5
58a
100
AcDbEntity
8
0-6戸当り
6
CONTINUOUS
62
2
100
AcDbLine
10
1069.220000000000
20
912.162000000000
30
0.0
11
1077.707000000000
21
907.262000000000
31
0.0
0
LINE
5
58b
100
AcDbEntity
8
0-6戸当り
6
CONTINUOUS
62
2
100
AcDbLine
10
1069.220000000000
20
892.562000000000
30
0.0
11
1077.707000000000
21
897.462000000000
31
0.0
0
LINE
5
58c
100
AcDbEntity
8
0-6戸当り
6
CONTINUOUS
62
2
100
AcDbLine
10
1077.707000000000
20
907.262000000000
30
0.0
11
1077.707000000000
21
897.462000000000
31
0.0
0
LINE
5
58d
100
AcDbEntity
8
0-6戸当り
6
CONTINUOUS
62
2
100
AcDbLine
10
1069.220000000000
20
892.562000000000
30
0.0
11
1060.733000000000
21
897.462000000000
31
0.0
0
LINE
5
58e
100
AcDbEntity
8
0-6戸当り
6
CONTINUOUS
62
2
100
AcDbLine
10
1069.220000000000
20
912.162000000000
30
0.0
11
1060.733000000000
21
907.262000000000
31
0.0
0
LINE
5
58f
100
AcDbEntity
8
0-6戸当り
6
CONTINUOUS
62
2
100
AcDbLine
10
1060.733000000000
20
897.462000000000
30
0.0
11
1060.733000000000
21
907.262000000000
31
0.0
0
LINE
5
590
100
AcDbEntity
8
0-5基準線
6
CENTER2
62
7
100
AcDbLine
10
1069.220000000000
20
887.362000000000
30
0.0
11
1069.220000000000
21
917.362000000000
31
0.0
0
LINE
5
591
100
AcDbEntity
8
0-5基準線
6
CENTER2
62
7
100
AcDbLine
10
1084.220000000000
20
902.362000000000
30
0.0
11
1054.220000000000
21
902.362000000000
31
0.0
0
LINE
5
592
100
AcDbEntity
8
0-5基準線
6
CENTER2
62
7
100
AcDbLine
10
1299.220000000000
20
1272.363000000000
30
0.0
11
1299.220000000000
21
1058.013000000000
31
0.0
0
LINE
5
593
100
AcDbEntity
8
0-5基準線
6
CENTER2
62
7
100
AcDbLine
10
1149.220000000000
20
1243.362000000000
30
0.0
11
1149.220000000000
21
1211.362000000000
31
0.0
0
LINE
5
594
100
AcDbEntity
8
0-5基準線
6
CENTER2
62
7
100
AcDbLine
10
1165.220000000000
20
1227.362000000000
30
0.0
11
1133.220000000000
21
1227.362000000000
31
0.0
0
LINE
5
595
100
AcDbEntity
8
0-6戸当り
6
CONTINUOUS
62
2
100
AcDbLine
10
1439.720000000000
20
1232.847000000000
30
0.0
11
1449.220000000000
21
1238.332000000000
31
0.0
0
LINE
5
596
100
AcDbEntity
8
0-6戸当り
6
CONTINUOUS
62
2
100
AcDbLine
10
1439.720000000000
20
1232.847000000000
30
0.0
11
1439.720000000000
21
1221.878000000000
31
0.0
0
LINE
5
597
100
AcDbEntity
8
0-6戸当り
6
CONTINUOUS
62
2
100
AcDbLine
10
1449.220000000000
20
1216.393000000000
30
0.0
11
1439.720000000000
21
1221.878000000000
31
0.0
0
POLYLINE
5
598
100
AcDbEntity
8
0-6戸当り
6
CONTINUOUS
62
  2
100
AcDb2dPolyline
66
1
10
0.0
20
0.0
30
0.0
70
0
0
VERTEX
5
599
100
AcDbEntity
8
0-6戸当り
6
CONTINUOUS
62
  2
100
AcDbVertex
100
AcDb2dVertex
10
1449.220000000000
20
1216.393000000000
30
0.0
0
VERTEX
5
59a
100
AcDbEntity
8
0-6戸当り
6
CONTINUOUS
62
  2
100
AcDbVertex
100
AcDb2dVertex
10
1458.720000000000
20
1221.878000000000
30
0.0
0
VERTEX
5
59b
100
AcDbEntity
8
0-6戸当り
6
CONTINUOUS
62
  2
100
AcDbVertex
100
AcDb2dVertex
10
1458.720000000000
20
1232.847000000000
30
0.0
0
VERTEX
5
59c
100
AcDbEntity
8
0-6戸当り
6
CONTINUOUS
62
  2
100
AcDbVertex
100
AcDb2dVertex
10
1449.220000000000
20
1238.332000000000
30
0.0
0
SEQEND
5
59d
100
AcDbEntity
8
0-6戸当り
0
LINE
5
59e
100
AcDbEntity
8
0-5基準線
6
CENTER2
62
7
100
AcDbLine
10
1449.220000000000
20
1243.362000000000
30
0.0
11
1449.220000000000
21
1211.362000000000
31
0.0
0
LINE
5
59f
100
AcDbEntity
8
0-5基準線
6
CENTER2
62
7
100
AcDbLine
10
1433.220000000000
20
1227.362000000000
30
0.0
11
1465.220000000000
21
1227.362000000000
31
0.0
0
LINE
5
5a0
100
AcDbEntity
8
0-3RC
6
CONTINUOUS
62
2
100
AcDbLine
10
2480.652000000000
20
1122.362000000000
30
0.0
11
2642.652000000000
21
1122.362000000000
31
0.0
0
LINE
5
5a1
100
AcDbEntity
8
0-3RC
6
CONTINUOUS
62
2
100
AcDbLine
10
2480.652000000000
20
822.362000000000
30
0.0
11
2642.652000000000
21
822.362000000000
31
0.0
0
LINE
5
5a2
100
AcDbEntity
8
0-6戸当り
6
CONTINUOUS
62
2
100
AcDbLine
10
2478.252000000000
20
1214.363000000000
30
0.0
11
2478.252000000000
21
1240.363000000000
31
0.0
0
LINE
5
5a3
100
AcDbEntity
8
0-6戸当り
6
CONTINUOUS
62
2
100
AcDbLine
10
2478.252000000000
20
1214.363000000000
30
0.0
11
2480.652000000000
21
1214.363000000000
31
0.0
0
LINE
5
5a4
100
AcDbEntity
8
0-6戸当り
6
CONTINUOUS
62
2
100
AcDbLine
10
2478.252000000000
20
1240.363000000000
30
0.0
11
2480.652000000000
21
1240.363000000000
31
0.0
0
LINE
5
5a5
100
AcDbEntity
8
0-8寸法
6
CONTINUOUS
62
2
100
AcDbLine
10
2480.652000000000
20
922.363000000000
30
0.0
11
2499.971000000000
21
927.539000000000
31
0.0
0
LINE
5
5a6
100
AcDbEntity
8
0-8寸法
6
CONTINUOUS
62
2
100
AcDbLine
10
2480.652000000000
20
922.363000000000
30
0.0
11
2499.971000000000
21
917.186000000000
31
0.0
0
LINE
5
5a7
100
AcDbEntity
8
0-3RC
6
CONTINUOUS
62
2
100
AcDbLine
10
2492.652000000000
20
909.258000000000
30
0.0
11
2492.652000000000
21
622.362000000000
31
0.0
0
LINE
5
5a8
100
AcDbEntity
8
0-3RC
6
CONTINUOUS
62
2
100
AcDbLine
10
2492.652000000000
20
1347.362000000000
30
0.0
11
2492.652000000000
21
937.014000000000
31
0.0
0
LINE
5
5a9
100
AcDbEntity
8
0-8寸法
6
CONTINUOUS
62
2
100
AcDbLine
10
2454.652000000000
20
1022.363000000000
30
0.0
11
2554.618000000000
21
1022.363000000000
31
0.0
0
LINE
5
5aa
100
AcDbEntity
8
0-5基準線
6
CENTER2
62
7
100
AcDbLine
10
1299.220000000000
20
895.082000000000
30
0.0
11
1299.220000000000
21
672.362000000000
31
0.0
0
LINE
5
5ab
100
AcDbEntity
8
0-8寸法
6
CONTINUOUS
62
2
100
AcDbLine
10
1149.220000000000
20
1572.362000000000
30
0.0
11
1168.539000000000
21
1577.539000000000
31
0.0
0
LINE
5
5ac
100
AcDbEntity
8
0-8寸法
6
CONTINUOUS
62
2
100
AcDbLine
10
1149.220000000000
20
1572.362000000000
30
0.0
11
1168.539000000000
21
1567.186000000000
31
0.0
0
LINE
5
5ad
100
AcDbEntity
8
0-8寸法
6
CONTINUOUS
62
2
100
AcDbLine
10
1449.220000000000
20
1572.362000000000
30
0.0
11
1429.902000000000
21
1577.539000000000
31
0.0
0
LINE
5
5ae
100
AcDbEntity
8
0-8寸法
6
CONTINUOUS
62
2
100
AcDbLine
10
1449.220000000000
20
1572.362000000000
30
0.0
11
1429.902000000000
21
1567.186000000000
31
0.0
0
LINE
5
5af
100
AcDbEntity
8
0-6戸当り
6
CONTINUOUS
62
2
100
AcDbLine
10
2480.652000000000
20
1247.362000000000
30
0.0
11
2480.652000000000
21
1037.076000000000
31
0.0
0
LINE
5
5b0
100
AcDbEntity
8
0-3RC
6
CONTINUOUS
62
2
100
AcDbLine
10
1449.220000000000
20
2254.822000000000
30
0.0
11
1449.220000000000
21
2416.822000000000
31
0.0
0
LINE
5
5b1
100
AcDbEntity
8
0-3RC
6
CONTINUOUS
62
2
100
AcDbLine
10
949.220000000000
20
2266.822000000000
30
0.0
11
1649.220000000000
21
2266.822000000000
31
0.0
0
LINE
5
5b2
100
AcDbEntity
8
0-6戸当り
6
CONTINUOUS
62
2
100
AcDbLine
10
1049.220000000000
20
2254.822000000000
30
0.0
11
1049.220000000000
21
2266.822000000000
31
0.0
0
LINE
5
5b3
100
AcDbEntity
8
0-6戸当り
6
CONTINUOUS
62
2
100
AcDbLine
10
1549.220000000000
20
2254.822000000000
30
0.0
11
1549.220000000000
21
2266.822000000000
31
0.0
0
LINE
5
5b4
100
AcDbEntity
8
0-6戸当り
6
CONTINUOUS
62
2
100
AcDbLine
10
1524.220000000000
20
2271.023000000000
30
0.0
11
1521.720000000000
21
2300.536000000000
31
0.0
0
LINE
5
5b5
100
AcDbEntity
8
0-6戸当り
6
CONTINUOUS
62
2
100
AcDbLine
10
1529.220000000000
20
2271.023000000000
30
0.0
11
1526.720000000000
21
2300.536000000000
31
0.0
0
LINE
5
5b6
100
AcDbEntity
8
0-6戸当り
6
CONTINUOUS
62
2
100
AcDbLine
10
1524.220000000000
20
2271.023000000000
30
0.0
11
1534.220000000000
21
2271.023000000000
31
0.0
0
LINE
5
5b7
100
AcDbEntity
8
0-6戸当り
6
CONTINUOUS
62
2
100
AcDbLine
10
1523.863000000000
20
2275.239000000000
30
0.0
11
1528.863000000000
21
2275.239000000000
31
0.0
0
LINE
5
5b8
100
AcDbEntity
8
0-6戸当り
6
CONTINUOUS
62
2
100
AcDbLine
10
1523.506000000000
20
2279.456000000000
30
0.0
11
1528.506000000000
21
2279.456000000000
31
0.0
0
LINE
5
5b9
100
AcDbEntity
8
0-6戸当り
6
CONTINUOUS
62
2
100
AcDbLine
10
1523.149000000000
20
2283.672000000000
30
0.0
11
1528.149000000000
21
2283.672000000000
31
0.0
0
LINE
5
5ba
100
AcDbEntity
8
0-6戸当り
6
CONTINUOUS
62
2
100
AcDbLine
10
1522.791000000000
20
2287.888000000000
30
0.0
11
1527.792000000000
21
2287.888000000000
31
0.0
0
LINE
5
5bb
100
AcDbEntity
8
0-6戸当り
6
CONTINUOUS
62
2
100
AcDbLine
10
1522.434000000000
20
2292.104000000000
30
0.0
11
1527.435000000000
21
2292.104000000000
31
0.0
0
LINE
5
5bc
100
AcDbEntity
8
0-6戸当り
6
CONTINUOUS
62
2
100
AcDbLine
10
1522.077000000000
20
2296.320000000000
30
0.0
11
1527.078000000000
21
2296.320000000000
31
0.0
0
POLYLINE
5
5bd
100
AcDbEntity
8
0-6戸当り
6
CONTINUOUS
62
  2
100
AcDb2dPolyline
66
1
10
0.0
20
0.0
30
0.0
70
0
0
VERTEX
5
5be
100
AcDbEntity
8
0-6戸当り
6
CONTINUOUS
62
  2
100
AcDbVertex
100
AcDb2dVertex
10
1534.220000000000
20
2271.023000000000
30
0.0
0
VERTEX
5
5bf
100
AcDbEntity
8
0-6戸当り
6
CONTINUOUS
62
  2
100
AcDbVertex
100
AcDb2dVertex
10
1536.720000000000
20
2300.536000000000
30
0.0
0
VERTEX
5
5c0
100
AcDbEntity
8
0-6戸当り
6
CONTINUOUS
62
  2
100
AcDbVertex
100
AcDb2dVertex
10
1531.720000000000
20
2300.536000000000
30
0.0
0
SEQEND
5
5c1
100
AcDbEntity
8
0-6戸当り
0
LINE
5
5c2
100
AcDbEntity
8
0-6戸当り
6
CONTINUOUS
62
2
100
AcDbLine
10
1529.220000000000
20
2271.023000000000
30
0.0
11
1531.720000000000
21
2300.536000000000
31
0.0
0
LINE
5
5c3
100
AcDbEntity
8
0-6戸当り
6
CONTINUOUS
62
2
100
AcDbLine
10
1534.577000000000
20
2275.239000000000
30
0.0
11
1529.578000000000
21
2275.239000000000
31
0.0
0
LINE
5
5c4
100
AcDbEntity
8
0-6戸当り
6
CONTINUOUS
62
2
100
AcDbLine
10
1534.934000000000
20
2279.456000000000
30
0.0
11
1529.934000000000
21
2279.456000000000
31
0.0
0
LINE
5
5c5
100
AcDbEntity
8
0-6戸当り
6
CONTINUOUS
62
2
100
AcDbLine
10
1535.291000000000
20
2283.672000000000
30
0.0
11
1530.291000000000
21
2283.672000000000
31
0.0
0
LINE
5
5c6
100
AcDbEntity
8
0-6戸当り
6
CONTINUOUS
62
2
100
AcDbLine
10
1535.648000000000
20
2287.888000000000
30
0.0
11
1530.648000000000
21
2287.888000000000
31
0.0
0
LINE
5
5c7
100
AcDbEntity
8
0-6戸当り
6
CONTINUOUS
62
2
100
AcDbLine
10
1536.005000000000
20
2292.104000000000
30
0.0
11
1531.006000000000
21
2292.104000000000
31
0.0
0
LINE
5
5c8
100
AcDbEntity
8
0-6戸当り
6
CONTINUOUS
62
2
100
AcDbLine
10
1536.363000000000
20
2296.320000000000
30
0.0
11
1531.363000000000
21
2296.320000000000
31
0.0
0
LINE
5
5c9
100
AcDbEntity
8
0-6戸当り
6
CONTINUOUS
62
2
100
AcDbLine
10
1518.220000000000
20
2253.221000000000
30
0.0
11
1518.220000000000
21
2254.822000000000
31
0.0
0
LINE
5
5ca
100
AcDbEntity
8
0-6戸当り
6
CONTINUOUS
62
2
100
AcDbLine
10
1540.220000000000
20
2253.221000000000
30
0.0
11
1540.220000000000
21
2254.822000000000
31
0.0
0
LINE
5
5cb
100
AcDbEntity
8
0-6戸当り
6
CONTINUOUS
62
2
100
AcDbLine
10
1520.720000000000
20
2245.222000000000
30
0.0
11
1519.405000000000
21
2245.981000000000
31
0.0
0
POLYLINE
5
5cc
100
AcDbEntity
8
0-6戸当り
6
CONTINUOUS
62
  2
100
AcDb2dPolyline
66
1
10
0.0
20
0.0
30
0.0
70
0
0
VERTEX
5
5cd
100
AcDbEntity
8
0-6戸当り
6
CONTINUOUS
62
  2
100
AcDbVertex
100
AcDb2dVertex
10
1520.720000000000
20
2245.222000000000
30
0.0
0
VERTEX
5
5ce
100
AcDbEntity
8
0-6戸当り
6
CONTINUOUS
62
  2
100
AcDbVertex
100
AcDb2dVertex
10
1537.720000000000
20
2245.222000000000
30
0.0
0
VERTEX
5
5cf
100
AcDbEntity
8
0-6戸当り
6
CONTINUOUS
62
  2
100
AcDbVertex
100
AcDb2dVertex
10
1539.035000000000
20
2245.981000000000
30
0.0
0
SEQEND
5
5d0
100
AcDbEntity
8
0-6戸当り
0
LINE
5
5d1
100
AcDbEntity
8
0-6戸当り
6
CONTINUOUS
62
2
100
AcDbLine
10
1539.035000000000
20
2253.221000000000
30
0.0
11
1539.035000000000
21
2245.981000000000
31
0.0
0
LINE
5
5d2
100
AcDbEntity
8
0-6戸当り
6
CONTINUOUS
62
2
100
AcDbLine
10
1524.313000000000
20
2253.221000000000
30
0.0
11
1524.313000000000
21
2245.981000000000
31
0.0
0
LINE
5
5d3
100
AcDbEntity
8
0-6戸当り
6
CONTINUOUS
62
2
100
AcDbLine
10
1534.127000000000
20
2253.221000000000
30
0.0
11
1534.127000000000
21
2245.981000000000
31
0.0
0
LINE
5
5d4
100
AcDbEntity
8
0-6戸当り
6
CONTINUOUS
62
2
100
AcDbLine
10
1519.405000000000
20
2253.221000000000
30
0.0
11
1519.405000000000
21
2245.981000000000
31
0.0
0
LINE
5
5d5
100
AcDbEntity
8
0-6戸当り
6
CONTINUOUS
62
2
100
AcDbLine
10
1540.220000000000
20
2253.221000000000
30
0.0
11
1518.220000000000
21
2253.221000000000
31
0.0
0
LINE
5
5d6
100
AcDbEntity
8
0-6戸当り
6
CONTINUOUS
62
2
100
AcDbLine
10
1534.220000000000
20
2245.222000000000
30
0.0
11
1534.220000000000
21
2240.536000000000
31
0.0
0
LINE
5
5d7
100
AcDbEntity
8
0-6戸当り
6
CONTINUOUS
62
2
100
AcDbLine
10
1524.220000000000
20
2245.222000000000
30
0.0
11
1524.220000000000
21
2240.536000000000
31
0.0
0
LINE
5
5d8
100
AcDbEntity
8
0-6戸当り
6
CONTINUOUS
62
2
100
AcDbLine
10
1533.220000000000
20
2245.222000000000
30
0.0
11
1533.220000000000
21
2240.305000000000
31
0.0
0
LINE
5
5d9
100
AcDbEntity
8
0-6戸当り
6
CONTINUOUS
62
2
100
AcDbLine
10
1525.220000000000
20
2245.222000000000
30
0.0
11
1525.220000000000
21
2240.305000000000
31
0.0
0
LINE
5
5da
100
AcDbEntity
8
0-6戸当り
6
CONTINUOUS
62
2
100
AcDbLine
10
1534.220000000000
20
2240.536000000000
30
0.0
11
1524.220000000000
21
2240.536000000000
31
0.0
0
LINE
5
5db
100
AcDbEntity
8
0-6戸当り
6
CONTINUOUS
62
2
100
AcDbLine
10
1521.720000000000
20
2300.536000000000
30
0.0
11
1526.720000000000
21
2300.536000000000
31
0.0
0
LINE
5
5dc
100
AcDbEntity
8
0-6戸当り
6
CONTINUOUS
62
2
100
AcDbLine
10
1524.220000000000
20
2266.822000000000
30
0.0
11
1524.220000000000
21
2271.023000000000
31
0.0
0
LINE
5
5dd
100
AcDbEntity
8
0-6戸当り
6
CONTINUOUS
62
2
100
AcDbLine
10
1534.220000000000
20
2266.822000000000
30
0.0
11
1534.220000000000
21
2271.023000000000
31
0.0
0
LINE
5
5de
100
AcDbEntity
8
0-5基準線
6
CENTER2
62
7
100
AcDbLine
10
1529.220000000000
20
2236.649000000000
30
0.0
11
1529.220000000000
21
2305.605000000000
31
0.0
0
LINE
5
5df
100
AcDbEntity
8
0-6戸当り
6
CONTINUOUS
62
2
100
AcDbLine
10
1080.220000000000
20
2253.221000000000
30
0.0
11
1080.220000000000
21
2254.822000000000
31
0.0
0
LINE
5
5e0
100
AcDbEntity
8
0-6戸当り
6
CONTINUOUS
62
2
100
AcDbLine
10
1058.220000000000
20
2253.221000000000
30
0.0
11
1058.220000000000
21
2254.822000000000
31
0.0
0
LINE
5
5e1
100
AcDbEntity
8
0-6戸当り
6
CONTINUOUS
62
2
100
AcDbLine
10
1077.720000000000
20
2245.222000000000
30
0.0
11
1079.035000000000
21
2245.981000000000
31
0.0
0
POLYLINE
5
5e2
100
AcDbEntity
8
0-6戸当り
6
CONTINUOUS
62
  2
100
AcDb2dPolyline
66
1
10
0.0
20
0.0
30
0.0
70
0
0
VERTEX
5
5e3
100
AcDbEntity
8
0-6戸当り
6
CONTINUOUS
62
  2
100
AcDbVertex
100
AcDb2dVertex
10
1077.720000000000
20
2245.222000000000
30
0.0
0
VERTEX
5
5e4
100
AcDbEntity
8
0-6戸当り
6
CONTINUOUS
62
  2
100
AcDbVertex
100
AcDb2dVertex
10
1060.720000000000
20
2245.222000000000
30
0.0
0
VERTEX
5
5e5
100
AcDbEntity
8
0-6戸当り
6
CONTINUOUS
62
  2
100
AcDbVertex
100
AcDb2dVertex
10
1059.405000000000
20
2245.981000000000
30
0.0
0
SEQEND
5
5e6
100
AcDbEntity
8
0-6戸当り
0
LINE
5
5e7
100
AcDbEntity
8
0-6戸当り
6
CONTINUOUS
62
2
100
AcDbLine
10
1059.405000000000
20
2253.221000000000
30
0.0
11
1059.405000000000
21
2245.981000000000
31
0.0
0
LINE
5
5e8
100
AcDbEntity
8
0-6戸当り
6
CONTINUOUS
62
2
100
AcDbLine
10
1074.127000000000
20
2253.221000000000
30
0.0
11
1074.127000000000
21
2245.981000000000
31
0.0
0
LINE
5
5e9
100
AcDbEntity
8
0-6戸当り
6
CONTINUOUS
62
2
100
AcDbLine
10
1064.313000000000
20
2253.221000000000
30
0.0
11
1064.313000000000
21
2245.981000000000
31
0.0
0
LINE
5
5ea
100
AcDbEntity
8
0-6戸当り
6
CONTINUOUS
62
2
100
AcDbLine
10
1079.035000000000
20
2253.221000000000
30
0.0
11
1079.035000000000
21
2245.981000000000
31
0.0
0
LINE
5
5eb
100
AcDbEntity
8
0-6戸当り
6
CONTINUOUS
62
2
100
AcDbLine
10
1058.220000000000
20
2253.221000000000
30
0.0
11
1080.220000000000
21
2253.221000000000
31
0.0
0
LINE
5
5ec
100
AcDbEntity
8
0-6戸当り
6
CONTINUOUS
62
2
100
AcDbLine
10
1064.220000000000
20
2245.222000000000
30
0.0
11
1064.220000000000
21
2240.536000000000
31
0.0
0
LINE
5
5ed
100
AcDbEntity
8
0-6戸当り
6
CONTINUOUS
62
2
100
AcDbLine
10
1074.220000000000
20
2245.222000000000
30
0.0
11
1074.220000000000
21
2240.536000000000
31
0.0
0
LINE
5
5ee
100
AcDbEntity
8
0-6戸当り
6
CONTINUOUS
62
2
100
AcDbLine
10
1065.220000000000
20
2245.222000000000
30
0.0
11
1065.220000000000
21
2240.305000000000
31
0.0
0
LINE
5
5ef
100
AcDbEntity
8
0-6戸当り
6
CONTINUOUS
62
2
100
AcDbLine
10
1073.220000000000
20
2245.222000000000
30
0.0
11
1073.220000000000
21
2240.305000000000
31
0.0
0
LINE
5
5f0
100
AcDbEntity
8
0-6戸当り
6
CONTINUOUS
62
2
100
AcDbLine
10
1064.220000000000
20
2240.536000000000
30
0.0
11
1074.220000000000
21
2240.536000000000
31
0.0
0
LINE
5
5f1
100
AcDbEntity
8
0-5基準線
6
CENTER2
62
7
100
AcDbLine
10
1069.220000000000
20
2236.649000000000
30
0.0
11
1069.220000000000
21
2305.605000000000
31
0.0
0
LINE
5
5f2
100
AcDbEntity
8
0-6戸当り
6
CONTINUOUS
62
2
100
AcDbLine
10
1233.220000000000
20
2189.822000000000
30
0.0
11
1233.220000000000
21
2254.822000000000
31
0.0
0
LINE
5
5f3
100
AcDbEntity
8
0-6戸当り
6
CONTINUOUS
62
2
100
AcDbLine
10
1195.220000000000
20
2189.822000000000
30
0.0
11
1195.220000000000
21
2254.822000000000
31
0.0
0
LINE
5
5f4
100
AcDbEntity
8
0-5基準線
6
CENTER2
62
7
100
AcDbLine
10
1214.220000000000
20
2173.367000000000
30
0.0
11
1214.220000000000
21
2290.837000000000
31
0.0
0
LINE
5
5f5
100
AcDbEntity
8
0-6戸当り
6
CONTINUOUS
62
2
100
AcDbLine
10
1162.220000000000
20
2252.422000000000
30
0.0
11
1136.220000000000
21
2252.422000000000
31
0.0
0
LINE
5
5f6
100
AcDbEntity
8
0-6戸当り
6
CONTINUOUS
62
2
100
AcDbLine
10
1162.220000000000
20
2252.422000000000
30
0.0
11
1162.220000000000
21
2254.822000000000
31
0.0
0
LINE
5
5f7
100
AcDbEntity
8
0-6戸当り
6
CONTINUOUS
62
2
100
AcDbLine
10
1136.220000000000
20
2252.422000000000
30
0.0
11
1136.220000000000
21
2254.822000000000
31
0.0
0
LINE
5
5f8
100
AcDbEntity
8
0-3RC
6
DOT
62
2
100
AcDbLine
10
1149.220000000000
20
2254.822000000000
30
0.0
11
1149.220000000000
21
2416.822000000000
31
0.0
0
LINE
5
5f9
100
AcDbEntity
8
0-8寸法
6
CONTINUOUS
62
2
100
AcDbLine
10
1109.220000000000
20
1972.363000000000
30
0.0
11
1128.539000000000
21
1977.539000000000
31
0.0
0
LINE
5
5fa
100
AcDbEntity
8
0-8寸法
6
CONTINUOUS
62
2
100
AcDbLine
10
1109.220000000000
20
1972.363000000000
30
0.0
11
1128.539000000000
21
1967.186000000000
31
0.0
0
LINE
5
5fb
100
AcDbEntity
8
0-8寸法
6
CONTINUOUS
62
2
100
AcDbLine
10
1489.220000000000
20
1972.363000000000
30
0.0
11
1469.902000000000
21
1977.539000000000
31
0.0
0
LINE
5
5fc
100
AcDbEntity
8
0-8寸法
6
CONTINUOUS
62
2
100
AcDbLine
10
1489.220000000000
20
1972.363000000000
30
0.0
11
1469.902000000000
21
1967.186000000000
31
0.0
0
LINE
5
5fd
100
AcDbEntity
8
0-8寸法
6
CONTINUOUS
62
2
100
AcDbLine
10
2492.652000000000
20
722.362000000000
30
0.0
11
2487.147000000000
21
703.135000000000
31
0.0
0
LINE
5
5fe
100
AcDbEntity
8
0-8寸法
6
CONTINUOUS
62
2
100
AcDbLine
10
2492.652000000000
20
722.362000000000
30
0.0
11
2478.271000000000
21
708.463000000000
31
0.0
0
LINE
5
5ff
100
AcDbEntity
8
0-9扉体
6
CONTINUOUS
62
2
100
AcDbLine
10
1109.571000000000
20
2242.197000000000
30
0.0
11
1122.196000000000
21
2254.822000000000
31
0.0
0
LINE
5
600
100
AcDbEntity
8
0-9扉体
6
CONTINUOUS
62
2
100
AcDbLine
10
1109.327000000000
20
2243.367000000000
30
0.0
11
1120.782000000000
21
2254.822000000000
31
0.0
0
LINE
5
601
100
AcDbEntity
8
0-9扉体
6
CONTINUOUS
62
2
100
AcDbLine
10
1162.220000000000
20
2253.833000000000
30
0.0
11
1163.209000000000
21
2254.822000000000
31
0.0
0
LINE
5
602
100
AcDbEntity
8
0-6戸当り
6
CONTINUOUS
62
2
100
AcDbLine
10
1049.220000000000
20
2254.822000000000
30
0.0
11
1549.220000000000
21
2254.822000000000
31
0.0
0
LINE
5
603
100
AcDbEntity
8
0-9扉体
6
CONTINUOUS
62
2
100
AcDbLine
10
1233.220000000000
20
2254.122000000000
30
0.0
11
1233.919000000000
21
2254.822000000000
31
0.0
0
LINE
5
604
100
AcDbEntity
8
0-9扉体
6
CONTINUOUS
62
2
100
AcDbLine
10
1233.220000000000
20
2252.708000000000
30
0.0
11
1235.334000000000
21
2254.822000000000
31
0.0
0
LINE
5
605
100
AcDbEntity
8
0-9扉体
6
CONTINUOUS
62
2
100
AcDbLine
10
1246.820000000000
20
2239.438000000000
30
0.0
11
1262.204000000000
21
2254.822000000000
31
0.0
0
LINE
5
606
100
AcDbEntity
8
0-6戸当り
6
CONTINUOUS
62
2
100
AcDbLine
10
2480.652000000000
20
1008.191000000000
30
0.0
11
2480.652000000000
21
722.362000000000
31
0.0
0
LINE
5
607
100
AcDbEntity
8
0-8寸法
6
CONTINUOUS
62
2
100
AcDbLine
10
2554.618000000000
20
922.363000000000
30
0.0
11
2423.492000000000
21
922.363000000000
31
0.0
0
LINE
5
608
100
AcDbEntity
8
0-6戸当り
6
CONTINUOUS
62
2
100
AcDbLine
10
1549.220000000000
20
1122.362000000000
30
0.0
11
1494.220000000000
21
1122.362000000000
31
0.0
0
LINE
5
609
100
AcDbEntity
8
0-6戸当り
6
CONTINUOUS
62
2
100
AcDbLine
10
1104.220000000000
20
1122.362000000000
30
0.0
11
1049.220000000000
21
1122.362000000000
31
0.0
0
LINE
5
60a
100
AcDbEntity
8
0-6戸当り
6
CONTINUOUS
62
2
100
AcDbLine
10
1549.220000000000
20
822.362000000000
30
0.0
11
1494.220000000000
21
822.362000000000
31
0.0
0
LINE
5
60b
100
AcDbEntity
8
0-6戸当り
6
CONTINUOUS
62
2
100
AcDbLine
10
1104.220000000000
20
822.362000000000
30
0.0
11
1049.220000000000
21
822.362000000000
31
0.0
0
LINE
5
60c
100
AcDbEntity
8
0-5基準線
6
CENTER2
62
7
100
AcDbLine
10
2440.309000000000
20
1122.362000000000
30
0.0
11
2480.177000000000
21
1122.362000000000
31
0.0
0
LINE
5
60d
100
AcDbEntity
8
0-5基準線
6
CENTER2
62
7
100
AcDbLine
10
2441.249000000000
20
822.362000000000
30
0.0
11
2480.177000000000
21
822.362000000000
31
0.0
0
LINE
5
60e
100
AcDbEntity
8
0-5基準線
6
CENTER2
62
7
100
AcDbLine
10
2434.652000000000
20
1198.576000000000
30
0.0
11
2434.652000000000
21
1143.090000000000
31
0.0
0
LINE
5
60f
100
AcDbEntity
8
0-9扉体
6
CONTINUOUS
62
2
100
AcDbLine
10
2415.652000000000
20
1171.362000000000
30
0.0
11
2415.652000000000
21
1162.362000000000
31
0.0
0
POLYLINE
5
610
100
AcDbEntity
8
0-9扉体
6
CONTINUOUS
62
  2
100
AcDb2dPolyline
66
1
10
0.0
20
0.0
30
0.0
70
0
0
VERTEX
5
611
100
AcDbEntity
8
0-9扉体
6
CONTINUOUS
62
  2
100
AcDbVertex
100
AcDb2dVertex
10
2415.652000000000
20
1171.362000000000
30
0.0
0
VERTEX
5
612
100
AcDbEntity
8
0-9扉体
6
CONTINUOUS
62
  2
100
AcDbVertex
100
AcDb2dVertex
10
2453.652000000000
20
1171.362000000000
30
0.0
0
VERTEX
5
613
100
AcDbEntity
8
0-9扉体
6
CONTINUOUS
62
  2
100
AcDbVertex
100
AcDb2dVertex
10
2453.652000000000
20
1162.362000000000
30
0.0
0
SEQEND
5
614
100
AcDbEntity
8
0-9扉体
0
LINE
5
615
100
AcDbEntity
8
0-9扉体
6
CONTINUOUS
62
2
100
AcDbLine
10
2421.652000000000
20
1173.662000000000
30
0.0
11
2447.652000000000
21
1173.662000000000
31
0.0
0
LINE
5
616
100
AcDbEntity
8
0-9扉体
6
CONTINUOUS
62
2
100
AcDbLine
10
2421.652000000000
20
1173.662000000000
30
0.0
11
2421.652000000000
21
1171.362000000000
31
0.0
0
LINE
5
617
100
AcDbEntity
8
0-9扉体
6
CONTINUOUS
62
2
100
AcDbLine
10
2447.652000000000
20
1173.662000000000
30
0.0
11
2447.652000000000
21
1171.362000000000
31
0.0
0
LINE
5
618
100
AcDbEntity
8
0-9扉体
6
CONTINUOUS
62
2
100
AcDbLine
10
2423.902000000000
20
1176.662000000000
30
0.0
11
2423.902000000000
21
1173.662000000000
31
0.0
0
LINE
5
619
100
AcDbEntity
8
0-9扉体
6
CONTINUOUS
62
2
100
AcDbLine
10
2445.402000000000
20
1176.662000000000
30
0.0
11
2445.402000000000
21
1173.662000000000
31
0.0
0
LINE
5
61a
100
AcDbEntity
8
0-9扉体
6
CONTINUOUS
62
2
100
AcDbLine
10
2425.152000000000
20
1186.662000000000
30
0.0
11
2444.152000000000
21
1186.662000000000
31
0.0
0
LINE
5
61b
100
AcDbEntity
8
0-9扉体
6
CONTINUOUS
62
2
100
AcDbLine
10
2425.152000000000
20
1186.662000000000
30
0.0
11
2423.683000000000
21
1185.814000000000
31
0.0
0
LINE
5
61c
100
AcDbEntity
8
0-9扉体
6
CONTINUOUS
62
2
100
AcDbLine
10
2444.152000000000
20
1186.662000000000
30
0.0
11
2445.622000000000
21
1185.814000000000
31
0.0
0
LINE
5
61d
100
AcDbEntity
8
0-9扉体
6
CONTINUOUS
62
2
100
AcDbLine
10
2423.683000000000
20
1176.662000000000
30
0.0
11
2423.683000000000
21
1185.814000000000
31
0.0
0
LINE
5
61e
100
AcDbEntity
8
0-9扉体
6
CONTINUOUS
62
2
100
AcDbLine
10
2445.622000000000
20
1176.662000000000
30
0.0
11
2445.622000000000
21
1185.814000000000
31
0.0
0
LINE
5
61f
100
AcDbEntity
8
0-9扉体
6
CONTINUOUS
62
2
100
AcDbLine
10
2423.683000000000
20
1176.662000000000
30
0.0
11
2445.622000000000
21
1176.662000000000
31
0.0
0
LINE
5
620
100
AcDbEntity
8
0-9扉体
6
CONTINUOUS
62
2
100
AcDbLine
10
2429.167000000000
20
1176.662000000000
30
0.0
11
2429.167000000000
21
1185.814000000000
31
0.0
0
LINE
5
621
100
AcDbEntity
8
0-9扉体
6
CONTINUOUS
62
2
100
AcDbLine
10
2440.137000000000
20
1176.662000000000
30
0.0
11
2440.137000000000
21
1185.814000000000
31
0.0
0
LINE
5
622
100
AcDbEntity
8
0-9扉体
6
CONTINUOUS
62
2
100
AcDbLine
10
2444.152000000000
20
1148.362000000000
30
0.0
11
2425.152000000000
21
1148.362000000000
31
0.0
0
LINE
5
623
100
AcDbEntity
8
0-9扉体
6
CONTINUOUS
62
2
100
AcDbLine
10
2444.152000000000
20
1148.362000000000
30
0.0
11
2445.622000000000
21
1149.211000000000
31
0.0
0
LINE
5
624
100
AcDbEntity
8
0-9扉体
6
CONTINUOUS
62
2
100
AcDbLine
10
2425.152000000000
20
1148.362000000000
30
0.0
11
2423.683000000000
21
1149.211000000000
31
0.0
0
LINE
5
625
100
AcDbEntity
8
0-9扉体
6
CONTINUOUS
62
2
100
AcDbLine
10
2445.622000000000
20
1156.362000000000
30
0.0
11
2445.622000000000
21
1149.211000000000
31
0.0
0
LINE
5
626
100
AcDbEntity
8
0-9扉体
6
CONTINUOUS
62
2
100
AcDbLine
10
2423.683000000000
20
1156.362000000000
30
0.0
11
2423.683000000000
21
1149.211000000000
31
0.0
0
LINE
5
627
100
AcDbEntity
8
0-9扉体
6
CONTINUOUS
62
2
100
AcDbLine
10
2440.137000000000
20
1156.362000000000
30
0.0
11
2440.137000000000
21
1149.211000000000
31
0.0
0
LINE
5
628
100
AcDbEntity
8
0-9扉体
6
CONTINUOUS
62
2
100
AcDbLine
10
2429.167000000000
20
1156.362000000000
30
0.0
11
2429.167000000000
21
1149.211000000000
31
0.0
0
LINE
5
629
100
AcDbEntity
8
0-9扉体
6
CONTINUOUS
62
2
100
AcDbLine
10
2428.652000000000
20
1196.362000000000
30
0.0
11
2440.652000000000
21
1196.362000000000
31
0.0
0
LINE
5
62a
100
AcDbEntity
8
0-9扉体
6
CONTINUOUS
62
2
100
AcDbLine
10
2428.652000000000
20
1196.362000000000
30
0.0
11
2428.652000000000
21
1186.662000000000
31
0.0
0
LINE
5
62b
100
AcDbEntity
8
0-9扉体
6
CONTINUOUS
62
2
100
AcDbLine
10
2440.652000000000
20
1196.362000000000
30
0.0
11
2440.652000000000
21
1186.662000000000
31
0.0
0
LINE
5
62c
100
AcDbEntity
8
0-9扉体
6
CONTINUOUS
62
2
100
AcDbLine
10
2439.652000000000
20
1196.362000000000
30
0.0
11
2439.652000000000
21
1186.662000000000
31
0.0
0
LINE
5
62d
100
AcDbEntity
8
0-5基準線
6
CENTER2
62
7
100
AcDbLine
10
2454.652000000000
20
1232.362000000000
30
0.0
11
2454.652000000000
21
1192.362000000000
31
0.0
0
LINE
5
62e
100
AcDbEntity
8
0-9扉体
6
CONTINUOUS
62
2
100
AcDbLine
10
2434.652000000000
20
1176.662000000000
30
0.0
11
2431.652000000000
21
1173.662000000000
31
0.0
0
LINE
5
62f
100
AcDbEntity
8
0-9扉体
6
CONTINUOUS
62
2
100
AcDbLine
10
2434.652000000000
20
1173.662000000000
30
0.0
11
2437.652000000000
21
1176.662000000000
31
0.0
0
LINE
5
630
100
AcDbEntity
8
0-5基準線
6
CENTER2
62
7
100
AcDbLine
10
2435.933000000000
20
1212.362000000000
30
0.0
11
2473.892000000000
21
1212.362000000000
31
0.0
0
LINE
5
631
100
AcDbEntity
8
0-8寸法
6
CONTINUOUS
62
2
100
AcDbLine
10
2464.652000000000
20
1022.363000000000
30
0.0
11
2483.971000000000
21
1027.539000000000
31
0.0
0
LINE
5
632
100
AcDbEntity
8
0-8寸法
6
CONTINUOUS
62
2
100
AcDbLine
10
2464.652000000000
20
1022.363000000000
30
0.0
11
2483.971000000000
21
1017.186000000000
31
0.0
0
LINE
5
633
100
AcDbEntity
8
0-8寸法
6
CONTINUOUS
62
2
100
AcDbLine
10
2410.652000000000
20
1022.363000000000
30
0.0
11
2391.333000000000
21
1027.539000000000
31
0.0
0
LINE
5
634
100
AcDbEntity
8
0-8寸法
6
CONTINUOUS
62
2
100
AcDbLine
10
2410.652000000000
20
1022.363000000000
30
0.0
11
2391.333000000000
21
1017.186000000000
31
0.0
0
LINE
5
635
100
AcDbEntity
8
0-9扉体
6
CONTINUOUS
62
2
100
AcDbLine
10
2453.652000000000
20
1171.362000000000
30
0.0
11
2472.152000000000
21
1189.863000000000
31
0.0
0
LINE
5
636
100
AcDbEntity
8
0-9扉体
6
CONTINUOUS
62
2
100
AcDbLine
10
2437.152000000000
20
1236.362000000000
30
0.0
11
2415.652000000000
21
1171.362000000000
31
0.0
0
LINE
5
637
100
AcDbEntity
8
0-9扉体
6
CONTINUOUS
62
2
100
AcDbLine
10
2429.652000000000
20
1196.362000000000
30
0.0
11
2429.652000000000
21
1186.662000000000
31
0.0
0
LINE
5
638
100
AcDbEntity
8
0-8寸法
6
CONTINUOUS
62
2
100
AcDbLine
10
2464.652000000000
20
922.363000000000
30
0.0
11
2445.333000000000
21
927.539000000000
31
0.0
0
LINE
5
639
100
AcDbEntity
8
0-8寸法
6
CONTINUOUS
62
2
100
AcDbLine
10
2464.652000000000
20
922.363000000000
30
0.0
11
2445.333000000000
21
917.186000000000
31
0.0
0
LINE
5
63a
100
AcDbEntity
8
0-6戸当り
6
CONTINUOUS
62
2
100
AcDbLine
10
2472.152000000000
20
1204.362000000000
30
0.0
11
2480.652000000000
21
1204.362000000000
31
0.0
0
LINE
5
63b
100
AcDbEntity
8
0-6戸当り
6
CONTINUOUS
62
2
100
AcDbLine
10
2472.152000000000
20
1196.362000000000
30
0.0
11
2480.652000000000
21
1196.362000000000
31
0.0
0
LINE
5
63c
100
AcDbEntity
8
0-6戸当り
6
CONTINUOUS
62
2
100
AcDbLine
10
2432.640000000000
20
1230.362000000000
30
0.0
11
2435.168000000000
21
1230.362000000000
31
0.0
0
LINE
5
63d
100
AcDbEntity
8
0-9扉体
6
CONTINUOUS
62
3
100
AcDbLine
10
2464.652000000000
20
816.702000000000
30
0.0
11
2466.313000000000
21
818.362000000000
31
0.0
0
LINE
5
63e
100
AcDbEntity
8
0-9扉体
6
CONTINUOUS
62
3
100
AcDbLine
10
2467.241000000000
20
826.362000000000
30
0.0
11
2470.652000000000
21
829.773000000000
31
0.0
0
LINE
5
63f
100
AcDbEntity
8
0-9扉体
6
CONTINUOUS
62
3
100
AcDbLine
10
2470.652000000000
20
818.362000000000
30
0.0
11
2464.652000000000
21
818.362000000000
31
0.0
0
LINE
5
640
100
AcDbEntity
8
0-9扉体
6
CONTINUOUS
62
3
100
AcDbLine
10
2470.652000000000
20
826.362000000000
30
0.0
11
2464.652000000000
21
826.362000000000
31
0.0
0
LINE
5
641
100
AcDbEntity
8
0-9扉体
6
CONTINUOUS
62
3
100
AcDbLine
10
2476.468000000000
20
793.162000000000
30
0.0
11
2480.230000000000
21
796.925000000000
31
0.0
0
LINE
5
642
100
AcDbEntity
8
0-9扉体
6
CONTINUOUS
62
3
100
AcDbLine
10
2470.089000000000
20
786.784000000000
30
0.0
11
2473.852000000000
21
790.547000000000
31
0.0
0
LINE
5
643
100
AcDbEntity
8
0-9扉体
6
CONTINUOUS
62
3
100
AcDbLine
10
2474.260000000000
20
798.025000000000
30
0.0
11
2477.187000000000
21
800.953000000000
31
0.0
0
LINE
5
644
100
AcDbEntity
8
0-9扉体
6
CONTINUOUS
62
3
100
AcDbLine
10
2466.062000000000
20
789.827000000000
30
0.0
11
2468.989000000000
21
792.755000000000
31
0.0
0
LINE
5
645
100
AcDbEntity
8
0-9扉体
6
CONTINUOUS
62
3
100
AcDbLine
10
2464.652000000000
20
795.489000000000
30
0.0
11
2471.432000000000
21
802.269000000000
31
0.0
0
LINE
5
646
100
AcDbEntity
8
0-9扉体
6
CONTINUOUS
62
3
100
AcDbLine
10
2464.652000000000
20
802.560000000000
30
0.0
11
2470.652000000000
21
808.560000000000
31
0.0
0
LINE
5
647
100
AcDbEntity
8
0-9扉体
6
CONTINUOUS
62
3
100
AcDbLine
10
2464.652000000000
20
809.631000000000
30
0.0
11
2470.652000000000
21
815.631000000000
31
0.0
0
LINE
5
648
100
AcDbEntity
8
0-9扉体
6
CONTINUOUS
62
3
100
AcDbLine
10
2464.652000000000
20
830.844000000000
30
0.0
11
2470.652000000000
21
836.844000000000
31
0.0
0
LINE
5
649
100
AcDbEntity
8
0-9扉体
6
CONTINUOUS
62
3
100
AcDbLine
10
2470.652000000000
20
837.362000000000
30
0.0
11
2464.652000000000
21
837.362000000000
31
0.0
0
LINE
5
64a
100
AcDbEntity
8
0-9扉体
6
CONTINUOUS
62
3
100
AcDbLine
10
2464.652000000000
20
794.362000000000
30
0.0
11
2464.652000000000
21
837.362000000000
31
0.0
0
LINE
5
64b
100
AcDbEntity
8
0-9扉体
6
DOT
62
3
100
AcDbLine
10
2472.652000000000
20
826.363000000000
30
0.0
11
2476.653000000000
21
830.362000000000
31
0.0
0
LINE
5
64c
100
AcDbEntity
8
0-9扉体
6
DOT
62
3
100
AcDbLine
10
2472.652000000000
20
818.363000000000
30
0.0
11
2476.653000000000
21
814.363000000000
31
0.0
0
LINE
5
64d
100
AcDbEntity
8
0-9扉体
6
DOT
62
3
100
AcDbLine
10
2472.652000000000
20
826.363000000000
30
0.0
11
2472.652000000000
21
818.363000000000
31
0.0
0
LINE
5
64e
100
AcDbEntity
8
0-9扉体
6
CONTINUOUS
62
3
100
AcDbLine
10
2470.652000000000
20
806.362000000000
30
0.0
11
2476.653000000000
21
806.362000000000
31
0.0
0
LINE
5
64f
100
AcDbEntity
8
0-9扉体
6
CONTINUOUS
62
3
100
AcDbLine
10
2476.653000000000
20
838.363000000000
30
0.0
11
2476.653000000000
21
806.362000000000
31
0.0
0
LINE
5
650
100
AcDbEntity
8
0-9扉体
6
CONTINUOUS
62
3
100
AcDbLine
10
2470.652000000000
20
838.363000000000
30
0.0
11
2476.653000000000
21
838.363000000000
31
0.0
0
LINE
5
651
100
AcDbEntity
8
0-9扉体
6
CONTINUOUS
62
3
100
AcDbLine
10
2470.652000000000
20
802.108000000000
30
0.0
11
2470.652000000000
21
838.363000000000
31
0.0
0
LINE
5
652
100
AcDbEntity
8
0-9扉体
6
DOT
62
3
100
AcDbLine
10
2458.652000000000
20
818.363000000000
30
0.0
11
2472.652000000000
21
818.363000000000
31
0.0
0
LINE
5
653
100
AcDbEntity
8
0-9扉体
6
DOT
62
3
100
AcDbLine
10
2458.652000000000
20
826.363000000000
30
0.0
11
2472.652000000000
21
826.363000000000
31
0.0
0
LINE
5
654
100
AcDbEntity
8
0-9扉体
6
CONTINUOUS
62
3
100
AcDbLine
10
2457.052000000000
20
831.363000000000
30
0.0
11
2458.652000000000
21
831.363000000000
31
0.0
0
LINE
5
655
100
AcDbEntity
8
0-9扉体
6
CONTINUOUS
62
3
100
AcDbLine
10
2457.052000000000
20
813.363000000000
30
0.0
11
2458.652000000000
21
813.363000000000
31
0.0
0
LINE
5
656
100
AcDbEntity
8
0-9扉体
6
CONTINUOUS
62
3
100
AcDbLine
10
2448.651000000000
20
826.363000000000
30
0.0
11
2448.651000000000
21
818.363000000000
31
0.0
0
LINE
5
657
100
AcDbEntity
8
0-9扉体
6
CONTINUOUS
62
3
100
AcDbLine
10
2457.052000000000
20
813.363000000000
30
0.0
11
2457.052000000000
21
831.363000000000
31
0.0
0
LINE
5
658
100
AcDbEntity
8
0-9扉体
6
CONTINUOUS
62
3
100
AcDbLine
10
2450.551000000000
20
828.863000000000
30
0.0
11
2451.133000000000
21
829.868000000000
31
0.0
0
LINE
5
659
100
AcDbEntity
8
0-9扉体
6
CONTINUOUS
62
3
100
AcDbLine
10
2450.551000000000
20
815.863000000000
30
0.0
11
2451.133000000000
21
814.857000000000
31
0.0
0
LINE
5
65a
100
AcDbEntity
8
0-9扉体
6
CONTINUOUS
62
3
100
AcDbLine
10
2450.551000000000
20
828.863000000000
30
0.0
11
2450.551000000000
21
815.863000000000
31
0.0
0
LINE
5
65b
100
AcDbEntity
8
0-9扉体
6
CONTINUOUS
62
3
100
AcDbLine
10
2457.052000000000
20
814.857000000000
30
0.0
11
2451.133000000000
21
814.857000000000
31
0.0
0
LINE
5
65c
100
AcDbEntity
8
0-9扉体
6
CONTINUOUS
62
3
100
AcDbLine
10
2457.052000000000
20
829.868000000000
30
0.0
11
2451.133000000000
21
829.868000000000
31
0.0
0
LINE
5
65d
100
AcDbEntity
8
0-9扉体
6
CONTINUOUS
62
3
100
AcDbLine
10
2450.551000000000
20
818.363000000000
30
0.0
11
2448.651000000000
21
818.363000000000
31
0.0
0
LINE
5
65e
100
AcDbEntity
8
0-9扉体
6
CONTINUOUS
62
3
100
AcDbLine
10
2450.551000000000
20
826.363000000000
30
0.0
11
2448.651000000000
21
826.363000000000
31
0.0
0
LINE
5
65f
100
AcDbEntity
8
0-9扉体
6
CONTINUOUS
62
3
100
AcDbLine
10
2457.052000000000
20
826.115000000000
30
0.0
11
2451.132000000000
21
826.115000000000
31
0.0
0
LINE
5
660
100
AcDbEntity
8
0-9扉体
6
CONTINUOUS
62
3
100
AcDbLine
10
2457.052000000000
20
818.610000000000
30
0.0
11
2451.133000000000
21
818.610000000000
31
0.0
0
LINE
5
661
100
AcDbEntity
8
0-9扉体
6
CONTINUOUS
62
3
100
AcDbLine
10
2450.551000000000
20
819.363000000000
30
0.0
11
2448.651000000000
21
819.363000000000
31
0.0
0
LINE
5
662
100
AcDbEntity
8
0-9扉体
6
CONTINUOUS
62
3
100
AcDbLine
10
2450.551000000000
20
825.363000000000
30
0.0
11
2448.651000000000
21
825.363000000000
31
0.0
0
LINE
5
663
100
AcDbEntity
8
0-9扉体
6
CONTINUOUS
62
3
100
AcDbLine
10
2458.652000000000
20
831.363000000000
30
0.0
11
2458.652000000000
21
813.363000000000
31
0.0
0
LINE
5
664
100
AcDbEntity
8
0-9扉体
6
CONTINUOUS
62
3
100
AcDbLine
10
2464.652000000000
20
1128.023000000000
30
0.0
11
2466.313000000000
21
1126.362000000000
31
0.0
0
LINE
5
665
100
AcDbEntity
8
0-9扉体
6
CONTINUOUS
62
3
100
AcDbLine
10
2467.241000000000
20
1118.362000000000
30
0.0
11
2470.652000000000
21
1114.952000000000
31
0.0
0
LINE
5
666
100
AcDbEntity
8
0-9扉体
6
CONTINUOUS
62
3
100
AcDbLine
10
2470.652000000000
20
1126.362000000000
30
0.0
11
2464.652000000000
21
1126.362000000000
31
0.0
0
LINE
5
667
100
AcDbEntity
8
0-9扉体
6
CONTINUOUS
62
3
100
AcDbLine
10
2470.652000000000
20
1118.362000000000
30
0.0
11
2464.652000000000
21
1118.362000000000
31
0.0
0
LINE
5
668
100
AcDbEntity
8
0-9扉体
6
CONTINUOUS
62
3
100
AcDbLine
10
2476.468000000000
20
1151.563000000000
30
0.0
11
2480.230000000000
21
1147.800000000000
31
0.0
0
LINE
5
669
100
AcDbEntity
8
0-9扉体
6
CONTINUOUS
62
3
100
AcDbLine
10
2470.089000000000
20
1157.941000000000
30
0.0
11
2473.852000000000
21
1154.178000000000
31
0.0
0
LINE
5
66a
100
AcDbEntity
8
0-9扉体
6
CONTINUOUS
62
3
100
AcDbLine
10
2474.260000000000
20
1146.700000000000
30
0.0
11
2477.187000000000
21
1143.772000000000
31
0.0
0
LINE
5
66b
100
AcDbEntity
8
0-9扉体
6
CONTINUOUS
62
3
100
AcDbLine
10
2466.062000000000
20
1154.898000000000
30
0.0
11
2468.989000000000
21
1151.970000000000
31
0.0
0
LINE
5
66c
100
AcDbEntity
8
0-9扉体
6
CONTINUOUS
62
3
100
AcDbLine
10
2464.652000000000
20
1149.236000000000
30
0.0
11
2471.432000000000
21
1142.456000000000
31
0.0
0
LINE
5
66d
100
AcDbEntity
8
0-9扉体
6
CONTINUOUS
62
3
100
AcDbLine
10
2464.652000000000
20
1142.165000000000
30
0.0
11
2470.652000000000
21
1136.165000000000
31
0.0
0
LINE
5
66e
100
AcDbEntity
8
0-9扉体
6
CONTINUOUS
62
3
100
AcDbLine
10
2464.652000000000
20
1135.094000000000
30
0.0
11
2470.652000000000
21
1129.094000000000
31
0.0
0
LINE
5
66f
100
AcDbEntity
8
0-9扉体
6
CONTINUOUS
62
3
100
AcDbLine
10
2464.652000000000
20
1113.881000000000
30
0.0
11
2470.652000000000
21
1107.881000000000
31
0.0
0
LINE
5
670
100
AcDbEntity
8
0-9扉体
6
CONTINUOUS
62
3
100
AcDbLine
10
2470.652000000000
20
1107.362000000000
30
0.0
11
2464.652000000000
21
1107.362000000000
31
0.0
0
LINE
5
671
100
AcDbEntity
8
0-9扉体
6
CONTINUOUS
62
3
100
AcDbLine
10
2464.652000000000
20
1150.362000000000
30
0.0
11
2464.652000000000
21
1107.362000000000
31
0.0
0
LINE
5
672
100
AcDbEntity
8
0-9扉体
6
DOT
62
3
100
AcDbLine
10
2472.652000000000
20
1118.362000000000
30
0.0
11
2476.653000000000
21
1114.362000000000
31
0.0
0
LINE
5
673
100
AcDbEntity
8
0-9扉体
6
DOT
62
3
100
AcDbLine
10
2472.652000000000
20
1126.362000000000
30
0.0
11
2476.653000000000
21
1130.362000000000
31
0.0
0
LINE
5
674
100
AcDbEntity
8
0-9扉体
6
DOT
62
3
100
AcDbLine
10
2472.652000000000
20
1118.362000000000
30
0.0
11
2472.652000000000
21
1126.362000000000
31
0.0
0
LINE
5
675
100
AcDbEntity
8
0-9扉体
6
CONTINUOUS
62
3
100
AcDbLine
10
2470.652000000000
20
1138.363000000000
30
0.0
11
2476.653000000000
21
1138.363000000000
31
0.0
0
LINE
5
676
100
AcDbEntity
8
0-9扉体
6
CONTINUOUS
62
3
100
AcDbLine
10
2476.653000000000
20
1106.362000000000
30
0.0
11
2476.653000000000
21
1138.363000000000
31
0.0
0
LINE
5
677
100
AcDbEntity
8
0-9扉体
6
CONTINUOUS
62
3
100
AcDbLine
10
2470.652000000000
20
1106.362000000000
30
0.0
11
2476.653000000000
21
1106.362000000000
31
0.0
0
LINE
5
678
100
AcDbEntity
8
0-9扉体
6
CONTINUOUS
62
3
100
AcDbLine
10
2470.652000000000
20
1142.616000000000
30
0.0
11
2470.652000000000
21
1106.362000000000
31
0.0
0
LINE
5
679
100
AcDbEntity
8
0-9扉体
6
DOT
62
3
100
AcDbLine
10
2458.652000000000
20
1126.362000000000
30
0.0
11
2472.652000000000
21
1126.362000000000
31
0.0
0
LINE
5
67a
100
AcDbEntity
8
0-9扉体
6
DOT
62
3
100
AcDbLine
10
2458.652000000000
20
1118.362000000000
30
0.0
11
2472.652000000000
21
1118.362000000000
31
0.0
0
LINE
5
67b
100
AcDbEntity
8
0-9扉体
6
CONTINUOUS
62
3
100
AcDbLine
10
2457.052000000000
20
1113.362000000000
30
0.0
11
2458.652000000000
21
1113.362000000000
31
0.0
0
LINE
5
67c
100
AcDbEntity
8
0-9扉体
6
CONTINUOUS
62
3
100
AcDbLine
10
2457.052000000000
20
1131.362000000000
30
0.0
11
2458.652000000000
21
1131.362000000000
31
0.0
0
LINE
5
67d
100
AcDbEntity
8
0-9扉体
6
CONTINUOUS
62
3
100
AcDbLine
10
2448.651000000000
20
1118.362000000000
30
0.0
11
2448.651000000000
21
1126.362000000000
31
0.0
0
LINE
5
67e
100
AcDbEntity
8
0-9扉体
6
CONTINUOUS
62
3
100
AcDbLine
10
2457.052000000000
20
1131.362000000000
30
0.0
11
2457.052000000000
21
1113.362000000000
31
0.0
0
LINE
5
67f
100
AcDbEntity
8
0-9扉体
6
CONTINUOUS
62
3
100
AcDbLine
10
2450.551000000000
20
1115.862000000000
30
0.0
11
2451.133000000000
21
1114.857000000000
31
0.0
0
LINE
5
680
100
AcDbEntity
8
0-9扉体
6
CONTINUOUS
62
3
100
AcDbLine
10
2450.551000000000
20
1128.862000000000
30
0.0
11
2451.133000000000
21
1129.868000000000
31
0.0
0
LINE
5
681
100
AcDbEntity
8
0-9扉体
6
CONTINUOUS
62
3
100
AcDbLine
10
2450.551000000000
20
1115.862000000000
30
0.0
11
2450.551000000000
21
1128.862000000000
31
0.0
0
LINE
5
682
100
AcDbEntity
8
0-9扉体
6
CONTINUOUS
62
3
100
AcDbLine
10
2457.052000000000
20
1129.868000000000
30
0.0
11
2451.133000000000
21
1129.868000000000
31
0.0
0
LINE
5
683
100
AcDbEntity
8
0-9扉体
6
CONTINUOUS
62
3
100
AcDbLine
10
2457.052000000000
20
1114.857000000000
30
0.0
11
2451.133000000000
21
1114.857000000000
31
0.0
0
LINE
5
684
100
AcDbEntity
8
0-9扉体
6
CONTINUOUS
62
3
100
AcDbLine
10
2450.551000000000
20
1126.362000000000
30
0.0
11
2448.651000000000
21
1126.362000000000
31
0.0
0
LINE
5
685
100
AcDbEntity
8
0-9扉体
6
CONTINUOUS
62
3
100
AcDbLine
10
2450.551000000000
20
1118.362000000000
30
0.0
11
2448.651000000000
21
1118.362000000000
31
0.0
0
LINE
5
686
100
AcDbEntity
8
0-9扉体
6
CONTINUOUS
62
3
100
AcDbLine
10
2457.052000000000
20
1118.610000000000
30
0.0
11
2451.132000000000
21
1118.610000000000
31
0.0
0
LINE
5
687
100
AcDbEntity
8
0-9扉体
6
CONTINUOUS
62
3
100
AcDbLine
10
2457.052000000000
20
1126.115000000000
30
0.0
11
2451.133000000000
21
1126.115000000000
31
0.0
0
LINE
5
688
100
AcDbEntity
8
0-9扉体
6
CONTINUOUS
62
3
100
AcDbLine
10
2450.551000000000
20
1125.362000000000
30
0.0
11
2448.651000000000
21
1125.362000000000
31
0.0
0
LINE
5
689
100
AcDbEntity
8
0-9扉体
6
CONTINUOUS
62
3
100
AcDbLine
10
2450.551000000000
20
1119.362000000000
30
0.0
11
2448.651000000000
21
1119.362000000000
31
0.0
0
LINE
5
68a
100
AcDbEntity
8
0-9扉体
6
CONTINUOUS
62
3
100
AcDbLine
10
2458.652000000000
20
1113.362000000000
30
0.0
11
2458.652000000000
21
1131.362000000000
31
0.0
0
LINE
5
68b
100
AcDbEntity
8
0-9扉体
6
CONTINUOUS
62
3
100
AcDbLine
10
1429.220000000000
20
842.362000000000
30
0.0
11
1169.220000000000
21
842.362000000000
31
0.0
0
LINE
5
68c
100
AcDbEntity
8
0-9扉体
6
CONTINUOUS
62
3
100
AcDbLine
10
1169.220000000000
20
782.362000000000
30
0.0
11
1169.220000000000
21
1162.362000000000
31
0.0
0
LINE
5
68d
100
AcDbEntity
8
0-9扉体
6
CONTINUOUS
62
3
100
AcDbLine
10
1169.220000000000
20
1102.362000000000
30
0.0
11
1429.220000000000
21
1102.362000000000
31
0.0
0
LINE
5
68e
100
AcDbEntity
8
0-9扉体
6
CONTINUOUS
62
3
100
AcDbLine
10
1109.220000000000
20
1162.362000000000
30
0.0
11
1489.220000000000
21
1162.362000000000
31
0.0
0
LINE
5
68f
100
AcDbEntity
8
0-9扉体
6
CONTINUOUS
62
3
100
AcDbLine
10
1109.220000000000
20
782.362000000000
30
0.0
11
1109.220000000000
21
1162.362000000000
31
0.0
0
LINE
5
690
100
AcDbEntity
8
0-9扉体
6
CONTINUOUS
62
3
100
AcDbLine
10
1489.220000000000
20
782.362000000000
30
0.0
11
1109.220000000000
21
782.362000000000
31
0.0
0
LINE
5
691
100
AcDbEntity
8
0-9扉体
6
CONTINUOUS
62
3
100
AcDbLine
10
1489.220000000000
20
1162.362000000000
30
0.0
11
1489.220000000000
21
782.362000000000
31
0.0
0
LINE
5
692
100
AcDbEntity
8
0-9扉体
6
CONTINUOUS
62
3
100
AcDbLine
10
1429.220000000000
20
1162.362000000000
30
0.0
11
1429.220000000000
21
782.362000000000
31
0.0
0
LINE
5
693
100
AcDbEntity
8
0-9扉体
6
DOT
62
3
100
AcDbLine
10
1115.220000000000
20
782.362000000000
30
0.0
11
1115.220000000000
21
1162.362000000000
31
0.0
0
LINE
5
694
100
AcDbEntity
8
0-9扉体
6
DOT
62
3
100
AcDbLine
10
1115.220000000000
20
1156.362000000000
30
0.0
11
1483.220000000000
21
1156.362000000000
31
0.0
0
LINE
5
695
100
AcDbEntity
8
0-9扉体
6
DOT
62
3
100
AcDbLine
10
1483.220000000000
20
1162.362000000000
30
0.0
11
1483.220000000000
21
782.362000000000
31
0.0
0
LINE
5
696
100
AcDbEntity
8
0-9扉体
6
DOT
62
3
100
AcDbLine
10
1483.220000000000
20
788.362000000000
30
0.0
11
1115.220000000000
21
788.362000000000
31
0.0
0
LINE
5
697
100
AcDbEntity
8
0-9扉体
6
CONTINUOUS
62
3
100
AcDbLine
10
2410.652000000000
20
1162.362000000000
30
0.0
11
2410.652000000000
21
782.362000000000
31
0.0
0
LINE
5
698
100
AcDbEntity
8
0-9扉体
6
CONTINUOUS
62
3
100
AcDbLine
10
2458.652000000000
20
1167.362000000000
30
0.0
11
2458.652000000000
21
937.014000000000
31
0.0
0
POLYLINE
5
699
100
AcDbEntity
8
0-9扉体
6
CONTINUOUS
62
  3
100
AcDb2dPolyline
66
1
10
0.0
20
0.0
30
0.0
70
0
0
VERTEX
5
69a
100
AcDbEntity
8
0-9扉体
6
CONTINUOUS
62
  3
100
AcDbVertex
100
AcDb2dVertex
10
2458.652000000000
20
909.258000000000
30
0.0
0
VERTEX
5
69b
100
AcDbEntity
8
0-9扉体
6
CONTINUOUS
62
  3
100
AcDbVertex
100
AcDb2dVertex
10
2458.652000000000
20
777.362000000000
30
0.0
0
VERTEX
5
69c
100
AcDbEntity
8
0-9扉体
6
CONTINUOUS
62
  3
100
AcDbVertex
100
AcDb2dVertex
10
2464.652000000000
20
777.362000000000
30
0.0
0
SEQEND
5
69d
100
AcDbEntity
8
0-9扉体
0
LINE
5
69e
100
AcDbEntity
8
0-9扉体
6
CONTINUOUS
62
3
100
AcDbLine
10
2464.652000000000
20
1167.362000000000
30
0.0
11
2464.652000000000
21
777.362000000000
31
0.0
0
LINE
5
69f
100
AcDbEntity
8
0-9扉体
6
CONTINUOUS
62
3
100
AcDbLine
10
2422.652000000000
20
788.363000000000
30
0.0
11
2458.652000000000
21
788.363000000000
31
0.0
0
LINE
5
6a0
100
AcDbEntity
8
0-9扉体
6
CONTINUOUS
62
3
100
AcDbLine
10
2458.652000000000
20
782.362000000000
30
0.0
11
2410.652000000000
21
782.362000000000
31
0.0
0
LINE
5
6a1
100
AcDbEntity
8
0-9扉体
6
CONTINUOUS
62
3
100
AcDbLine
10
2416.652000000000
20
841.862000000000
30
0.0
11
2416.652000000000
21
794.363000000000
31
0.0
0
LINE
5
6a2
100
AcDbEntity
8
0-9扉体
6
CONTINUOUS
62
3
100
AcDbLine
10
2416.152000000000
20
1102.362000000000
30
0.0
11
2410.652000000000
21
1102.362000000000
31
0.0
0
LINE
5
6a3
100
AcDbEntity
8
0-9扉体
6
CONTINUOUS
62
3
100
AcDbLine
10
2416.652000000000
20
1102.862000000000
30
0.0
11
2416.652000000000
21
1150.362000000000
31
0.0
0
LINE
5
6a4
100
AcDbEntity
8
0-9扉体
6
CONTINUOUS
62
3
100
AcDbLine
10
2410.652000000000
20
1162.362000000000
30
0.0
11
2458.652000000000
21
1162.362000000000
31
0.0
0
LINE
5
6a5
100
AcDbEntity
8
0-9扉体
6
CONTINUOUS
62
3
100
AcDbLine
10
2422.652000000000
20
1156.362000000000
30
0.0
11
2458.652000000000
21
1156.362000000000
31
0.0
0
LINE
5
6a6
100
AcDbEntity
8
0-9扉体
6
CONTINUOUS
62
3
100
AcDbLine
10
2464.652000000000
20
1167.362000000000
30
0.0
11
2458.652000000000
21
1167.362000000000
31
0.0
0
LINE
5
6a7
100
AcDbEntity
8
0-8寸法
6
CONTINUOUS
62
4
100
AcDbLine
10
1109.220000000000
20
572.362000000000
30
0.0
11
1128.539000000000
21
577.539000000000
31
0.0
0
LINE
5
6a8
100
AcDbEntity
8
0-8寸法
6
CONTINUOUS
62
4
100
AcDbLine
10
1109.220000000000
20
572.362000000000
30
0.0
11
1128.539000000000
21
567.186000000000
31
0.0
0
LINE
5
6a9
100
AcDbEntity
8
0-8寸法
6
CONTINUOUS
62
4
100
AcDbLine
10
1489.220000000000
20
572.362000000000
30
0.0
11
1469.902000000000
21
577.539000000000
31
0.0
0
LINE
5
6aa
100
AcDbEntity
8
0-8寸法
6
CONTINUOUS
62
4
100
AcDbLine
10
1489.220000000000
20
572.362000000000
30
0.0
11
1469.902000000000
21
567.186000000000
31
0.0
0
LINE
5
6ab
100
AcDbEntity
8
0-8寸法
6
CONTINUOUS
62
4
100
AcDbLine
10
899.220000000000
20
782.362000000000
30
0.0
11
894.044000000000
21
801.681000000000
31
0.0
0
LINE
5
6ac
100
AcDbEntity
8
0-8寸法
6
CONTINUOUS
62
4
100
AcDbLine
10
899.220000000000
20
782.362000000000
30
0.0
11
904.397000000000
21
801.681000000000
31
0.0
0
LINE
5
6ad
100
AcDbEntity
8
0-8寸法
6
CONTINUOUS
62
4
100
AcDbLine
10
899.220000000000
20
1162.362000000000
30
0.0
11
894.044000000000
21
1143.044000000000
31
0.0
0
LINE
5
6ae
100
AcDbEntity
8
0-8寸法
6
CONTINUOUS
62
4
100
AcDbLine
10
899.220000000000
20
1162.362000000000
30
0.0
11
904.397000000000
21
1143.044000000000
31
0.0
0
LINE
5
6af
100
AcDbEntity
8
0-8寸法
6
CONTINUOUS
62
4
100
AcDbLine
10
1109.220000000000
20
775.507000000000
30
0.0
11
1109.220000000000
21
562.363000000000
31
0.0
0
LINE
5
6b0
100
AcDbEntity
8
0-8寸法
6
CONTINUOUS
62
4
100
AcDbLine
10
1489.220000000000
20
775.507000000000
30
0.0
11
1489.220000000000
21
562.363000000000
31
0.0
0
LINE
5
6b1
100
AcDbEntity
8
0-8寸法
6
CONTINUOUS
62
4
100
AcDbLine
10
557.460000000000
20
472.362000000000
30
0.0
11
909.220000000000
21
472.362000000000
31
0.0
0
LINE
5
6b2
100
AcDbEntity
8
0-8寸法
6
CONTINUOUS
62
4
100
AcDbLine
10
1214.220000000000
20
1472.362000000000
30
0.0
11
1384.220000000000
21
1472.362000000000
31
0.0
0
LINE
5
6b3
100
AcDbEntity
8
0-8寸法
6
CONTINUOUS
62
4
100
AcDbLine
10
416.938000000000
20
1572.363000000000
30
0.0
11
1049.220000000000
21
1572.363000000000
31
0.0
0
LINE
5
6b4
100
AcDbEntity
8
0-8寸法
6
CONTINUOUS
62
4
100
AcDbLine
10
416.938000000000
20
1672.363000000000
30
0.0
11
1049.220000000000
21
1672.363000000000
31
0.0
0
LINE
5
6b5
100
AcDbEntity
8
0-8寸法
6
CONTINUOUS
62
4
100
AcDbLine
10
2047.443000000000
20
1322.362000000000
30
0.0
11
2245.672000000000
21
1322.362000000000
31
0.0
0
LINE
5
6b6
100
AcDbEntity
8
0-8寸法
6
CONTINUOUS
62
4
100
AcDbLine
10
2061.753000000000
20
1312.362000000000
30
0.0
11
2231.694000000000
21
1312.362000000000
31
0.0
0
LINE
5
6b7
100
AcDbEntity
8
0-8寸法
6
CONTINUOUS
62
4
100
AcDbLine
10
2080.144000000000
20
1302.362000000000
30
0.0
11
2211.095000000000
21
1302.362000000000
31
0.0
0
LINE
5
6b8
100
AcDbEntity
8
0-8寸法
6
CONTINUOUS
62
4
100
AcDbLine
10
2100.008000000000
20
1292.362000000000
30
0.0
11
2192.703000000000
21
1292.362000000000
31
0.0
0
LINE
5
6b9
100
AcDbEntity
8
0-8寸法
6
CONTINUOUS
62
4
100
AcDbLine
10
2118.400000000000
20
1282.362000000000
30
0.0
11
2171.369000000000
21
1282.362000000000
31
0.0
0
LINE
5
6ba
100
AcDbEntity
8
0-8寸法
6
CONTINUOUS
62
4
100
AcDbLine
10
2130.906000000000
20
1272.362000000000
30
0.0
11
2156.655000000000
21
1272.362000000000
31
0.0
0
LINE
5
6bb
100
AcDbEntity
8
0-8寸法
6
CONTINUOUS
62
4
100
AcDbLine
10
1977.652000000000
20
782.362000000000
30
0.0
11
1977.652000000000
21
1322.362000000000
31
0.0
0
LINE
5
6bc
100
AcDbEntity
8
0-8寸法
6
CONTINUOUS
62
4
100
AcDbLine
10
2020.534000000000
20
1322.362000000000
30
0.0
11
1967.652000000000
21
1322.362000000000
31
0.0
0
LINE
5
6bd
100
AcDbEntity
8
0-8寸法
6
CONTINUOUS
62
4
100
AcDbLine
10
1977.652000000000
20
782.362000000000
30
0.0
11
1972.476000000000
21
801.681000000000
31
0.0
0
LINE
5
6be
100
AcDbEntity
8
0-8寸法
6
CONTINUOUS
62
4
100
AcDbLine
10
1977.652000000000
20
782.362000000000
30
0.0
11
1982.829000000000
21
801.681000000000
31
0.0
0
LINE
5
6bf
100
AcDbEntity
8
0-8寸法
6
CONTINUOUS
62
4
100
AcDbLine
10
1977.652000000000
20
1322.362000000000
30
0.0
11
1972.476000000000
21
1303.044000000000
31
0.0
0
LINE
5
6c0
100
AcDbEntity
8
0-8寸法
6
CONTINUOUS
62
4
100
AcDbLine
10
1977.652000000000
20
1322.362000000000
30
0.0
11
1982.829000000000
21
1303.044000000000
31
0.0
0
LINE
5
6c1
100
AcDbEntity
8
0-8寸法
6
CONTINUOUS
62
4
100
AcDbLine
10
2385.781000000000
20
782.362000000000
30
0.0
11
1967.652000000000
21
782.362000000000
31
0.0
0
LINE
5
6c2
100
AcDbEntity
8
0-8寸法
6
CONTINUOUS
62
4
100
AcDbLine
10
1649.220000000000
20
2072.363000000000
30
0.0
11
2333.682000000000
21
2072.363000000000
31
0.0
0
LINE
5
6c3
100
AcDbEntity
8
0-8寸法
6
CONTINUOUS
62
4
100
AcDbLine
10
1649.220000000000
20
1972.363000000000
30
0.0
11
2333.682000000000
21
1972.363000000000
31
0.0
0
LINE
5
6c4
100
AcDbEntity
8
0-8寸法
6
CONTINUOUS
62
4
100
AcDbLine
10
1649.220000000000
20
1872.363000000000
30
0.0
11
2333.682000000000
21
1872.363000000000
31
0.0
0
LINE
5
6c5
100
AcDbEntity
8
0-8寸法
6
CONTINUOUS
62
4
100
AcDbLine
10
2282.542000000000
20
572.362000000000
30
0.0
11
2282.542000000000
21
472.362000000000
31
0.0
0
LINE
5
6c6
100
AcDbEntity
8
0-8寸法
6
CONTINUOUS
62
4
100
AcDbLine
10
1649.220000000000
20
1572.362000000000
30
0.0
11
2236.489000000000
21
1572.362000000000
31
0.0
0
LINE
5
6c7
100
AcDbEntity
8
0-8寸法
6
CONTINUOUS
62
4
100
AcDbLine
10
1649.220000000000
20
1472.362000000000
30
0.0
11
2236.489000000000
21
1472.362000000000
31
0.0
0
LINE
5
6c8
100
AcDbEntity
8
0-8寸法
6
CONTINUOUS
62
4
100
AcDbLine
10
1649.220000000000
20
2072.363000000000
30
0.0
11
1649.220000000000
21
1872.363000000000
31
0.0
0
LINE
5
6c9
100
AcDbEntity
8
0-8寸法
6
CONTINUOUS
62
4
100
AcDbLine
10
1091.261000000000
20
1162.362000000000
30
0.0
11
889.220000000000
21
1162.362000000000
31
0.0
0
LINE
5
6ca
100
AcDbEntity
8
0-8寸法
6
CONTINUOUS
62
4
100
AcDbLine
10
1091.261000000000
20
782.362000000000
30
0.0
11
889.220000000000
21
782.362000000000
31
0.0
0
LINE
5
6cb
100
AcDbEntity
8
0-8寸法
6
CONTINUOUS
62
4
100
AcDbLine
10
1529.220000000000
20
713.594000000000
30
0.0
11
1529.220000000000
21
462.362000000000
31
0.0
0
LINE
5
6cc
100
AcDbEntity
8
0-8寸法
6
CONTINUOUS
62
4
100
AcDbLine
10
1549.220000000000
20
472.362000000000
30
0.0
11
1568.539000000000
21
477.539000000000
31
0.0
0
LINE
5
6cd
100
AcDbEntity
8
0-8寸法
6
CONTINUOUS
62
4
100
AcDbLine
10
1529.220000000000
20
472.362000000000
30
0.0
11
1509.902000000000
21
477.539000000000
31
0.0
0
LINE
5
6ce
100
AcDbEntity
8
0-8寸法
6
CONTINUOUS
62
4
100
AcDbLine
10
1529.220000000000
20
472.362000000000
30
0.0
11
1509.902000000000
21
467.186000000000
31
0.0
0
POLYLINE
5
6cf
100
AcDbEntity
8
0-8寸法
6
CONTINUOUS
62
  4
100
AcDb2dPolyline
66
1
10
0.0
20
0.0
30
0.0
70
0
0
VERTEX
5
6d0
100
AcDbEntity
8
0-8寸法
6
CONTINUOUS
62
  4
100
AcDbVertex
100
AcDb2dVertex
10
1529.220000000000
20
472.362000000000
30
0.0
0
VERTEX
5
6d1
100
AcDbEntity
8
0-8寸法
6
CONTINUOUS
62
  4
100
AcDbVertex
100
AcDb2dVertex
10
1379.220000000000
20
472.362000000000
30
0.0
0
VERTEX
5
6d2
100
AcDbEntity
8
0-8寸法
6
CONTINUOUS
62
  4
100
AcDbVertex
100
AcDb2dVertex
10
1359.902000000000
20
477.539000000000
30
0.0
0
SEQEND
5
6d3
100
AcDbEntity
8
0-8寸法
0
LINE
5
6d4
100
AcDbEntity
8
0-8寸法
6
CONTINUOUS
62
4
100
AcDbLine
10
1379.220000000000
20
472.362000000000
30
0.0
11
1359.902000000000
21
467.186000000000
31
0.0
0
LINE
5
6d5
100
AcDbEntity
8
0-8寸法
6
CONTINUOUS
62
4
100
AcDbLine
10
1379.220000000000
20
472.362000000000
30
0.0
11
1219.220000000000
21
472.362000000000
31
0.0
0
LINE
5
6d6
100
AcDbEntity
8
0-8寸法
6
CONTINUOUS
62
4
100
AcDbLine
10
1379.220000000000
20
472.362000000000
30
0.0
11
1398.539000000000
21
477.539000000000
31
0.0
0
LINE
5
6d7
100
AcDbEntity
8
0-8寸法
6
CONTINUOUS
62
4
100
AcDbLine
10
1379.220000000000
20
472.362000000000
30
0.0
11
1398.539000000000
21
467.186000000000
31
0.0
0
LINE
5
6d8
100
AcDbEntity
8
0-8寸法
6
CONTINUOUS
62
4
100
AcDbLine
10
1219.220000000000
20
472.362000000000
30
0.0
11
1199.902000000000
21
477.539000000000
31
0.0
0
LINE
5
6d9
100
AcDbEntity
8
0-8寸法
6
CONTINUOUS
62
4
100
AcDbLine
10
1219.220000000000
20
472.362000000000
30
0.0
11
1199.902000000000
21
467.186000000000
31
0.0
0
LINE
5
6da
100
AcDbEntity
8
0-8寸法
6
CONTINUOUS
62
4
100
AcDbLine
10
1219.220000000000
20
472.362000000000
30
0.0
11
1069.220000000000
21
472.362000000000
31
0.0
0
LINE
5
6db
100
AcDbEntity
8
0-8寸法
6
CONTINUOUS
62
4
100
AcDbLine
10
1069.220000000000
20
713.594000000000
30
0.0
11
1069.220000000000
21
462.362000000000
31
0.0
0
LINE
5
6dc
100
AcDbEntity
8
0-8寸法
6
CONTINUOUS
62
4
100
AcDbLine
10
1219.220000000000
20
472.362000000000
30
0.0
11
1238.539000000000
21
477.539000000000
31
0.0
0
LINE
5
6dd
100
AcDbEntity
8
0-8寸法
6
CONTINUOUS
62
4
100
AcDbLine
10
1219.220000000000
20
472.362000000000
30
0.0
11
1238.539000000000
21
467.186000000000
31
0.0
0
LINE
5
6de
100
AcDbEntity
8
0-8寸法
6
CONTINUOUS
62
4
100
AcDbLine
10
1069.220000000000
20
472.362000000000
30
0.0
11
1088.539000000000
21
477.539000000000
31
0.0
0
LINE
5
6df
100
AcDbEntity
8
0-8寸法
6
CONTINUOUS
62
4
100
AcDbLine
10
1069.220000000000
20
472.362000000000
30
0.0
11
1088.539000000000
21
467.186000000000
31
0.0
0
LINE
5
6e0
100
AcDbEntity
8
0-8寸法
6
CONTINUOUS
62
4
100
AcDbLine
10
1049.220000000000
20
372.362000000000
30
0.0
11
1549.220000000000
21
372.362000000000
31
0.0
0
LINE
5
6e1
100
AcDbEntity
8
0-8寸法
6
CONTINUOUS
62
4
100
AcDbLine
10
1049.220000000000
20
713.594000000000
30
0.0
11
1049.220000000000
21
362.362000000000
31
0.0
0
LINE
5
6e2
100
AcDbEntity
8
0-8寸法
6
CONTINUOUS
62
4
100
AcDbLine
10
1549.220000000000
20
713.594000000000
30
0.0
11
1549.220000000000
21
362.362000000000
31
0.0
0
LINE
5
6e3
100
AcDbEntity
8
0-8寸法
6
CONTINUOUS
62
4
100
AcDbLine
10
1049.220000000000
20
372.362000000000
30
0.0
11
1068.539000000000
21
377.539000000000
31
0.0
0
LINE
5
6e4
100
AcDbEntity
8
0-8寸法
6
CONTINUOUS
62
4
100
AcDbLine
10
1049.220000000000
20
372.362000000000
30
0.0
11
1068.539000000000
21
367.186000000000
31
0.0
0
LINE
5
6e5
100
AcDbEntity
8
0-8寸法
6
CONTINUOUS
62
4
100
AcDbLine
10
1549.220000000000
20
372.362000000000
30
0.0
11
1529.902000000000
21
377.539000000000
31
0.0
0
LINE
5
6e6
100
AcDbEntity
8
0-8寸法
6
CONTINUOUS
62
4
100
AcDbLine
10
1549.220000000000
20
372.362000000000
30
0.0
11
1529.902000000000
21
367.186000000000
31
0.0
0
LINE
5
6e7
100
AcDbEntity
8
0-8寸法
6
CONTINUOUS
62
4
100
AcDbLine
10
1549.220000000000
20
472.362000000000
30
0.0
11
1568.539000000000
21
467.186000000000
31
0.0
0
LINE
5
6e8
100
AcDbEntity
8
0-8寸法
6
CONTINUOUS
62
4
100
AcDbLine
10
1630.501000000000
20
472.362000000000
30
0.0
11
1529.220000000000
21
472.362000000000
31
0.0
0
LINE
5
6e9
100
AcDbEntity
8
0-8寸法
6
CONTINUOUS
62
4
100
AcDbLine
10
1049.220000000000
20
472.362000000000
30
0.0
11
1029.902000000000
21
477.539000000000
31
0.0
0
LINE
5
6ea
100
AcDbEntity
8
0-8寸法
6
CONTINUOUS
62
4
100
AcDbLine
10
1049.220000000000
20
472.362000000000
30
0.0
11
1029.902000000000
21
467.186000000000
31
0.0
0
LINE
5
6eb
100
AcDbEntity
8
0-8寸法
6
CONTINUOUS
62
4
100
AcDbLine
10
967.939000000000
20
472.362000000000
30
0.0
11
1069.220000000000
21
472.362000000000
31
0.0
0
LINE
5
6ec
100
AcDbEntity
8
0-8寸法
6
CONTINUOUS
62
4
100
AcDbLine
10
1219.220000000000
20
562.363000000000
30
0.0
11
1219.220000000000
21
462.362000000000
31
0.0
0
LINE
5
6ed
100
AcDbEntity
8
0-8寸法
6
CONTINUOUS
62
4
100
AcDbLine
10
1379.220000000000
20
562.363000000000
30
0.0
11
1379.220000000000
21
462.362000000000
31
0.0
0
LINE
5
6ee
100
AcDbEntity
8
0-8寸法
6
CONTINUOUS
62
4
100
AcDbLine
10
1109.220000000000
20
572.362000000000
30
0.0
11
1489.220000000000
21
572.362000000000
31
0.0
0
LINE
5
6ef
100
AcDbEntity
8
0-8寸法
6
CONTINUOUS
62
4
100
AcDbLine
10
1379.220000000000
20
713.594000000000
30
0.0
11
1379.220000000000
21
638.411000000000
31
0.0
0
LINE
5
6f0
100
AcDbEntity
8
0-8寸法
6
CONTINUOUS
62
4
100
AcDbLine
10
1219.220000000000
20
713.594000000000
30
0.0
11
1219.220000000000
21
638.411000000000
31
0.0
0
LINE
5
6f1
100
AcDbEntity
8
0-8寸法
6
CONTINUOUS
62
4
100
AcDbLine
10
799.220000000000
20
742.362000000000
30
0.0
11
799.220000000000
21
902.362000000000
31
0.0
0
LINE
5
6f2
100
AcDbEntity
8
0-8寸法
6
CONTINUOUS
62
4
100
AcDbLine
10
1040.471000000000
20
742.362000000000
30
0.0
11
789.220000000000
21
742.362000000000
31
0.0
0
LINE
5
6f3
100
AcDbEntity
8
0-8寸法
6
CONTINUOUS
62
4
100
AcDbLine
10
799.220000000000
20
742.362000000000
30
0.0
11
794.044000000000
21
761.681000000000
31
0.0
0
LINE
5
6f4
100
AcDbEntity
8
0-8寸法
6
CONTINUOUS
62
4
100
AcDbLine
10
799.220000000000
20
742.362000000000
30
0.0
11
804.397000000000
21
761.681000000000
31
0.0
0
LINE
5
6f5
100
AcDbEntity
8
0-8寸法
6
CONTINUOUS
62
4
100
AcDbLine
10
799.220000000000
20
902.362000000000
30
0.0
11
794.044000000000
21
883.044000000000
31
0.0
0
LINE
5
6f6
100
AcDbEntity
8
0-8寸法
6
CONTINUOUS
62
4
100
AcDbLine
10
799.220000000000
20
902.362000000000
30
0.0
11
804.397000000000
21
883.044000000000
31
0.0
0
LINE
5
6f7
100
AcDbEntity
8
0-8寸法
6
CONTINUOUS
62
4
100
AcDbLine
10
799.220000000000
20
902.362000000000
30
0.0
11
799.220000000000
21
1067.362000000000
31
0.0
0
LINE
5
6f8
100
AcDbEntity
8
0-8寸法
6
CONTINUOUS
62
4
100
AcDbLine
10
799.220000000000
20
902.362000000000
30
0.0
11
794.044000000000
21
921.681000000000
31
0.0
0
LINE
5
6f9
100
AcDbEntity
8
0-8寸法
6
CONTINUOUS
62
4
100
AcDbLine
10
799.220000000000
20
902.362000000000
30
0.0
11
804.397000000000
21
921.681000000000
31
0.0
0
LINE
5
6fa
100
AcDbEntity
8
0-8寸法
6
CONTINUOUS
62
4
100
AcDbLine
10
799.220000000000
20
1067.362000000000
30
0.0
11
794.044000000000
21
1048.044000000000
31
0.0
0
LINE
5
6fb
100
AcDbEntity
8
0-8寸法
6
CONTINUOUS
62
4
100
AcDbLine
10
799.220000000000
20
1067.362000000000
30
0.0
11
804.397000000000
21
1048.044000000000
31
0.0
0
LINE
5
6fc
100
AcDbEntity
8
0-8寸法
6
CONTINUOUS
62
4
100
AcDbLine
10
799.220000000000
20
1067.362000000000
30
0.0
11
799.220000000000
21
1227.362000000000
31
0.0
0
LINE
5
6fd
100
AcDbEntity
8
0-8寸法
6
CONTINUOUS
62
4
100
AcDbLine
10
1040.471000000000
20
1227.362000000000
30
0.0
11
789.220000000000
21
1227.362000000000
31
0.0
0
LINE
5
6fe
100
AcDbEntity
8
0-8寸法
6
CONTINUOUS
62
4
100
AcDbLine
10
799.220000000000
20
1067.362000000000
30
0.0
11
794.044000000000
21
1086.681000000000
31
0.0
0
LINE
5
6ff
100
AcDbEntity
8
0-8寸法
6
CONTINUOUS
62
4
100
AcDbLine
10
799.220000000000
20
1067.362000000000
30
0.0
11
804.397000000000
21
1086.681000000000
31
0.0
0
LINE
5
700
100
AcDbEntity
8
0-8寸法
6
CONTINUOUS
62
4
100
AcDbLine
10
799.220000000000
20
1227.362000000000
30
0.0
11
794.044000000000
21
1208.044000000000
31
0.0
0
LINE
5
701
100
AcDbEntity
8
0-8寸法
6
CONTINUOUS
62
4
100
AcDbLine
10
799.220000000000
20
1227.362000000000
30
0.0
11
804.397000000000
21
1208.044000000000
31
0.0
0
LINE
5
702
100
AcDbEntity
8
0-8寸法
6
CONTINUOUS
62
4
100
AcDbLine
10
799.220000000000
20
722.362000000000
30
0.0
11
794.044000000000
21
703.044000000000
31
0.0
0
LINE
5
703
100
AcDbEntity
8
0-8寸法
6
CONTINUOUS
62
4
100
AcDbLine
10
799.220000000000
20
722.362000000000
30
0.0
11
804.397000000000
21
703.044000000000
31
0.0
0
LINE
5
704
100
AcDbEntity
8
0-8寸法
6
CONTINUOUS
62
4
100
AcDbLine
10
799.220000000000
20
641.082000000000
30
0.0
11
799.220000000000
21
742.362000000000
31
0.0
0
LINE
5
705
100
AcDbEntity
8
0-8寸法
6
CONTINUOUS
62
4
100
AcDbLine
10
799.220000000000
20
1247.362000000000
30
0.0
11
794.044000000000
21
1266.681000000000
31
0.0
0
LINE
5
706
100
AcDbEntity
8
0-8寸法
6
CONTINUOUS
62
4
100
AcDbLine
10
799.220000000000
20
1247.362000000000
30
0.0
11
804.397000000000
21
1266.681000000000
31
0.0
0
LINE
5
707
100
AcDbEntity
8
0-8寸法
6
CONTINUOUS
62
4
100
AcDbLine
10
799.220000000000
20
1328.643000000000
30
0.0
11
799.220000000000
21
1227.362000000000
31
0.0
0
LINE
5
708
100
AcDbEntity
8
0-8寸法
6
CONTINUOUS
62
4
100
AcDbLine
10
899.220000000000
20
782.362000000000
30
0.0
11
899.220000000000
21
1162.362000000000
31
0.0
0
LINE
5
709
100
AcDbEntity
8
0-8寸法
6
CONTINUOUS
62
4
100
AcDbLine
10
699.220000000000
20
722.362000000000
30
0.0
11
699.220000000000
21
1247.362000000000
31
0.0
0
LINE
5
70a
100
AcDbEntity
8
0-8寸法
6
CONTINUOUS
62
4
100
AcDbLine
10
1040.471000000000
20
722.362000000000
30
0.0
11
689.220000000000
21
722.362000000000
31
0.0
0
LINE
5
70b
100
AcDbEntity
8
0-8寸法
6
CONTINUOUS
62
4
100
AcDbLine
10
1040.471000000000
20
1247.362000000000
30
0.0
11
689.220000000000
21
1247.362000000000
31
0.0
0
LINE
5
70c
100
AcDbEntity
8
0-8寸法
6
CONTINUOUS
62
4
100
AcDbLine
10
699.220000000000
20
722.362000000000
30
0.0
11
694.044000000000
21
741.681000000000
31
0.0
0
LINE
5
70d
100
AcDbEntity
8
0-8寸法
6
CONTINUOUS
62
4
100
AcDbLine
10
699.220000000000
20
722.362000000000
30
0.0
11
704.397000000000
21
741.681000000000
31
0.0
0
LINE
5
70e
100
AcDbEntity
8
0-8寸法
6
CONTINUOUS
62
4
100
AcDbLine
10
699.220000000000
20
1247.362000000000
30
0.0
11
694.044000000000
21
1228.044000000000
31
0.0
0
LINE
5
70f
100
AcDbEntity
8
0-8寸法
6
CONTINUOUS
62
4
100
AcDbLine
10
699.220000000000
20
1247.362000000000
30
0.0
11
704.397000000000
21
1228.044000000000
31
0.0
0
LINE
5
710
100
AcDbEntity
8
0-8寸法
6
CONTINUOUS
62
4
100
AcDbLine
10
1040.471000000000
20
1067.362000000000
30
0.0
11
912.679000000000
21
1067.362000000000
31
0.0
0
LINE
5
711
100
AcDbEntity
8
0-8寸法
6
CONTINUOUS
62
4
100
AcDbLine
10
841.007000000000
20
1067.362000000000
30
0.0
11
789.220000000000
21
1067.362000000000
31
0.0
0
LINE
5
712
100
AcDbEntity
8
0-8寸法
6
CONTINUOUS
62
4
100
AcDbLine
10
1040.471000000000
20
902.362000000000
30
0.0
11
912.679000000000
21
902.362000000000
31
0.0
0
LINE
5
713
100
AcDbEntity
8
0-8寸法
6
CONTINUOUS
62
4
100
AcDbLine
10
841.007000000000
20
902.362000000000
30
0.0
11
789.220000000000
21
902.362000000000
31
0.0
0
LINE
5
714
100
AcDbEntity
8
0-8寸法
6
CONTINUOUS
62
4
100
AcDbLine
10
2492.652000000000
20
1472.362000000000
30
0.0
11
2511.971000000000
21
1477.539000000000
31
0.0
0
LINE
5
715
100
AcDbEntity
8
0-8寸法
6
CONTINUOUS
62
4
100
AcDbLine
10
2492.652000000000
20
1472.362000000000
30
0.0
11
2511.971000000000
21
1467.186000000000
31
0.0
0
LINE
5
716
100
AcDbEntity
8
0-8寸法
6
CONTINUOUS
62
4
100
AcDbLine
10
2589.953000000000
20
1472.362000000000
30
0.0
11
2480.652000000000
21
1472.362000000000
31
0.0
0
LINE
5
717
100
AcDbEntity
8
0-8寸法
6
CONTINUOUS
62
4
100
AcDbLine
10
1149.220000000000
20
1572.362000000000
30
0.0
11
1449.220000000000
21
1572.362000000000
31
0.0
0
LINE
5
718
100
AcDbEntity
8
0-8寸法
6
CONTINUOUS
62
4
100
AcDbLine
10
1649.220000000000
20
1472.362000000000
30
0.0
11
1409.344000000000
21
1231.080000000000
31
0.0
0
LINE
5
719
100
AcDbEntity
8
0-8寸法
6
CONTINUOUS
62
4
100
AcDbLine
10
1109.220000000000
20
1972.363000000000
30
0.0
11
1489.220000000000
21
1972.363000000000
31
0.0
0
LINE
5
71a
100
AcDbEntity
8
0-8寸法
6
CONTINUOUS
62
4
100
AcDbLine
10
1109.220000000000
20
2170.228000000000
30
0.0
11
1109.220000000000
21
1962.363000000000
31
0.0
0
LINE
5
71b
100
AcDbEntity
8
0-8寸法
6
CONTINUOUS
62
4
100
AcDbLine
10
1489.220000000000
20
2170.228000000000
30
0.0
11
1489.220000000000
21
1962.363000000000
31
0.0
0
LINE
5
71c
100
AcDbEntity
8
0-8寸法
6
CONTINUOUS
62
4
100
AcDbLine
10
1049.220000000000
20
1472.362000000000
30
0.0
11
1208.223000000000
21
1239.364000000000
31
0.0
0
LINE
5
71d
100
AcDbEntity
8
0-8寸法
6
CONTINUOUS
62
4
100
AcDbLine
10
416.938000000000
20
1472.362000000000
30
0.0
11
1049.220000000000
21
1472.362000000000
31
0.0
0
LINE
5
71e
100
AcDbEntity
8
0-8寸法
6
CONTINUOUS
62
4
100
AcDbLine
10
1049.220000000000
20
1672.363000000000
30
0.0
11
1049.220000000000
21
1472.362000000000
31
0.0
0
LINE
5
71f
100
AcDbEntity
8
0-8寸法
6
CONTINUOUS
62
4
100
AcDbLine
10
1214.220000000000
20
1281.063000000000
30
0.0
11
1214.220000000000
21
1482.362000000000
31
0.0
0
LINE
5
720
100
AcDbEntity
8
0-8寸法
6
CONTINUOUS
62
4
100
AcDbLine
10
1384.220000000000
20
1281.063000000000
30
0.0
11
1384.220000000000
21
1482.362000000000
31
0.0
0
LINE
5
721
100
AcDbEntity
8
0-8寸法
6
CONTINUOUS
62
4
100
AcDbLine
10
1149.220000000000
20
1254.866000000000
30
0.0
11
1149.220000000000
21
1582.362000000000
31
0.0
0
LINE
5
722
100
AcDbEntity
8
0-8寸法
6
CONTINUOUS
62
4
100
AcDbLine
10
1449.220000000000
20
1254.866000000000
30
0.0
11
1449.220000000000
21
1582.362000000000
31
0.0
0
LINE
5
723
100
AcDbEntity
8
0-8寸法
6
CONTINUOUS
62
4
100
AcDbLine
10
1749.220000000000
20
372.362000000000
30
0.0
11
2282.542000000000
21
372.362000000000
31
0.0
0
LINE
5
724
100
AcDbEntity
8
0-8寸法
6
CONTINUOUS
62
4
100
AcDbLine
10
2282.542000000000
20
572.362000000000
30
0.0
11
2484.661000000000
21
772.606000000000
31
0.0
0
LINE
5
725
100
AcDbEntity
8
0-8寸法
6
CONTINUOUS
62
4
100
AcDbLine
10
2282.542000000000
20
372.362000000000
30
0.0
11
2492.652000000000
21
722.362000000000
31
0.0
0
LINE
5
726
100
AcDbEntity
8
0-8寸法
6
CONTINUOUS
62
4
100
AcDbLine
10
2454.652000000000
20
1472.362000000000
30
0.0
11
2435.333000000000
21
1477.539000000000
31
0.0
0
LINE
5
727
100
AcDbEntity
8
0-8寸法
6
CONTINUOUS
62
4
100
AcDbLine
10
2454.652000000000
20
1472.362000000000
30
0.0
11
2435.333000000000
21
1467.186000000000
31
0.0
0
LINE
5
728
100
AcDbEntity
8
0-8寸法
6
CONTINUOUS
62
4
100
AcDbLine
10
2484.652000000000
20
1472.362000000000
30
0.0
11
2370.812000000000
21
1472.362000000000
31
0.0
0
LINE
5
729
100
AcDbEntity
8
0-8寸法
6
CONTINUOUS
62
4
100
AcDbLine
10
2492.652000000000
20
1359.532000000000
30
0.0
11
2492.652000000000
21
1482.362000000000
31
0.0
0
LINE
5
72a
100
AcDbEntity
8
0-8寸法
6
CONTINUOUS
62
4
100
AcDbLine
10
2454.652000000000
20
1242.196000000000
30
0.0
11
2454.652000000000
21
1482.362000000000
31
0.0
0
LINE
5
72b
100
AcDbEntity
8
0-8寸法
6
CONTINUOUS
62
4
100
AcDbLine
10
2484.652000000000
20
1253.084000000000
30
0.0
11
2484.652000000000
21
1482.362000000000
31
0.0
0
LINE
5
72c
100
AcDbEntity
8
0-8寸法
6
CONTINUOUS
62
4
100
AcDbLine
10
2792.652000000000
20
822.362000000000
30
0.0
11
2792.652000000000
21
1122.362000000000
31
0.0
0
LINE
5
72d
100
AcDbEntity
8
0-8寸法
6
CONTINUOUS
62
4
100
AcDbLine
10
2792.652000000000
20
822.362000000000
30
0.0
11
2787.476000000000
21
841.681000000000
31
0.0
0
LINE
5
72e
100
AcDbEntity
8
0-8寸法
6
CONTINUOUS
62
4
100
AcDbLine
10
2792.652000000000
20
822.362000000000
30
0.0
11
2797.828000000000
21
841.681000000000
31
0.0
0
LINE
5
72f
100
AcDbEntity
8
0-8寸法
6
CONTINUOUS
62
4
100
AcDbLine
10
2792.652000000000
20
1122.362000000000
30
0.0
11
2787.476000000000
21
1103.044000000000
31
0.0
0
LINE
5
730
100
AcDbEntity
8
0-8寸法
6
CONTINUOUS
62
4
100
AcDbLine
10
2792.652000000000
20
1122.362000000000
30
0.0
11
2797.828000000000
21
1103.044000000000
31
0.0
0
LINE
5
731
100
AcDbEntity
8
0-8寸法
6
CONTINUOUS
62
4
100
AcDbLine
10
1149.220000000000
20
2566.822000000000
30
0.0
11
1449.220000000000
21
2566.822000000000
31
0.0
0
LINE
5
732
100
AcDbEntity
8
0-8寸法
6
CONTINUOUS
62
4
100
AcDbLine
10
1149.220000000000
20
2566.822000000000
30
0.0
11
1168.539000000000
21
2571.999000000000
31
0.0
0
LINE
5
733
100
AcDbEntity
8
0-8寸法
6
CONTINUOUS
62
4
100
AcDbLine
10
1149.220000000000
20
2566.822000000000
30
0.0
11
1168.539000000000
21
2561.646000000000
31
0.0
0
LINE
5
734
100
AcDbEntity
8
0-8寸法
6
CONTINUOUS
62
4
100
AcDbLine
10
1449.220000000000
20
2566.822000000000
30
0.0
11
1429.902000000000
21
2571.999000000000
31
0.0
0
LINE
5
735
100
AcDbEntity
8
0-8寸法
6
CONTINUOUS
62
4
100
AcDbLine
10
1449.220000000000
20
2566.822000000000
30
0.0
11
1429.902000000000
21
2561.646000000000
31
0.0
0
LINE
5
736
100
AcDbEntity
8
0-8寸法
6
CONTINUOUS
62
4
100
AcDbLine
10
2792.652000000000
20
722.362000000000
30
0.0
11
2792.652000000000
21
822.362000000000
31
0.0
0
LINE
5
737
100
AcDbEntity
8
0-8寸法
6
CONTINUOUS
62
4
100
AcDbLine
10
2656.879000000000
20
822.362000000000
30
0.0
11
2802.652000000000
21
822.362000000000
31
0.0
0
LINE
5
738
100
AcDbEntity
8
0-8寸法
6
CONTINUOUS
62
4
100
AcDbLine
10
2792.652000000000
20
722.362000000000
30
0.0
11
2787.476000000000
21
741.681000000000
31
0.0
0
LINE
5
739
100
AcDbEntity
8
0-8寸法
6
CONTINUOUS
62
4
100
AcDbLine
10
2792.652000000000
20
722.362000000000
30
0.0
11
2797.828000000000
21
741.681000000000
31
0.0
0
LINE
5
73a
100
AcDbEntity
8
0-8寸法
6
CONTINUOUS
62
4
100
AcDbLine
10
2792.652000000000
20
822.362000000000
30
0.0
11
2787.476000000000
21
803.044000000000
31
0.0
0
LINE
5
73b
100
AcDbEntity
8
0-8寸法
6
CONTINUOUS
62
4
100
AcDbLine
10
2792.652000000000
20
822.362000000000
30
0.0
11
2797.828000000000
21
803.044000000000
31
0.0
0
LINE
5
73c
100
AcDbEntity
8
0-8寸法
6
CONTINUOUS
62
4
100
AcDbLine
10
2792.652000000000
20
1122.362000000000
30
0.0
11
2792.652000000000
21
1247.362000000000
31
0.0
0
LINE
5
73d
100
AcDbEntity
8
0-8寸法
6
CONTINUOUS
62
4
100
AcDbLine
10
2656.879000000000
20
1122.362000000000
30
0.0
11
2802.652000000000
21
1122.362000000000
31
0.0
0
LINE
5
73e
100
AcDbEntity
8
0-8寸法
6
CONTINUOUS
62
4
100
AcDbLine
10
2792.652000000000
20
1122.362000000000
30
0.0
11
2787.476000000000
21
1141.681000000000
31
0.0
0
LINE
5
73f
100
AcDbEntity
8
0-8寸法
6
CONTINUOUS
62
4
100
AcDbLine
10
2792.652000000000
20
1122.362000000000
30
0.0
11
2797.828000000000
21
1141.681000000000
31
0.0
0
LINE
5
740
100
AcDbEntity
8
0-8寸法
6
CONTINUOUS
62
4
100
AcDbLine
10
2792.652000000000
20
1247.362000000000
30
0.0
11
2787.476000000000
21
1228.044000000000
31
0.0
0
LINE
5
741
100
AcDbEntity
8
0-8寸法
6
CONTINUOUS
62
4
100
AcDbLine
10
2792.652000000000
20
1247.362000000000
30
0.0
11
2797.828000000000
21
1228.044000000000
31
0.0
0
LINE
5
742
100
AcDbEntity
8
0-8寸法
6
CONTINUOUS
62
4
100
AcDbLine
10
2508.794000000000
20
1247.362000000000
30
0.0
11
2802.652000000000
21
1247.362000000000
31
0.0
0
LINE
5
743
100
AcDbEntity
8
0-8寸法
6
CONTINUOUS
62
4
100
AcDbLine
10
2506.864000000000
20
722.362000000000
30
0.0
11
2802.652000000000
21
722.362000000000
31
0.0
0
LINE
5
744
100
AcDbEntity
8
0-8寸法
6
CONTINUOUS
62
4
100
AcDbLine
10
1049.220000000000
20
2566.822000000000
30
0.0
11
1149.220000000000
21
2566.822000000000
31
0.0
0
LINE
5
745
100
AcDbEntity
8
0-8寸法
6
CONTINUOUS
62
4
100
AcDbLine
10
1049.220000000000
20
2566.822000000000
30
0.0
11
1068.539000000000
21
2571.999000000000
31
0.0
0
LINE
5
746
100
AcDbEntity
8
0-8寸法
6
CONTINUOUS
62
4
100
AcDbLine
10
1049.220000000000
20
2566.822000000000
30
0.0
11
1068.539000000000
21
2561.646000000000
31
0.0
0
LINE
5
747
100
AcDbEntity
8
0-8寸法
6
CONTINUOUS
62
4
100
AcDbLine
10
1149.220000000000
20
2566.822000000000
30
0.0
11
1129.902000000000
21
2571.999000000000
31
0.0
0
LINE
5
748
100
AcDbEntity
8
0-8寸法
6
CONTINUOUS
62
4
100
AcDbLine
10
1149.220000000000
20
2566.822000000000
30
0.0
11
1129.902000000000
21
2561.646000000000
31
0.0
0
LINE
5
749
100
AcDbEntity
8
0-8寸法
6
CONTINUOUS
62
4
100
AcDbLine
10
1449.220000000000
20
2566.822000000000
30
0.0
11
1549.220000000000
21
2566.822000000000
31
0.0
0
LINE
5
74a
100
AcDbEntity
8
0-8寸法
6
CONTINUOUS
62
4
100
AcDbLine
10
1449.220000000000
20
2566.822000000000
30
0.0
11
1468.539000000000
21
2571.999000000000
31
0.0
0
LINE
5
74b
100
AcDbEntity
8
0-8寸法
6
CONTINUOUS
62
4
100
AcDbLine
10
1449.220000000000
20
2566.822000000000
30
0.0
11
1468.539000000000
21
2561.646000000000
31
0.0
0
LINE
5
74c
100
AcDbEntity
8
0-8寸法
6
CONTINUOUS
62
4
100
AcDbLine
10
1549.220000000000
20
2566.822000000000
30
0.0
11
1529.902000000000
21
2571.999000000000
31
0.0
0
LINE
5
74d
100
AcDbEntity
8
0-8寸法
6
CONTINUOUS
62
4
100
AcDbLine
10
1549.220000000000
20
2566.822000000000
30
0.0
11
1529.902000000000
21
2561.646000000000
31
0.0
0
LINE
5
74e
100
AcDbEntity
8
0-8寸法
6
CONTINUOUS
62
4
100
AcDbLine
10
1549.220000000000
20
2275.461000000000
30
0.0
11
1549.220000000000
21
2576.822000000000
31
0.0
0
LINE
5
74f
100
AcDbEntity
8
0-8寸法
6
CONTINUOUS
62
4
100
AcDbLine
10
1449.220000000000
20
2427.585000000000
30
0.0
11
1449.220000000000
21
2576.822000000000
31
0.0
0
LINE
5
750
100
AcDbEntity
8
0-8寸法
6
CONTINUOUS
62
4
100
AcDbLine
10
1149.220000000000
20
2427.585000000000
30
0.0
11
1149.220000000000
21
2576.822000000000
31
0.0
0
LINE
5
751
100
AcDbEntity
8
0-8寸法
6
CONTINUOUS
62
4
100
AcDbLine
10
1049.220000000000
20
2275.461000000000
30
0.0
11
1049.220000000000
21
2576.822000000000
31
0.0
0
LINE
5
752
100
AcDbEntity
8
0-8寸法
6
CONTINUOUS
62
4
100
AcDbLine
10
909.220000000000
20
472.362000000000
30
0.0
11
1142.576000000000
21
876.016000000000
31
0.0
0
LINE
5
753
100
AcDbEntity
8
0-8寸法
6
CONTINUOUS
62
4
100
AcDbLine
10
909.220000000000
20
472.362000000000
30
0.0
11
1227.164000000000
21
803.027000000000
31
0.0
0
POLYLINE
5
754
100
AcDbEntity
8
0-9扉体
6
CONTINUOUS
62
  3
100
AcDb2dPolyline
66
1
10
0.0
20
0.0
30
0.0
70
0
0
VERTEX
5
755
100
AcDbEntity
8
0-9扉体
6
CONTINUOUS
62
  3
100
AcDbVertex
100
AcDb2dVertex
10
1104.220000000000
20
777.362000000000
30
0.0
0
VERTEX
5
756
100
AcDbEntity
8
0-9扉体
6
CONTINUOUS
62
  3
100
AcDbVertex
100
AcDb2dVertex
10
1104.220000000000
20
1167.362000000000
30
0.0
0
VERTEX
5
757
100
AcDbEntity
8
0-9扉体
6
CONTINUOUS
62
  3
100
AcDbVertex
100
AcDb2dVertex
10
1144.220000000000
20
1167.362000000000
30
0.0
0
SEQEND
5
758
100
AcDbEntity
8
0-9扉体
0
LINE
5
759
100
AcDbEntity
8
0-9扉体
6
CONTINUOUS
62
3
100
AcDbLine
10
1284.220000000000
20
1167.362000000000
30
0.0
11
1314.220000000000
21
1167.362000000000
31
0.0
0
LINE
5
75a
100
AcDbEntity
8
0-9扉体
6
CONTINUOUS
62
3
100
AcDbLine
10
1494.220000000000
20
1167.362000000000
30
0.0
11
1454.220000000000
21
1167.362000000000
31
0.0
0
LINE
5
75b
100
AcDbEntity
8
0-9扉体
6
CONTINUOUS
62
3
100
AcDbLine
10
1494.220000000000
20
777.362000000000
30
0.0
11
1494.220000000000
21
1167.362000000000
31
0.0
0
LINE
5
75c
100
AcDbEntity
8
0-9扉体
6
CONTINUOUS
62
3
100
AcDbLine
10
1494.220000000000
20
777.362000000000
30
0.0
11
1104.220000000000
21
777.362000000000
31
0.0
0
LINE
5
75d
100
AcDbEntity
8
0-A文字
6
CONTINUOUS
62
4
100
AcDbLine
10
1199.425000000000
20
1002.918000000000
30
0.0
11
1395.454000000000
21
1002.918000000000
31
0.0
0
POLYLINE
5
75e
100
AcDbEntity
8
0-9扉体
6
CONTINUOUS
62
  2
100
AcDb2dPolyline
66
1
10
0.0
20
0.0
30
0.0
70
0
0
VERTEX
5
75f
100
AcDbEntity
8
0-9扉体
6
CONTINUOUS
62
  2
100
AcDbVertex
100
AcDb2dVertex
10
1144.220000000000
20
2189.822000000000
30
0.0
0
VERTEX
5
760
100
AcDbEntity
8
0-9扉体
6
CONTINUOUS
62
  2
100
AcDbVertex
100
AcDb2dVertex
10
1284.220000000000
20
2189.822000000000
30
0.0
0
VERTEX
5
761
100
AcDbEntity
8
0-9扉体
6
CONTINUOUS
62
  2
100
AcDbVertex
100
AcDb2dVertex
10
1284.220000000000
20
2227.822000000000
30
0.0
0
SEQEND
5
762
100
AcDbEntity
8
0-9扉体
0
LINE
5
763
100
AcDbEntity
8
0-9扉体
6
CONTINUOUS
62
2
100
AcDbLine
10
1184.220000000000
20
2246.322000000000
30
0.0
11
1193.220000000000
21
2246.322000000000
31
0.0
0
LINE
5
764
100
AcDbEntity
8
0-9扉体
6
CONTINUOUS
62
2
100
AcDbLine
10
1184.220000000000
20
2211.322000000000
30
0.0
11
1193.220000000000
21
2211.322000000000
31
0.0
0
LINE
5
765
100
AcDbEntity
8
0-9扉体
6
CONTINUOUS
62
2
100
AcDbLine
10
1173.720000000000
20
2214.307000000000
30
0.0
11
1164.220000000000
21
2219.791000000000
31
0.0
0
LINE
5
766
100
AcDbEntity
8
0-9扉体
6
CONTINUOUS
62
2
100
AcDbLine
10
1173.720000000000
20
2214.307000000000
30
0.0
11
1173.720000000000
21
2203.337000000000
31
0.0
0
LINE
5
767
100
AcDbEntity
8
0-9扉体
6
CONTINUOUS
62
2
100
AcDbLine
10
1164.220000000000
20
2197.852000000000
30
0.0
11
1173.720000000000
21
2203.337000000000
31
0.0
0
POLYLINE
5
768
100
AcDbEntity
8
0-9扉体
6
CONTINUOUS
62
  2
100
AcDb2dPolyline
66
1
10
0.0
20
0.0
30
0.0
70
0
0
VERTEX
5
769
100
AcDbEntity
8
0-9扉体
6
CONTINUOUS
62
  2
100
AcDbVertex
100
AcDb2dVertex
10
1164.220000000000
20
2197.852000000000
30
0.0
0
VERTEX
5
76a
100
AcDbEntity
8
0-9扉体
6
CONTINUOUS
62
  2
100
AcDbVertex
100
AcDb2dVertex
10
1154.720000000000
20
2203.337000000000
30
0.0
0
VERTEX
5
76b
100
AcDbEntity
8
0-9扉体
6
CONTINUOUS
62
  2
100
AcDbVertex
100
AcDb2dVertex
10
1154.720000000000
20
2214.307000000000
30
0.0
0
VERTEX
5
76c
100
AcDbEntity
8
0-9扉体
6
CONTINUOUS
62
  2
100
AcDbVertex
100
AcDb2dVertex
10
1164.220000000000
20
2219.791000000000
30
0.0
0
SEQEND
5
76d
100
AcDbEntity
8
0-9扉体
0
LINE
5
76e
100
AcDbEntity
8
0-5基準線
6
CENTER2
62
7
100
AcDbLine
10
1164.220000000000
20
2222.822000000000
30
0.0
11
1164.220000000000
21
2194.822000000000
31
0.0
0
LINE
5
76f
100
AcDbEntity
8
0-5基準線
6
CENTER2
62
7
100
AcDbLine
10
1178.220000000000
20
2208.822000000000
30
0.0
11
1150.220000000000
21
2208.822000000000
31
0.0
0
LINE
5
770
100
AcDbEntity
8
0-9扉体
6
CONTINUOUS
62
2
100
AcDbLine
10
1181.620000000000
20
2244.822000000000
30
0.0
11
1181.620000000000
21
2212.822000000000
31
0.0
0
LINE
5
771
100
AcDbEntity
8
0-9扉体
6
CONTINUOUS
62
2
100
AcDbLine
10
1170.720000000000
20
2220.822000000000
30
0.0
11
1181.620000000000
21
2220.822000000000
31
0.0
0
LINE
5
772
100
AcDbEntity
8
0-9扉体
6
CONTINUOUS
62
2
100
AcDbLine
10
1193.220000000000
20
2220.822000000000
30
0.0
11
1195.220000000000
21
2220.822000000000
31
0.0
0
LINE
5
773
100
AcDbEntity
8
0-9扉体
6
CONTINUOUS
62
2
100
AcDbLine
10
1193.220000000000
20
2236.822000000000
30
0.0
11
1195.220000000000
21
2236.822000000000
31
0.0
0
LINE
5
774
100
AcDbEntity
8
0-5基準線
6
CENTER2
62
7
100
AcDbLine
10
1167.220000000000
20
2228.822000000000
30
0.0
11
1261.220000000000
21
2228.822000000000
31
0.0
0
LINE
5
775
100
AcDbEntity
8
0-9扉体
6
CONTINUOUS
62
2
100
AcDbLine
10
1246.820000000000
20
2244.822000000000
30
0.0
11
1246.820000000000
21
2212.822000000000
31
0.0
0
LINE
5
776
100
AcDbEntity
8
0-9扉体
6
CONTINUOUS
62
2
100
AcDbLine
10
1246.820000000000
20
2244.822000000000
30
0.0
11
1244.220000000000
21
2244.822000000000
31
0.0
0
LINE
5
777
100
AcDbEntity
8
0-9扉体
6
CONTINUOUS
62
2
100
AcDbLine
10
1246.820000000000
20
2212.822000000000
30
0.0
11
1244.220000000000
21
2212.822000000000
31
0.0
0
LINE
5
778
100
AcDbEntity
8
0-9扉体
6
CONTINUOUS
62
2
100
AcDbLine
10
1257.720000000000
20
2220.822000000000
30
0.0
11
1246.820000000000
21
2220.822000000000
31
0.0
0
LINE
5
779
100
AcDbEntity
8
0-9扉体
6
CONTINUOUS
62
2
100
AcDbLine
10
1235.220000000000
20
2220.822000000000
30
0.0
11
1233.220000000000
21
2220.822000000000
31
0.0
0
LINE
5
77a
100
AcDbEntity
8
0-9扉体
6
CONTINUOUS
62
2
100
AcDbLine
10
1235.220000000000
20
2236.822000000000
30
0.0
11
1233.220000000000
21
2236.822000000000
31
0.0
0
LINE
5
77b
100
AcDbEntity
8
0-9扉体
6
CONTINUOUS
62
2
100
AcDbLine
10
1181.620000000000
20
2244.822000000000
30
0.0
11
1184.220000000000
21
2244.822000000000
31
0.0
0
LINE
5
77c
100
AcDbEntity
8
0-9扉体
6
CONTINUOUS
62
2
100
AcDbLine
10
1181.620000000000
20
2212.822000000000
30
0.0
11
1184.220000000000
21
2212.822000000000
31
0.0
0
LINE
5
77d
100
AcDbEntity
8
0-9扉体
6
CONTINUOUS
62
2
100
AcDbLine
10
1244.220000000000
20
2246.322000000000
30
0.0
11
1235.220000000000
21
2246.322000000000
31
0.0
0
LINE
5
77e
100
AcDbEntity
8
0-9扉体
6
CONTINUOUS
62
2
100
AcDbLine
10
1244.220000000000
20
2211.322000000000
30
0.0
11
1235.220000000000
21
2211.322000000000
31
0.0
0
LINE
5
77f
100
AcDbEntity
8
0-9扉体
6
CONTINUOUS
62
2
100
AcDbLine
10
1254.720000000000
20
2214.307000000000
30
0.0
11
1264.220000000000
21
2219.791000000000
31
0.0
0
LINE
5
780
100
AcDbEntity
8
0-9扉体
6
CONTINUOUS
62
2
100
AcDbLine
10
1254.720000000000
20
2214.307000000000
30
0.0
11
1254.720000000000
21
2203.337000000000
31
0.0
0
LINE
5
781
100
AcDbEntity
8
0-9扉体
6
CONTINUOUS
62
2
100
AcDbLine
10
1264.220000000000
20
2197.852000000000
30
0.0
11
1254.720000000000
21
2203.337000000000
31
0.0
0
POLYLINE
5
782
100
AcDbEntity
8
0-9扉体
6
CONTINUOUS
62
  2
100
AcDb2dPolyline
66
1
10
0.0
20
0.0
30
0.0
70
0
0
VERTEX
5
783
100
AcDbEntity
8
0-9扉体
6
CONTINUOUS
62
  2
100
AcDbVertex
100
AcDb2dVertex
10
1264.220000000000
20
2197.852000000000
30
0.0
0
VERTEX
5
784
100
AcDbEntity
8
0-9扉体
6
CONTINUOUS
62
  2
100
AcDbVertex
100
AcDb2dVertex
10
1273.720000000000
20
2203.337000000000
30
0.0
0
VERTEX
5
785
100
AcDbEntity
8
0-9扉体
6
CONTINUOUS
62
  2
100
AcDbVertex
100
AcDb2dVertex
10
1273.720000000000
20
2214.307000000000
30
0.0
0
VERTEX
5
786
100
AcDbEntity
8
0-9扉体
6
CONTINUOUS
62
  2
100
AcDbVertex
100
AcDb2dVertex
10
1264.220000000000
20
2219.791000000000
30
0.0
0
SEQEND
5
787
100
AcDbEntity
8
0-9扉体
0
LINE
5
788
100
AcDbEntity
8
0-5基準線
6
CENTER2
62
7
100
AcDbLine
10
1264.220000000000
20
2222.822000000000
30
0.0
11
1264.220000000000
21
2194.822000000000
31
0.0
0
LINE
5
789
100
AcDbEntity
8
0-5基準線
6
CENTER2
62
7
100
AcDbLine
10
1250.220000000000
20
2208.822000000000
30
0.0
11
1278.220000000000
21
2208.822000000000
31
0.0
0
LINE
5
78a
100
AcDbEntity
8
0-9扉体
6
CONTINUOUS
62
2
100
AcDbLine
10
1184.220000000000
20
2189.822000000000
30
0.0
11
1184.220000000000
21
2246.322000000000
31
0.0
0
LINE
5
78b
100
AcDbEntity
8
0-9扉体
6
CONTINUOUS
62
2
100
AcDbLine
10
1193.220000000000
20
2189.822000000000
30
0.0
11
1193.220000000000
21
2246.322000000000
31
0.0
0
LINE
5
78c
100
AcDbEntity
8
0-9扉体
6
CONTINUOUS
62
2
100
AcDbLine
10
1235.220000000000
20
2189.822000000000
30
0.0
11
1235.220000000000
21
2246.322000000000
31
0.0
0
LINE
5
78d
100
AcDbEntity
8
0-9扉体
6
CONTINUOUS
62
2
100
AcDbLine
10
1244.220000000000
20
2189.822000000000
30
0.0
11
1244.220000000000
21
2246.322000000000
31
0.0
0
LINE
5
78e
100
AcDbEntity
8
0-9扉体
6
CONTINUOUS
62
2
100
AcDbLine
10
1170.720000000000
20
2236.822000000000
30
0.0
11
1170.720000000000
21
2220.822000000000
31
0.0
0
LINE
5
78f
100
AcDbEntity
8
0-9扉体
6
CONTINUOUS
62
2
100
AcDbLine
10
1170.720000000000
20
2236.822000000000
30
0.0
11
1181.620000000000
21
2236.822000000000
31
0.0
0
LINE
5
790
100
AcDbEntity
8
0-9扉体
6
CONTINUOUS
62
2
100
AcDbLine
10
1257.720000000000
20
2236.822000000000
30
0.0
11
1246.820000000000
21
2236.822000000000
31
0.0
0
LINE
5
791
100
AcDbEntity
8
0-9扉体
6
CONTINUOUS
62
2
100
AcDbLine
10
1257.720000000000
20
2236.822000000000
30
0.0
11
1257.720000000000
21
2220.822000000000
31
0.0
0
LINE
5
792
100
AcDbEntity
8
0-9扉体
6
CONTINUOUS
62
2
100
AcDbLine
10
1284.220000000000
20
2227.822000000000
30
0.0
11
1257.720000000000
21
2227.822000000000
31
0.0
0
LINE
5
793
100
AcDbEntity
8
0-9扉体
6
CONTINUOUS
62
2
100
AcDbLine
10
1298.772000000000
20
2238.822000000000
30
0.0
11
1299.220000000000
21
2239.270000000000
31
0.0
0
LINE
5
794
100
AcDbEntity
8
0-9扉体
6
CONTINUOUS
62
3
100
AcDbLine
10
1109.220000000000
20
2184.822000000000
30
0.0
11
1109.220000000000
21
2232.822000000000
31
0.0
0
LINE
5
795
100
AcDbEntity
8
0-9扉体
6
CONTINUOUS
62
3
100
AcDbLine
10
1109.220000000000
20
2184.822000000000
30
0.0
11
1489.220000000000
21
2184.822000000000
31
0.0
0
LINE
5
796
100
AcDbEntity
8
0-9扉体
6
CONTINUOUS
62
3
100
AcDbLine
10
1104.220000000000
20
2232.822000000000
30
0.0
11
1104.220000000000
21
2238.822000000000
31
0.0
0
LINE
5
797
100
AcDbEntity
8
0-9扉体
6
CONTINUOUS
62
3
100
AcDbLine
10
1257.720000000000
20
2232.822000000000
30
0.0
11
1494.220000000000
21
2232.822000000000
31
0.0
0
LINE
5
798
100
AcDbEntity
8
0-9扉体
6
CONTINUOUS
62
3
100
AcDbLine
10
1429.720000000000
20
2190.822000000000
30
0.0
11
1477.220000000000
21
2190.822000000000
31
0.0
0
LINE
5
799
100
AcDbEntity
8
0-9扉体
6
CONTINUOUS
62
3
100
AcDbLine
10
1429.220000000000
20
2190.322000000000
30
0.0
11
1429.220000000000
21
2184.822000000000
31
0.0
0
LINE
5
79a
100
AcDbEntity
8
0-9扉体
6
CONTINUOUS
62
3
100
AcDbLine
10
1483.220000000000
20
2196.822000000000
30
0.0
11
1483.220000000000
21
2232.822000000000
31
0.0
0
LINE
5
79b
100
AcDbEntity
8
0-9扉体
6
CONTINUOUS
62
3
100
AcDbLine
10
1489.220000000000
20
2184.822000000000
30
0.0
11
1489.220000000000
21
2232.822000000000
31
0.0
0
LINE
5
79c
100
AcDbEntity
8
0-9扉体
6
CONTINUOUS
62
3
100
AcDbLine
10
1494.220000000000
20
2232.822000000000
30
0.0
11
1494.220000000000
21
2238.822000000000
31
0.0
0
LINE
5
79d
100
AcDbEntity
8
0-9扉体
6
CONTINUOUS
62
3
100
AcDbLine
10
1246.820000000000
20
2238.822000000000
30
0.0
11
1494.220000000000
21
2238.822000000000
31
0.0
0
LINE
5
79e
100
AcDbEntity
8
0-9扉体
6
CONTINUOUS
62
2
100
AcDbLine
10
1290.045000000000
20
2238.822000000000
30
0.0
11
1299.220000000000
21
2247.997000000000
31
0.0
0
LINE
5
79f
100
AcDbEntity
8
0-9扉体
6
CONTINUOUS
62
2
100
AcDbLine
10
1260.346000000000
20
2238.822000000000
30
0.0
11
1276.346000000000
21
2254.822000000000
31
0.0
0
LINE
5
7a0
100
AcDbEntity
8
0-9扉体
6
CONTINUOUS
62
2
100
AcDbLine
10
1288.630000000000
20
2238.822000000000
30
0.0
11
1299.220000000000
21
2249.412000000000
31
0.0
0
LINE
5
7a1
100
AcDbEntity
8
0-9扉体
6
CONTINUOUS
62
2
100
AcDbLine
10
1275.902000000000
20
2238.822000000000
30
0.0
11
1291.903000000000
21
2254.822000000000
31
0.0
0
LINE
5
7a2
100
AcDbEntity
8
0-9扉体
6
CONTINUOUS
62
2
100
AcDbLine
10
1274.488000000000
20
2238.822000000000
30
0.0
11
1290.488000000000
21
2254.822000000000
31
0.0
0
LINE
5
7a3
100
AcDbEntity
8
0-9扉体
6
CONTINUOUS
62
2
100
AcDbLine
10
1261.760000000000
20
2238.822000000000
30
0.0
11
1277.760000000000
21
2254.822000000000
31
0.0
0
LINE
5
7a4
100
AcDbEntity
8
0-9扉体
6
CONTINUOUS
62
2
100
AcDbLine
10
1175.493000000000
20
2238.822000000000
30
0.0
11
1191.493000000000
21
2254.822000000000
31
0.0
0
LINE
5
7a5
100
AcDbEntity
8
0-9扉体
6
CONTINUOUS
62
2
100
AcDbLine
10
1162.765000000000
20
2238.822000000000
30
0.0
11
1178.765000000000
21
2254.822000000000
31
0.0
0
LINE
5
7a6
100
AcDbEntity
8
0-9扉体
6
CONTINUOUS
62
2
100
AcDbLine
10
1161.351000000000
20
2238.822000000000
30
0.0
11
1177.351000000000
21
2254.822000000000
31
0.0
0
LINE
5
7a7
100
AcDbEntity
8
0-9扉体
6
CONTINUOUS
62
2
100
AcDbLine
10
1133.066000000000
20
2238.822000000000
30
0.0
11
1139.720000000000
21
2245.476000000000
31
0.0
0
LINE
5
7a8
100
AcDbEntity
8
0-9扉体
6
CONTINUOUS
62
2
100
AcDbLine
10
1134.481000000000
20
2238.822000000000
30
0.0
11
1139.720000000000
21
2244.061000000000
31
0.0
0
LINE
5
7a9
100
AcDbEntity
8
0-9扉体
6
CONTINUOUS
62
2
100
AcDbLine
10
1118.924000000000
20
2238.822000000000
30
0.0
11
1134.924000000000
21
2254.822000000000
31
0.0
0
LINE
5
7aa
100
AcDbEntity
8
0-9扉体
6
CONTINUOUS
62
3
100
AcDbLine
10
1454.881000000000
20
2238.822000000000
30
0.0
11
1453.220000000000
21
2240.483000000000
31
0.0
0
LINE
5
7ab
100
AcDbEntity
8
0-9扉体
6
CONTINUOUS
62
3
100
AcDbLine
10
1445.220000000000
20
2241.412000000000
30
0.0
11
1441.810000000000
21
2244.822000000000
31
0.0
0
LINE
5
7ac
100
AcDbEntity
8
0-9扉体
6
CONTINUOUS
62
3
100
AcDbLine
10
1453.220000000000
20
2244.822000000000
30
0.0
11
1453.220000000000
21
2238.822000000000
31
0.0
0
LINE
5
7ad
100
AcDbEntity
8
0-9扉体
6
CONTINUOUS
62
3
100
AcDbLine
10
1445.220000000000
20
2244.822000000000
30
0.0
11
1445.220000000000
21
2238.822000000000
31
0.0
0
LINE
5
7ae
100
AcDbEntity
8
0-9扉体
6
CONTINUOUS
62
3
100
AcDbLine
10
1478.420000000000
20
2250.638000000000
30
0.0
11
1474.658000000000
21
2254.400000000000
31
0.0
0
LINE
5
7af
100
AcDbEntity
8
0-9扉体
6
CONTINUOUS
62
3
100
AcDbLine
10
1484.799000000000
20
2244.259000000000
30
0.0
11
1481.036000000000
21
2248.022000000000
31
0.0
0
LINE
5
7b0
100
AcDbEntity
8
0-9扉体
6
CONTINUOUS
62
3
100
AcDbLine
10
1473.557000000000
20
2248.430000000000
30
0.0
11
1470.630000000000
21
2251.357000000000
31
0.0
0
LINE
5
7b1
100
AcDbEntity
8
0-9扉体
6
CONTINUOUS
62
3
100
AcDbLine
10
1481.755000000000
20
2240.232000000000
30
0.0
11
1478.828000000000
21
2243.159000000000
31
0.0
0
LINE
5
7b2
100
AcDbEntity
8
0-9扉体
6
CONTINUOUS
62
3
100
AcDbLine
10
1476.094000000000
20
2238.822000000000
30
0.0
11
1469.314000000000
21
2245.602000000000
31
0.0
0
LINE
5
7b3
100
AcDbEntity
8
0-9扉体
6
CONTINUOUS
62
3
100
AcDbLine
10
1469.023000000000
20
2238.822000000000
30
0.0
11
1463.023000000000
21
2244.822000000000
31
0.0
0
LINE
5
7b4
100
AcDbEntity
8
0-9扉体
6
CONTINUOUS
62
3
100
AcDbLine
10
1461.952000000000
20
2238.822000000000
30
0.0
11
1455.952000000000
21
2244.822000000000
31
0.0
0
LINE
5
7b5
100
AcDbEntity
8
0-9扉体
6
CONTINUOUS
62
3
100
AcDbLine
10
1440.739000000000
20
2238.822000000000
30
0.0
11
1434.739000000000
21
2244.822000000000
31
0.0
0
LINE
5
7b6
100
AcDbEntity
8
0-9扉体
6
CONTINUOUS
62
3
100
AcDbLine
10
1434.220000000000
20
2244.822000000000
30
0.0
11
1434.220000000000
21
2238.822000000000
31
0.0
0
LINE
5
7b7
100
AcDbEntity
8
0-9扉体
6
CONTINUOUS
62
3
100
AcDbLine
10
1477.220000000000
20
2238.822000000000
30
0.0
11
1434.220000000000
21
2238.822000000000
31
0.0
0
LINE
5
7b8
100
AcDbEntity
8
0-9扉体
6
DOT
62
3
100
AcDbLine
10
1445.220000000000
20
2246.822000000000
30
0.0
11
1441.220000000000
21
2250.823000000000
31
0.0
0
LINE
5
7b9
100
AcDbEntity
8
0-9扉体
6
DOT
62
3
100
AcDbLine
10
1453.220000000000
20
2246.822000000000
30
0.0
11
1457.220000000000
21
2250.823000000000
31
0.0
0
LINE
5
7ba
100
AcDbEntity
8
0-9扉体
6
DOT
62
3
100
AcDbLine
10
1445.220000000000
20
2246.822000000000
30
0.0
11
1453.220000000000
21
2246.822000000000
31
0.0
0
LINE
5
7bb
100
AcDbEntity
8
0-9扉体
6
CONTINUOUS
62
3
100
AcDbLine
10
1465.220000000000
20
2244.822000000000
30
0.0
11
1465.220000000000
21
2250.823000000000
31
0.0
0
LINE
5
7bc
100
AcDbEntity
8
0-9扉体
6
CONTINUOUS
62
3
100
AcDbLine
10
1433.220000000000
20
2250.823000000000
30
0.0
11
1465.220000000000
21
2250.823000000000
31
0.0
0
LINE
5
7bd
100
AcDbEntity
8
0-9扉体
6
CONTINUOUS
62
3
100
AcDbLine
10
1433.220000000000
20
2244.822000000000
30
0.0
11
1433.220000000000
21
2250.823000000000
31
0.0
0
LINE
5
7be
100
AcDbEntity
8
0-9扉体
6
CONTINUOUS
62
3
100
AcDbLine
10
1469.474000000000
20
2244.822000000000
30
0.0
11
1433.220000000000
21
2244.822000000000
31
0.0
0
LINE
5
7bf
100
AcDbEntity
8
0-9扉体
6
DOT
62
3
100
AcDbLine
10
1453.220000000000
20
2232.822000000000
30
0.0
11
1453.220000000000
21
2246.822000000000
31
0.0
0
LINE
5
7c0
100
AcDbEntity
8
0-9扉体
6
DOT
62
3
100
AcDbLine
10
1445.220000000000
20
2232.822000000000
30
0.0
11
1445.220000000000
21
2246.822000000000
31
0.0
0
LINE
5
7c1
100
AcDbEntity
8
0-9扉体
6
CONTINUOUS
62
3
100
AcDbLine
10
1440.220000000000
20
2231.222000000000
30
0.0
11
1440.220000000000
21
2232.822000000000
31
0.0
0
LINE
5
7c2
100
AcDbEntity
8
0-9扉体
6
CONTINUOUS
62
3
100
AcDbLine
10
1458.220000000000
20
2231.222000000000
30
0.0
11
1458.220000000000
21
2232.822000000000
31
0.0
0
LINE
5
7c3
100
AcDbEntity
8
0-9扉体
6
CONTINUOUS
62
3
100
AcDbLine
10
1445.220000000000
20
2222.821000000000
30
0.0
11
1453.220000000000
21
2222.821000000000
31
0.0
0
LINE
5
7c4
100
AcDbEntity
8
0-9扉体
6
CONTINUOUS
62
3
100
AcDbLine
10
1458.220000000000
20
2231.222000000000
30
0.0
11
1440.220000000000
21
2231.222000000000
31
0.0
0
LINE
5
7c5
100
AcDbEntity
8
0-9扉体
6
CONTINUOUS
62
3
100
AcDbLine
10
1442.720000000000
20
2224.722000000000
30
0.0
11
1441.715000000000
21
2225.303000000000
31
0.0
0
LINE
5
7c6
100
AcDbEntity
8
0-9扉体
6
CONTINUOUS
62
3
100
AcDbLine
10
1455.720000000000
20
2224.722000000000
30
0.0
11
1456.725000000000
21
2225.303000000000
31
0.0
0
LINE
5
7c7
100
AcDbEntity
8
0-9扉体
6
CONTINUOUS
62
3
100
AcDbLine
10
1442.720000000000
20
2224.722000000000
30
0.0
11
1455.720000000000
21
2224.722000000000
31
0.0
0
LINE
5
7c8
100
AcDbEntity
8
0-9扉体
6
CONTINUOUS
62
3
100
AcDbLine
10
1456.725000000000
20
2231.222000000000
30
0.0
11
1456.725000000000
21
2225.303000000000
31
0.0
0
LINE
5
7c9
100
AcDbEntity
8
0-9扉体
6
CONTINUOUS
62
3
100
AcDbLine
10
1441.715000000000
20
2231.222000000000
30
0.0
11
1441.715000000000
21
2225.303000000000
31
0.0
0
LINE
5
7ca
100
AcDbEntity
8
0-9扉体
6
CONTINUOUS
62
3
100
AcDbLine
10
1453.220000000000
20
2224.722000000000
30
0.0
11
1453.220000000000
21
2222.821000000000
31
0.0
0
LINE
5
7cb
100
AcDbEntity
8
0-9扉体
6
CONTINUOUS
62
3
100
AcDbLine
10
1445.220000000000
20
2224.722000000000
30
0.0
11
1445.220000000000
21
2222.821000000000
31
0.0
0
LINE
5
7cc
100
AcDbEntity
8
0-9扉体
6
CONTINUOUS
62
3
100
AcDbLine
10
1445.467000000000
20
2231.222000000000
30
0.0
11
1445.467000000000
21
2225.302000000000
31
0.0
0
LINE
5
7cd
100
AcDbEntity
8
0-9扉体
6
CONTINUOUS
62
3
100
AcDbLine
10
1452.973000000000
20
2231.222000000000
30
0.0
11
1452.973000000000
21
2225.303000000000
31
0.0
0
LINE
5
7ce
100
AcDbEntity
8
0-9扉体
6
CONTINUOUS
62
3
100
AcDbLine
10
1452.220000000000
20
2224.722000000000
30
0.0
11
1452.220000000000
21
2222.821000000000
31
0.0
0
LINE
5
7cf
100
AcDbEntity
8
0-9扉体
6
CONTINUOUS
62
3
100
AcDbLine
10
1446.220000000000
20
2224.722000000000
30
0.0
11
1446.220000000000
21
2222.821000000000
31
0.0
0
LINE
5
7d0
100
AcDbEntity
8
0-9扉体
6
CONTINUOUS
62
3
100
AcDbLine
10
1440.220000000000
20
2232.822000000000
30
0.0
11
1458.220000000000
21
2232.822000000000
31
0.0
0
LINE
5
7d1
100
AcDbEntity
8
0-8寸法
6
CONTINUOUS
62
4
100
AcDbLine
10
1649.220000000000
20
2072.363000000000
30
0.0
11
1477.220000000000
21
2246.822000000000
31
0.0
0
LINE
5
7d2
100
AcDbEntity
8
0-6戸当り
6
CONTINUOUS
62
2
100
AcDbLine
10
1308.720000000000
20
1232.847000000000
30
0.0
11
1299.220000000000
21
1238.332000000000
31
0.0
0
LINE
5
7d3
100
AcDbEntity
8
0-6戸当り
6
CONTINUOUS
62
2
100
AcDbLine
10
1308.720000000000
20
1232.847000000000
30
0.0
11
1308.720000000000
21
1221.878000000000
31
0.0
0
LINE
5
7d4
100
AcDbEntity
8
0-6戸当り
6
CONTINUOUS
62
2
100
AcDbLine
10
1299.220000000000
20
1216.393000000000
30
0.0
11
1308.720000000000
21
1221.878000000000
31
0.0
0
POLYLINE
5
7d5
100
AcDbEntity
8
0-6戸当り
6
CONTINUOUS
62
  2
100
AcDb2dPolyline
66
1
10
0.0
20
0.0
30
0.0
70
0
0
VERTEX
5
7d6
100
AcDbEntity
8
0-6戸当り
6
CONTINUOUS
62
  2
100
AcDbVertex
100
AcDb2dVertex
10
1299.220000000000
20
1216.393000000000
30
0.0
0
VERTEX
5
7d7
100
AcDbEntity
8
0-6戸当り
6
CONTINUOUS
62
  2
100
AcDbVertex
100
AcDb2dVertex
10
1289.720000000000
20
1221.878000000000
30
0.0
0
VERTEX
5
7d8
100
AcDbEntity
8
0-6戸当り
6
CONTINUOUS
62
  2
100
AcDbVertex
100
AcDb2dVertex
10
1289.720000000000
20
1232.847000000000
30
0.0
0
VERTEX
5
7d9
100
AcDbEntity
8
0-6戸当り
6
CONTINUOUS
62
  2
100
AcDbVertex
100
AcDb2dVertex
10
1299.220000000000
20
1238.332000000000
30
0.0
0
SEQEND
5
7da
100
AcDbEntity
8
0-6戸当り
0
LINE
5
7db
100
AcDbEntity
8
0-5基準線
6
CENTER2
62
7
100
AcDbLine
10
1299.220000000000
20
1243.362000000000
30
0.0
11
1299.220000000000
21
1211.362000000000
31
0.0
0
LINE
5
7dc
100
AcDbEntity
8
0-5基準線
6
CENTER2
62
7
100
AcDbLine
10
1315.220000000000
20
1227.362000000000
30
0.0
11
1283.220000000000
21
1227.362000000000
31
0.0
0
LINE
5
7dd
100
AcDbEntity
8
0-6戸当り
6
CONTINUOUS
62
7
100
AcDbLine
10
2492.652000000000
20
1221.362000000000
30
0.0
11
2587.652000000000
21
1221.362000000000
31
0.0
0
LINE
5
7de
100
AcDbEntity
8
0-5基準線
6
CENTER2
62
7
100
AcDbLine
10
2454.706000000000
20
1227.362000000000
30
0.0
11
2602.667000000000
21
1227.362000000000
31
0.0
0
LINE
5
7df
100
AcDbEntity
8
0-6戸当り
6
CONTINUOUS
62
7
100
AcDbLine
10
2492.652000000000
20
1233.362000000000
30
0.0
11
2575.652000000000
21
1233.362000000000
31
0.0
0
LINE
5
7e0
100
AcDbEntity
8
0-6戸当り
6
CONTINUOUS
62
7
100
AcDbLine
10
2587.652000000000
20
1221.362000000000
30
0.0
11
2575.652000000000
21
1233.362000000000
31
0.0
0
LINE
5
7e1
100
AcDbEntity
8
0-6戸当り
6
CONTINUOUS
62
7
100
AcDbLine
10
2492.652000000000
20
1232.362000000000
30
0.0
11
2576.652000000000
21
1232.362000000000
31
0.0
0
LINE
5
7e2
100
AcDbEntity
8
0-6戸当り
6
CONTINUOUS
62
7
100
AcDbLine
10
2492.652000000000
20
1222.362000000000
30
0.0
11
2586.652000000000
21
1222.362000000000
31
0.0
0
LINE
5
7e3
100
AcDbEntity
8
0-6戸当り
6
CONTINUOUS
62
7
100
AcDbLine
10
1155.220000000000
20
2266.822000000000
30
0.0
11
1155.220000000000
21
2361.822000000000
31
0.0
0
LINE
5
7e4
100
AcDbEntity
8
0-6戸当り
6
CONTINUOUS
62
7
100
AcDbLine
10
1143.220000000000
20
2266.822000000000
30
0.0
11
1143.220000000000
21
2349.822000000000
31
0.0
0
LINE
5
7e5
100
AcDbEntity
8
0-6戸当り
6
CONTINUOUS
62
7
100
AcDbLine
10
1155.220000000000
20
2361.822000000000
30
0.0
11
1143.220000000000
21
2349.822000000000
31
0.0
0
LINE
5
7e6
100
AcDbEntity
8
0-6戸当り
6
CONTINUOUS
62
7
100
AcDbLine
10
1144.220000000000
20
2266.822000000000
30
0.0
11
1144.220000000000
21
2350.822000000000
31
0.0
0
LINE
5
7e7
100
AcDbEntity
8
0-6戸当り
6
CONTINUOUS
62
7
100
AcDbLine
10
1154.220000000000
20
2266.822000000000
30
0.0
11
1154.220000000000
21
2360.822000000000
31
0.0
0
ARC
5
7e8
100
AcDbEntity
8
0-9扉体
6
CONTINUOUS
62
2
100
AcDbCircle
10
1159.470000000000
20
1172.943000000000
30
0.0
40
13.720000000000
100
AcDbArc
50
69.744000000000
51
110.256000000000
0
ARC
5
7e9
100
AcDbEntity
8
0-9扉体
6
CONTINUOUS
62
2
100
AcDbCircle
10
1168.970000000000
20
1172.943000000000
30
0.0
40
13.720000000000
100
AcDbArc
50
69.744000000000
51
110.256000000000
0
CIRCLE
5
7ea
100
AcDbEntity
8
0-6戸当り
6
CONTINUOUS
62
2
100
AcDbCircle
10
1149.220000000000
20
1227.362000000000
30
0.0
40
9.500000000000
0
CIRCLE
5
7eb
100
AcDbEntity
8
0-6戸当り
6
CONTINUOUS
62
2
100
AcDbCircle
10
1149.220000000000
20
1227.362000000000
30
0.0
40
6.000000000000
0
CIRCLE
5
7ec
100
AcDbEntity
8
0-6戸当り
6
CONTINUOUS
62
2
100
AcDbCircle
10
1149.220000000000
20
1227.362000000000
30
0.0
40
5.000000000000
0
ARC
5
7ed
100
AcDbEntity
8
0-9扉体
6
CONTINUOUS
62
2
100
AcDbCircle
10
1268.970000000000
20
1172.943000000000
30
0.0
40
13.720000000000
100
AcDbArc
50
69.744000000000
51
110.256000000000
0
ARC
5
7ee
100
AcDbEntity
8
0-9扉体
6
CONTINUOUS
62
2
100
AcDbCircle
10
1259.470000000000
20
1172.943000000000
30
0.0
40
13.720000000000
100
AcDbArc
50
69.744000000000
51
110.256000000000
0
ARC
5
7ef
100
AcDbEntity
8
0-9扉体
6
CONTINUOUS
62
2
100
AcDbCircle
10
1438.970000000000
20
1172.943000000000
30
0.0
40
13.720000000000
100
AcDbArc
50
69.744000000000
51
110.256000000000
0
ARC
5
7f0
100
AcDbEntity
8
0-9扉体
6
CONTINUOUS
62
2
100
AcDbCircle
10
1429.470000000000
20
1172.943000000000
30
0.0
40
13.720000000000
100
AcDbArc
50
69.744000000000
51
110.256000000000
0
ARC
5
7f1
100
AcDbEntity
8
0-9扉体
6
CONTINUOUS
62
2
100
AcDbCircle
10
1329.470000000000
20
1172.943000000000
30
0.0
40
13.720000000000
100
AcDbArc
50
69.744000000000
51
110.256000000000
0
ARC
5
7f2
100
AcDbEntity
8
0-9扉体
6
CONTINUOUS
62
2
100
AcDbCircle
10
1338.970000000000
20
1172.943000000000
30
0.0
40
13.720000000000
100
AcDbArc
50
69.744000000000
51
110.256000000000
0
ARC
5
7f3
100
AcDbEntity
8
0-6戸当り
6
CONTINUOUS
62
2
100
AcDbCircle
10
2487.293000000000
20
742.362000000000
30
0.0
40
16.241000000000
100
AcDbArc
50
162.412000000000
51
197.588000000000
0
ARC
5
7f4
100
AcDbEntity
8
0-6戸当り
6
CONTINUOUS
62
2
100
AcDbCircle
10
2475.397000000000
20
749.723000000000
30
0.0
40
4.345000000000
100
AcDbArc
50
154.383000000000
51
214.383000000000
0
ARC
5
7f5
100
AcDbEntity
8
0-6戸当り
6
CONTINUOUS
62
2
100
AcDbCircle
10
2475.397000000000
20
735.001000000000
30
0.0
40
4.345000000000
100
AcDbArc
50
145.616000000000
51
205.616000000000
0
ARC
5
7f6
100
AcDbEntity
8
0-6戸当り
6
CONTINUOUS
62
2
100
AcDbCircle
10
2485.730000000000
20
742.362000000000
30
0.0
40
20.000000000000
100
AcDbArc
50
165.522000000000
51
194.478000000000
0
CIRCLE
5
7f7
100
AcDbEntity
8
0-6戸当り
6
CONTINUOUS
62
2
100
AcDbCircle
10
1529.220000000000
20
742.362000000000
30
0.0
40
11.000000000000
0
CIRCLE
5
7f8
100
AcDbEntity
8
0-6戸当り
6
CONTINUOUS
62
2
100
AcDbCircle
10
1529.220000000000
20
742.362000000000
30
0.0
40
5.000000000000
0
CIRCLE
5
7f9
100
AcDbEntity
8
0-6戸当り
6
CONTINUOUS
62
2
100
AcDbCircle
10
1529.220000000000
20
742.362000000000
30
0.0
40
4.000000000000
0
CIRCLE
5
7fa
100
AcDbEntity
8
0-6戸当り
6
CONTINUOUS
62
2
100
AcDbCircle
10
1529.220000000000
20
742.362000000000
30
0.0
40
8.487000000000
0
CIRCLE
5
7fb
100
AcDbEntity
8
0-6戸当り
6
CONTINUOUS
62
2
100
AcDbCircle
10
1379.220000000000
20
742.362000000000
30
0.0
40
11.000000000000
0
CIRCLE
5
7fc
100
AcDbEntity
8
0-6戸当り
6
CONTINUOUS
62
2
100
AcDbCircle
10
1379.220000000000
20
742.362000000000
30
0.0
40
5.000000000000
0
CIRCLE
5
7fd
100
AcDbEntity
8
0-6戸当り
6
CONTINUOUS
62
2
100
AcDbCircle
10
1379.220000000000
20
742.362000000000
30
0.0
40
4.000000000000
0
CIRCLE
5
7fe
100
AcDbEntity
8
0-6戸当り
6
CONTINUOUS
62
2
100
AcDbCircle
10
1379.220000000000
20
742.362000000000
30
0.0
40
8.487000000000
0
CIRCLE
5
7ff
100
AcDbEntity
8
0-6戸当り
6
CONTINUOUS
62
2
100
AcDbCircle
10
1069.220000000000
20
742.362000000000
30
0.0
40
11.000000000000
0
CIRCLE
5
800
100
AcDbEntity
8
0-6戸当り
6
CONTINUOUS
62
2
100
AcDbCircle
10
1069.220000000000
20
742.362000000000
30
0.0
40
5.000000000000
0
CIRCLE
5
801
100
AcDbEntity
8
0-6戸当り
6
CONTINUOUS
62
2
100
AcDbCircle
10
1069.220000000000
20
742.362000000000
30
0.0
40
4.000000000000
0
CIRCLE
5
802
100
AcDbEntity
8
0-6戸当り
6
CONTINUOUS
62
2
100
AcDbCircle
10
1069.220000000000
20
742.362000000000
30
0.0
40
8.487000000000
0
CIRCLE
5
803
100
AcDbEntity
8
0-6戸当り
6
CONTINUOUS
62
2
100
AcDbCircle
10
1219.220000000000
20
742.362000000000
30
0.0
40
11.000000000000
0
CIRCLE
5
804
100
AcDbEntity
8
0-6戸当り
6
CONTINUOUS
62
2
100
AcDbCircle
10
1219.220000000000
20
742.362000000000
30
0.0
40
5.000000000000
0
CIRCLE
5
805
100
AcDbEntity
8
0-6戸当り
6
CONTINUOUS
62
2
100
AcDbCircle
10
1219.220000000000
20
742.362000000000
30
0.0
40
4.000000000000
0
CIRCLE
5
806
100
AcDbEntity
8
0-6戸当り
6
CONTINUOUS
62
2
100
AcDbCircle
10
1219.220000000000
20
742.362000000000
30
0.0
40
8.487000000000
0
CIRCLE
5
807
100
AcDbEntity
8
0-6戸当り
6
CONTINUOUS
62
2
100
AcDbCircle
10
1529.220000000000
20
1227.362000000000
30
0.0
40
11.000000000000
0
CIRCLE
5
808
100
AcDbEntity
8
0-6戸当り
6
CONTINUOUS
62
2
100
AcDbCircle
10
1529.220000000000
20
1227.362000000000
30
0.0
40
5.000000000000
0
CIRCLE
5
809
100
AcDbEntity
8
0-6戸当り
6
CONTINUOUS
62
2
100
AcDbCircle
10
1529.220000000000
20
1227.362000000000
30
0.0
40
4.000000000000
0
CIRCLE
5
80a
100
AcDbEntity
8
0-6戸当り
6
CONTINUOUS
62
2
100
AcDbCircle
10
1529.220000000000
20
1227.362000000000
30
0.0
40
8.487000000000
0
CIRCLE
5
80b
100
AcDbEntity
8
0-6戸当り
6
CONTINUOUS
62
2
100
AcDbCircle
10
1529.220000000000
20
1067.362000000000
30
0.0
40
11.000000000000
0
CIRCLE
5
80c
100
AcDbEntity
8
0-6戸当り
6
CONTINUOUS
62
2
100
AcDbCircle
10
1529.220000000000
20
1067.362000000000
30
0.0
40
5.000000000000
0
CIRCLE
5
80d
100
AcDbEntity
8
0-6戸当り
6
CONTINUOUS
62
2
100
AcDbCircle
10
1529.220000000000
20
1067.362000000000
30
0.0
40
4.000000000000
0
CIRCLE
5
80e
100
AcDbEntity
8
0-6戸当り
6
CONTINUOUS
62
2
100
AcDbCircle
10
1529.220000000000
20
1067.362000000000
30
0.0
40
8.487000000000
0
CIRCLE
5
80f
100
AcDbEntity
8
0-6戸当り
6
CONTINUOUS
62
2
100
AcDbCircle
10
1529.220000000000
20
902.362000000000
30
0.0
40
11.000000000000
0
CIRCLE
5
810
100
AcDbEntity
8
0-6戸当り
6
CONTINUOUS
62
2
100
AcDbCircle
10
1529.220000000000
20
902.362000000000
30
0.0
40
5.000000000000
0
CIRCLE
5
811
100
AcDbEntity
8
0-6戸当り
6
CONTINUOUS
62
2
100
AcDbCircle
10
1529.220000000000
20
902.362000000000
30
0.0
40
4.000000000000
0
CIRCLE
5
812
100
AcDbEntity
8
0-6戸当り
6
CONTINUOUS
62
2
100
AcDbCircle
10
1529.220000000000
20
902.362000000000
30
0.0
40
8.487000000000
0
CIRCLE
5
813
100
AcDbEntity
8
0-6戸当り
6
CONTINUOUS
62
2
100
AcDbCircle
10
1069.220000000000
20
1227.362000000000
30
0.0
40
11.000000000000
0
CIRCLE
5
814
100
AcDbEntity
8
0-6戸当り
6
CONTINUOUS
62
2
100
AcDbCircle
10
1069.220000000000
20
1227.362000000000
30
0.0
40
5.000000000000
0
CIRCLE
5
815
100
AcDbEntity
8
0-6戸当り
6
CONTINUOUS
62
2
100
AcDbCircle
10
1069.220000000000
20
1227.362000000000
30
0.0
40
4.000000000000
0
CIRCLE
5
816
100
AcDbEntity
8
0-6戸当り
6
CONTINUOUS
62
2
100
AcDbCircle
10
1069.220000000000
20
1227.362000000000
30
0.0
40
8.487000000000
0
CIRCLE
5
817
100
AcDbEntity
8
0-6戸当り
6
CONTINUOUS
62
2
100
AcDbCircle
10
1069.220000000000
20
1067.362000000000
30
0.0
40
11.000000000000
0
CIRCLE
5
818
100
AcDbEntity
8
0-6戸当り
6
CONTINUOUS
62
2
100
AcDbCircle
10
1069.220000000000
20
1067.362000000000
30
0.0
40
5.000000000000
0
CIRCLE
5
819
100
AcDbEntity
8
0-6戸当り
6
CONTINUOUS
62
2
100
AcDbCircle
10
1069.220000000000
20
1067.362000000000
30
0.0
40
4.000000000000
0
CIRCLE
5
81a
100
AcDbEntity
8
0-6戸当り
6
CONTINUOUS
62
2
100
AcDbCircle
10
1069.220000000000
20
1067.362000000000
30
0.0
40
8.487000000000
0
CIRCLE
5
81b
100
AcDbEntity
8
0-6戸当り
6
CONTINUOUS
62
2
100
AcDbCircle
10
1069.220000000000
20
902.362000000000
30
0.0
40
11.000000000000
0
CIRCLE
5
81c
100
AcDbEntity
8
0-6戸当り
6
CONTINUOUS
62
2
100
AcDbCircle
10
1069.220000000000
20
902.362000000000
30
0.0
40
5.000000000000
0
CIRCLE
5
81d
100
AcDbEntity
8
0-6戸当り
6
CONTINUOUS
62
2
100
AcDbCircle
10
1069.220000000000
20
902.362000000000
30
0.0
40
4.000000000000
0
CIRCLE
5
81e
100
AcDbEntity
8
0-6戸当り
6
CONTINUOUS
62
2
100
AcDbCircle
10
1069.220000000000
20
902.362000000000
30
0.0
40
8.487000000000
0
CIRCLE
5
81f
100
AcDbEntity
8
0-6戸当り
6
CONTINUOUS
62
2
100
AcDbCircle
10
1149.220000000000
20
1227.362000000000
30
0.0
40
13.000000000000
0
CIRCLE
5
820
100
AcDbEntity
8
0-6戸当り
6
CONTINUOUS
62
2
100
AcDbCircle
10
1449.220000000000
20
1227.362000000000
30
0.0
40
9.500000000000
0
CIRCLE
5
821
100
AcDbEntity
8
0-6戸当り
6
CONTINUOUS
62
2
100
AcDbCircle
10
1449.220000000000
20
1227.362000000000
30
0.0
40
6.000000000000
0
CIRCLE
5
822
100
AcDbEntity
8
0-6戸当り
6
CONTINUOUS
62
2
100
AcDbCircle
10
1449.220000000000
20
1227.362000000000
30
0.0
40
5.000000000000
0
CIRCLE
5
823
100
AcDbEntity
8
0-6戸当り
6
CONTINUOUS
62
2
100
AcDbCircle
10
1449.220000000000
20
1227.362000000000
30
0.0
40
13.000000000000
0
ARC
5
824
100
AcDbEntity
8
0-6戸当り
6
CONTINUOUS
62
2
100
AcDbCircle
10
1529.220000000000
20
2261.463000000000
30
0.0
40
16.241000000000
100
AcDbArc
50
252.412000000000
51
287.588000000000
0
ARC
5
825
100
AcDbEntity
8
0-6戸当り
6
CONTINUOUS
62
2
100
AcDbCircle
10
1521.859000000000
20
2249.567000000000
30
0.0
40
4.345000000000
100
AcDbArc
50
244.383000000000
51
304.383000000000
0
ARC
5
826
100
AcDbEntity
8
0-6戸当り
6
CONTINUOUS
62
2
100
AcDbCircle
10
1536.581000000000
20
2249.567000000000
30
0.0
40
4.345000000000
100
AcDbArc
50
235.616000000000
51
295.616000000000
0
ARC
5
827
100
AcDbEntity
8
0-6戸当り
6
CONTINUOUS
62
2
100
AcDbCircle
10
1529.220000000000
20
2259.900000000000
30
0.0
40
20.000000000000
100
AcDbArc
50
255.522000000000
51
284.478000000000
0
ARC
5
828
100
AcDbEntity
8
0-6戸当り
6
CONTINUOUS
62
2
100
AcDbCircle
10
1069.220000000000
20
2261.463000000000
30
0.0
40
16.241000000000
100
AcDbArc
50
252.412000000000
51
287.588000000000
0
ARC
5
829
100
AcDbEntity
8
0-6戸当り
6
CONTINUOUS
62
2
100
AcDbCircle
10
1076.581000000000
20
2249.567000000000
30
0.0
40
4.345000000000
100
AcDbArc
50
235.617000000000
51
295.617000000000
0
ARC
5
82a
100
AcDbEntity
8
0-6戸当り
6
CONTINUOUS
62
2
100
AcDbCircle
10
1061.859000000000
20
2249.567000000000
30
0.0
40
4.345000000000
100
AcDbArc
50
244.384000000000
51
304.384000000000
0
ARC
5
82b
100
AcDbEntity
8
0-6戸当り
6
CONTINUOUS
62
2
100
AcDbCircle
10
1069.220000000000
20
2259.900000000000
30
0.0
40
20.000000000000
100
AcDbArc
50
255.522000000000
51
284.478000000000
0
ARC
5
82c
100
AcDbEntity
8
0-9扉体
6
CONTINUOUS
62
2
100
AcDbCircle
10
2416.152000000000
20
1102.862000000000
30
0.0
40
0.500000000000
100
AcDbArc
50
270.000000000000
51
360.000000000000
0
CIRCLE
5
82d
100
AcDbEntity
8
0-9扉体
6
CONTINUOUS
62
2
100
AcDbCircle
10
2454.652000000000
20
1212.362000000000
30
0.0
40
8.000000000000
0
ARC
5
82e
100
AcDbEntity
8
0-9扉体
6
CONTINUOUS
62
2
100
AcDbCircle
10
2434.652000000000
20
1168.511000000000
30
0.0
40
18.152000000000
100
AcDbArc
50
72.412000000000
51
107.588000000000
0
ARC
5
82f
100
AcDbEntity
8
0-9扉体
6
CONTINUOUS
62
2
100
AcDbCircle
10
2442.879000000000
20
1181.806000000000
30
0.0
40
4.856000000000
100
AcDbArc
50
64.384000000000
51
124.384000000000
0
ARC
5
830
100
AcDbEntity
8
0-9扉体
6
CONTINUOUS
62
2
100
AcDbCircle
10
2426.425000000000
20
1181.806000000000
30
0.0
40
4.856000000000
100
AcDbArc
50
55.616000000000
51
115.616000000000
0
ARC
5
831
100
AcDbEntity
8
0-9扉体
6
CONTINUOUS
62
2
100
AcDbCircle
10
2434.652000000000
20
1166.514000000000
30
0.0
40
18.152000000000
100
AcDbArc
50
252.412000000000
51
287.588000000000
0
ARC
5
832
100
AcDbEntity
8
0-9扉体
6
CONTINUOUS
62
2
100
AcDbCircle
10
2426.425000000000
20
1153.219000000000
30
0.0
40
4.856000000000
100
AcDbArc
50
244.384000000000
51
304.384000000000
0
ARC
5
833
100
AcDbEntity
8
0-9扉体
6
CONTINUOUS
62
2
100
AcDbCircle
10
2442.879000000000
20
1153.219000000000
30
0.0
40
4.856000000000
100
AcDbArc
50
235.616000000000
51
295.616000000000
0
ARC
5
834
100
AcDbEntity
8
0-6戸当り
6
CONTINUOUS
62
2
100
AcDbCircle
10
2432.652000000000
20
1213.362000000000
30
0.0
40
17.000000000000
100
AcDbArc
50
90.040000000000
51
241.704000000000
0
CIRCLE
5
835
100
AcDbEntity
8
0-9扉体
6
CONTINUOUS
62
3
100
AcDbCircle
10
2472.652000000000
20
794.362000000000
30
0.0
40
4.000000000000
0
ARC
5
836
100
AcDbEntity
8
0-9扉体
6
CONTINUOUS
62
3
100
AcDbCircle
10
2472.652000000000
20
794.362000000000
30
0.0
40
8.000000000000
100
AcDbArc
50
180.000000000000
51
464.478000000000
0
ARC
5
837
100
AcDbEntity
8
0-9扉体
6
CONTINUOUS
62
3
100
AcDbCircle
10
2462.971000000000
20
822.362000000000
30
0.0
40
12.419000000000
100
AcDbArc
50
162.412000000000
51
197.588000000000
0
ARC
5
838
100
AcDbEntity
8
0-9扉体
6
CONTINUOUS
62
3
100
AcDbCircle
10
2453.875000000000
20
827.992000000000
30
0.0
40
3.323000000000
100
AcDbArc
50
154.386000000000
51
214.385000000000
0
ARC
5
839
100
AcDbEntity
8
0-9扉体
6
CONTINUOUS
62
3
100
AcDbCircle
10
2453.875000000000
20
816.734000000000
30
0.0
40
3.323000000000
100
AcDbArc
50
145.615000000000
51
205.614000000000
0
CIRCLE
5
83a
100
AcDbEntity
8
0-9扉体
6
CONTINUOUS
62
3
100
AcDbCircle
10
2472.652000000000
20
1150.362000000000
30
0.0
40
4.000000000000
0
ARC
5
83b
100
AcDbEntity
8
0-9扉体
6
CONTINUOUS
62
3
100
AcDbCircle
10
2472.652000000000
20
1150.362000000000
30
0.0
40
8.000000000000
100
AcDbArc
50
255.522000000000
51
540.000000000000
0
ARC
5
83c
100
AcDbEntity
8
0-9扉体
6
CONTINUOUS
62
3
100
AcDbCircle
10
2462.971000000000
20
1122.362000000000
30
0.0
40
12.419000000000
100
AcDbArc
50
162.412000000000
51
197.588000000000
0
ARC
5
83d
100
AcDbEntity
8
0-9扉体
6
CONTINUOUS
62
3
100
AcDbCircle
10
2453.875000000000
20
1116.733000000000
30
0.0
40
3.323000000000
100
AcDbArc
50
145.615000000000
51
205.614000000000
0
ARC
5
83e
100
AcDbEntity
8
0-9扉体
6
CONTINUOUS
62
3
100
AcDbCircle
10
2453.875000000000
20
1127.991000000000
30
0.0
40
3.323000000000
100
AcDbArc
50
154.386000000000
51
214.385000000000
0
ARC
5
83f
100
AcDbEntity
8
0-9扉体
6
CONTINUOUS
62
3
100
AcDbCircle
10
2422.652000000000
20
794.363000000000
30
0.0
40
6.000000000000
100
AcDbArc
50
180.000000000000
51
270.000000000000
0
ARC
5
840
100
AcDbEntity
8
0-9扉体
6
CONTINUOUS
62
3
100
AcDbCircle
10
2416.152000000000
20
841.862000000000
30
0.0
40
0.500000000000
100
AcDbArc
50
0.000000000000
51
90.000000000000
0
ARC
5
841
100
AcDbEntity
8
0-9扉体
6
CONTINUOUS
62
3
100
AcDbCircle
10
2422.652000000000
20
1150.362000000000
30
0.0
40
6.000000000000
100
AcDbArc
50
90.000000000000
51
180.000000000000
0
ARC
5
842
100
AcDbEntity
8
0-9扉体
6
CONTINUOUS
62
2
100
AcDbCircle
10
1429.720000000000
20
2190.322000000000
30
0.0
40
0.500000000000
100
AcDbArc
50
90.000000000000
51
180.000000000000
0
CIRCLE
5
843
100
AcDbEntity
8
0-9扉体
6
CONTINUOUS
62
2
100
AcDbCircle
10
1164.220000000000
20
2208.822000000000
30
0.0
40
9.500000000000
0
CIRCLE
5
844
100
AcDbEntity
8
0-9扉体
6
CONTINUOUS
62
2
100
AcDbCircle
10
1164.220000000000
20
2208.822000000000
30
0.0
40
6.000000000000
0
CIRCLE
5
845
100
AcDbEntity
8
0-9扉体
6
CONTINUOUS
62
2
100
AcDbCircle
10
1164.220000000000
20
2208.822000000000
30
0.0
40
5.000000000000
0
ARC
5
846
100
AcDbEntity
8
0-9扉体
6
CONTINUOUS
62
2
100
AcDbCircle
10
1164.220000000000
20
2208.822000000000
30
0.0
40
13.000000000000
100
AcDbArc
50
60.000000000000
51
397.980000000000
0
CIRCLE
5
847
100
AcDbEntity
8
0-9扉体
6
CONTINUOUS
62
2
100
AcDbCircle
10
1264.220000000000
20
2208.822000000000
30
0.0
40
9.500000000000
0
CIRCLE
5
848
100
AcDbEntity
8
0-9扉体
6
CONTINUOUS
62
2
100
AcDbCircle
10
1264.220000000000
20
2208.822000000000
30
0.0
40
6.000000000000
0
CIRCLE
5
849
100
AcDbEntity
8
0-9扉体
6
CONTINUOUS
62
2
100
AcDbCircle
10
1264.220000000000
20
2208.822000000000
30
0.0
40
5.000000000000
0
ARC
5
84a
100
AcDbEntity
8
0-9扉体
6
CONTINUOUS
62
2
100
AcDbCircle
10
1264.220000000000
20
2208.822000000000
30
0.0
40
13.000000000000
100
AcDbArc
50
142.020000000000
51
480.000000000000
0
ARC
5
84b
100
AcDbEntity
8
0-9扉体
6
CONTINUOUS
62
3
100
AcDbCircle
10
1477.220000000000
20
2196.822000000000
30
0.0
40
6.000000000000
100
AcDbArc
50
270.000000000000
51
360.000000000000
0
ARC
5
84c
100
AcDbEntity
8
0-9扉体
6
CONTINUOUS
62
2
100
AcDbCircle
10
1119.220000000000
20
2244.822000000000
30
0.0
40
10.000000000000
100
AcDbArc
50
90.000000000000
51
216.872000000000
0
CIRCLE
5
84d
100
AcDbEntity
8
0-8寸法
6
CONTINUOUS
62
3
100
AcDbCircle
10
1477.220000000000
20
2246.822000000000
30
0.0
40
4.000000000000
0
ARC
5
84e
100
AcDbEntity
8
0-9扉体
6
CONTINUOUS
62
3
100
AcDbCircle
10
1477.220000000000
20
2246.822000000000
30
0.0
40
8.000000000000
100
AcDbArc
50
270.000000000000
51
554.478000000000
0
ARC
5
84f
100
AcDbEntity
8
0-9扉体
6
CONTINUOUS
62
3
100
AcDbCircle
10
1449.220000000000
20
2237.141000000000
30
0.0
40
12.419000000000
100
AcDbArc
50
252.412000000000
51
287.588000000000
0
ARC
5
850
100
AcDbEntity
8
0-9扉体
6
CONTINUOUS
62
3
100
AcDbCircle
10
1443.591000000000
20
2228.045000000000
30
0.0
40
3.323000000000
100
AcDbArc
50
244.386000000000
51
304.385000000000
0
ARC
5
851
100
AcDbEntity
8
0-9扉体
6
CONTINUOUS
62
3
100
AcDbCircle
10
1454.849000000000
20
2228.045000000000
30
0.0
40
3.323000000000
100
AcDbArc
50
235.615000000000
51
295.614000000000
0
CIRCLE
5
852
100
AcDbEntity
8
0-6戸当り
6
CONTINUOUS
62
2
100
AcDbCircle
10
1299.220000000000
20
1227.362000000000
30
0.0
40
9.500000000000
0
CIRCLE
5
853
100
AcDbEntity
8
0-6戸当り
6
CONTINUOUS
62
2
100
AcDbCircle
10
1299.220000000000
20
1227.362000000000
30
0.0
40
6.000000000000
0
CIRCLE
5
854
100
AcDbEntity
8
0-6戸当り
6
CONTINUOUS
62
2
100
AcDbCircle
10
1299.220000000000
20
1227.362000000000
30
0.0
40
5.000000000000
0
CIRCLE
5
855
100
AcDbEntity
8
0-6戸当り
6
CONTINUOUS
62
2
100
AcDbCircle
10
1299.220000000000
20
1227.362000000000
30
0.0
40
13.000000000000
0
POLYLINE
5
856
100
AcDbEntity
  8
0-8寸法
6
CONTINUOUS
62
4
100
AcDb2dPolyline
66
1
10
0
20
0
70
1
40
4.000
41
4.000
0
VERTEX
5
857
100
AcDbEntity
  8
0-8寸法
6
CONTINUOUS
62
4
100
AcDbVertex
100
AcDb2dVertex
10
1225.164
20
803.027
30
0.0
42
1.000
0
VERTEX
5
858
100
AcDbEntity
  8
0-8寸法
6
CONTINUOUS
62
4
100
AcDbVertex
100
AcDb2dVertex
10
1229.164
20
803.027
30
0.0
42
1.000
0
SEQEND
5
859
100
AcDbEntity
  8
0-8寸法
0
POLYLINE
5
85a
100
AcDbEntity
  8
0-8寸法
6
CONTINUOUS
62
4
100
AcDb2dPolyline
66
1
10
0
20
0
70
1
40
4.000
41
4.000
0
VERTEX
5
85b
100
AcDbEntity
  8
0-8寸法
6
CONTINUOUS
62
4
100
AcDbVertex
100
AcDb2dVertex
10
2304.652
20
1162.362
30
0.0
42
1.000
0
VERTEX
5
85c
100
AcDbEntity
  8
0-8寸法
6
CONTINUOUS
62
4
100
AcDbVertex
100
AcDb2dVertex
10
2308.652
20
1162.362
30
0.0
42
1.000
0
SEQEND
5
85d
100
AcDbEntity
  8
0-8寸法
0
POLYLINE
5
85e
100
AcDbEntity
  8
0-8寸法
6
CONTINUOUS
62
4
100
AcDb2dPolyline
66
1
10
0
20
0
70
1
40
4.000
41
4.000
0
VERTEX
5
85f
100
AcDbEntity
  8
0-8寸法
6
CONTINUOUS
62
4
100
AcDbVertex
100
AcDb2dVertex
10
1206.224
20
1239.363
30
0.0
42
1.000
0
VERTEX
5
860
100
AcDbEntity
  8
0-8寸法
6
CONTINUOUS
62
4
100
AcDbVertex
100
AcDb2dVertex
10
1210.224
20
1239.363
30
0.0
42
1.000
0
SEQEND
5
861
100
AcDbEntity
  8
0-8寸法
0
POLYLINE
5
862
100
AcDbEntity
  8
0-8寸法
6
CONTINUOUS
62
4
100
AcDb2dPolyline
66
1
10
0
20
0
70
1
40
4.000
41
4.000
0
VERTEX
5
863
100
AcDbEntity
  8
0-8寸法
6
CONTINUOUS
62
4
100
AcDbVertex
100
AcDb2dVertex
10
1407.344
20
1231.080
30
0.0
42
1.000
0
VERTEX
5
864
100
AcDbEntity
  8
0-8寸法
6
CONTINUOUS
62
4
100
AcDbVertex
100
AcDb2dVertex
10
1411.344
20
1231.080
30
0.0
42
1.000
0
SEQEND
5
865
100
AcDbEntity
  8
0-8寸法
0
POLYLINE
5
866
100
AcDbEntity
  8
0-8寸法
6
CONTINUOUS
62
4
100
AcDb2dPolyline
66
1
10
0
20
0
70
1
40
4.000
41
4.000
0
VERTEX
5
867
100
AcDbEntity
  8
0-8寸法
6
CONTINUOUS
62
4
100
AcDbVertex
100
AcDb2dVertex
10
2482.661
20
772.605
30
0.0
42
1.000
0
VERTEX
5
868
100
AcDbEntity
  8
0-8寸法
6
CONTINUOUS
62
4
100
AcDbVertex
100
AcDb2dVertex
10
2486.661
20
772.605
30
0.0
42
1.000
0
SEQEND
5
869
100
AcDbEntity
  8
0-8寸法
0
POLYLINE
5
86a
100
AcDbEntity
  8
0-8寸法
6
CONTINUOUS
62
4
100
AcDb2dPolyline
66
1
10
0
20
0
70
1
40
4.000
41
4.000
0
VERTEX
5
86b
100
AcDbEntity
  8
0-8寸法
6
CONTINUOUS
62
4
100
AcDbVertex
100
AcDb2dVertex
10
2456.652
20
1022.362
30
0.0
42
1.000
0
VERTEX
5
86c
100
AcDbEntity
  8
0-8寸法
6
CONTINUOUS
62
4
100
AcDbVertex
100
AcDb2dVertex
10
2460.652
20
1022.362
30
0.0
42
1.000
0
SEQEND
5
86d
100
AcDbEntity
  8
0-8寸法
0
POLYLINE
5
86e
100
AcDbEntity
  8
0-8寸法
6
CONTINUOUS
62
4
100
AcDb2dPolyline
66
1
10
0
20
0
70
1
40
4.000
41
4.000
0
VERTEX
5
86f
100
AcDbEntity
  8
0-8寸法
6
CONTINUOUS
62
4
100
AcDbVertex
100
AcDb2dVertex
10
2452.652
20
1212.362
30
0.0
42
1.000
0
VERTEX
5
870
100
AcDbEntity
  8
0-8寸法
6
CONTINUOUS
62
4
100
AcDbVertex
100
AcDb2dVertex
10
2456.652
20
1212.362
30
0.0
42
1.000
0
SEQEND
5
871
100
AcDbEntity
  8
0-8寸法
0
POLYLINE
5
872
100
AcDbEntity
  8
0-8寸法
6
CONTINUOUS
62
4
100
AcDb2dPolyline
66
1
10
0
20
0
70
1
40
4.000
41
4.000
0
VERTEX
5
873
100
AcDbEntity
  8
0-8寸法
6
CONTINUOUS
62
4
100
AcDbVertex
100
AcDb2dVertex
10
2482.652
20
1472.362
30
0.0
42
1.000
0
VERTEX
5
874
100
AcDbEntity
  8
0-8寸法
6
CONTINUOUS
62
4
100
AcDbVertex
100
AcDb2dVertex
10
2486.652
20
1472.362
30
0.0
42
1.000
0
SEQEND
5
875
100
AcDbEntity
  8
0-8寸法
0
POLYLINE
5
876
100
AcDbEntity
  8
0-8寸法
6
CONTINUOUS
62
4
100
AcDb2dPolyline
66
1
10
0
20
0
70
1
40
4.000
41
4.000
0
VERTEX
5
877
100
AcDbEntity
  8
0-8寸法
6
CONTINUOUS
62
4
100
AcDbVertex
100
AcDb2dVertex
10
1475.220
20
2246.822
30
0.0
42
1.000
0
VERTEX
5
878
100
AcDbEntity
  8
0-8寸法
6
CONTINUOUS
62
4
100
AcDbVertex
100
AcDb2dVertex
10
1479.220
20
2246.822
30
0.0
42
1.000
0
SEQEND
5
879
100
AcDbEntity
  8
0-8寸法
0
TEXT
5
87a
100
AcDbEntity
8
0-A文字
62
7
370
-3
100
AcDbText
10
2073.449
20
1009.292
30
0.0
40
33.660
1
水圧方向
41
0.963
50
0.000
100
AcDbText
0
TEXT
5
87b
100
AcDbEntity
8
0-8寸法
62
7
370
-3
100
AcDbText
10
575.400
20
486.409
30
0.0
40
33.660
1
L48x60x6(A5083)
41
0.619
50
0.000
100
AcDbText
0
MTEXT
5
87c
100
AcDbEntity
8
0-8寸法
62
7
370
-3
100
AcDbMText
10
888.913
20
863.962
30
0.0
40
31.790
41
0.000
71
7
72
1
1
\W1.093;扉体高{\W0.787; 380}
7
STANDARD
11
0.00000
21
1.00000
31
0.0
0
TEXT
5
87d
100
AcDbEntity
8
0-8寸法
62
7
370
-3
100
AcDbText
10
1269.570
20
1486.409
30
0.0
40
33.660
1
170
41
0.733
50
0.000
100
AcDbText
0
MTEXT
5
87e
100
AcDbEntity
8
0-8寸法
62
7
370
-3
100
AcDbMText
10
2065.383
20
1332.669
30
0.0
40
31.790
41
0.000
71
7
72
1
1
\W1.093;▽{\W0.787;H.W.L.}
7
STANDARD
11
1.00000
21
0.00000
31
0.0
0
MTEXT
5
87f
100
AcDbEntity
8
0-8寸法
62
7
370
-3
100
AcDbMText
10
1190.820
20
2577.129
30
0.0
40
31.790
41
0.000
71
7
72
1
1
\W1.093;有効幅{\W0.787; 300}
7
STANDARD
11
1.00000
21
0.00000
31
0.0
0
TEXT
5
880
100
AcDbEntity
8
0-8寸法
62
7
370
-3
100
AcDbText
10
2342.252
20
1036.409
30
0.0
40
33.660
1
48
41
0.583
50
0.000
100
AcDbText
0
TEXT
5
881
100
AcDbEntity
8
0-8寸法
62
7
370
-3
100
AcDbText
10
2510.502
20
1036.409
30
0.0
40
33.660
1
6t
41
0.574
50
0.000
100
AcDbText
0
TEXT
5
882
100
AcDbEntity
8
0-8寸法
62
7
370
-3
100
AcDbText
10
2292.605
20
1058.962
30
0.0
40
33.660
1
40
41
0.657
50
90.000
100
AcDbText
0
TEXT
5
883
100
AcDbEntity
8
0-8寸法
62
7
370
-3
100
AcDbText
10
2292.605
20
1238.962
30
0.0
40
33.660
1
50
41
0.626
50
90.000
100
AcDbText
0
TEXT
5
884
100
AcDbEntity
8
0-8寸法
62
7
370
-3
100
AcDbText
10
1580.820
20
486.409
30
0.0
40
33.660
1
20
41
0.597
50
0.000
100
AcDbText
0
TEXT
5
885
100
AcDbEntity
8
0-8寸法
62
7
370
-3
100
AcDbText
10
1424.570
20
486.409
30
0.0
40
33.660
1
150
41
0.710
50
0.000
100
AcDbText
0
TEXT
5
886
100
AcDbEntity
8
0-8寸法
62
7
370
-3
100
AcDbText
10
1269.570
20
486.409
30
0.0
40
33.660
1
160
41
0.712
50
0.000
100
AcDbText
0
TEXT
5
887
100
AcDbEntity
8
0-8寸法
62
7
370
-3
100
AcDbText
10
1114.570
20
486.409
30
0.0
40
33.660
1
150
41
0.710
50
0.000
100
AcDbText
0
TEXT
5
888
100
AcDbEntity
8
0-8寸法
62
7
370
-3
100
AcDbText
10
980.820
20
486.409
30
0.0
40
33.660
1
20
41
0.597
50
0.000
100
AcDbText
0
TEXT
5
889
100
AcDbEntity
8
0-8寸法
62
7
370
-3
100
AcDbText
10
785.173
20
792.712
30
0.0
40
33.660
1
160
41
0.712
50
90.000
100
AcDbText
0
TEXT
5
88a
100
AcDbEntity
8
0-8寸法
62
7
370
-3
100
AcDbText
10
785.173
20
955.212
30
0.0
40
33.660
1
165
41
0.657
50
90.000
100
AcDbText
0
TEXT
5
88b
100
AcDbEntity
8
0-8寸法
62
7
370
-3
100
AcDbText
10
785.173
20
1117.712
30
0.0
40
33.660
1
160
41
0.712
50
90.000
100
AcDbText
0
TEXT
5
88c
100
AcDbEntity
8
0-8寸法
62
7
370
-3
100
AcDbText
10
785.173
20
653.962
30
0.0
40
33.660
1
20
41
0.597
50
90.000
100
AcDbText
0
TEXT
5
88d
100
AcDbEntity
8
0-8寸法
62
7
370
-3
100
AcDbText
10
785.173
20
1278.962
30
0.0
40
33.660
1
20
41
0.597
50
90.000
100
AcDbText
0
MTEXT
5
88e
100
AcDbEntity
8
0-8寸法
62
7
370
-3
100
AcDbMText
10
688.913
20
876.462
30
0.0
40
31.790
41
0.000
71
7
72
1
1
\W1.093;戸当高{\W0.787; 525}
7
STANDARD
11
0.00000
21
1.00000
31
0.0
0
MTEXT
5
88f
100
AcDbEntity
8
0-8寸法
62
7
370
-3
100
AcDbMText
10
1190.820
20
382.669
30
0.0
40
31.790
41
0.000
71
7
72
1
1
\W1.093;戸当幅{\W0.787; 500}
7
STANDARD
11
1.00000
21
0.00000
31
0.0
0
TEXT
5
890
100
AcDbEntity
8
0-8寸法
62
7
370
-3
100
AcDbText
10
2778.605
20
742.712
30
0.0
40
33.660
1
100
41
0.775
50
90.000
100
AcDbText
0
TEXT
5
891
100
AcDbEntity
8
0-8寸法
62
7
370
-3
100
AcDbText
10
2778.605
20
1155.212
30
0.0
40
33.660
1
125
41
0.633
50
90.000
100
AcDbText
0
TEXT
5
892
100
AcDbEntity
8
0-8寸法
62
7
370
-3
100
AcDbText
10
1269.570
20
1586.409
30
0.0
40
33.660
1
300
41
0.658
50
0.000
100
AcDbText
0
TEXT
5
893
100
AcDbEntity
8
0-8寸法
62
7
370
-3
100
AcDbText
10
1069.570
20
2580.869
30
0.0
40
33.660
1
100
41
0.775
50
0.000
100
AcDbText
0
TEXT
5
894
100
AcDbEntity
8
0-8寸法
62
7
370
-3
100
AcDbText
10
1469.570
20
2580.869
30
0.0
40
33.660
1
100
41
0.775
50
0.000
100
AcDbText
0
MTEXT
5
895
100
AcDbEntity
8
0-8寸法
62
7
370
-3
100
AcDbMText
10
1190.820
20
582.669
30
0.0
40
31.790
41
0.000
71
7
72
1
1
\W1.093;扉体幅{\W0.787; 380}
7
STANDARD
11
1.00000
21
0.00000
31
0.0
0
MTEXT
5
896
100
AcDbEntity
8
0-8寸法
62
7
370
-3
100
AcDbMText
10
1190.820
20
1982.669
30
0.0
40
31.790
41
0.000
71
7
72
1
1
\W1.093;扉体幅{\W0.787; 380}
7
STANDARD
11
1.00000
21
0.00000
31
0.0
0
TEXT
5
897
100
AcDbEntity
8
0-8寸法
62
7
370
-3
100
AcDbText
10
1768.410
20
386.409
30
0.0
40
33.660
1
シ－リング剤充填とする。
41
0.963
50
0.000
100
AcDbText
0
TEXT
5
898
100
AcDbEntity
8
0-8寸法
62
7
370
-3
100
AcDbText
10
2512.252
20
936.409
30
0.0
40
33.660
1
16
41
0.716
50
0.000
100
AcDbText
0
MTEXT
5
899
100
AcDbEntity
8
0-8寸法
62
7
370
-3
100
AcDbMText
10
1967.345
20
887.712
30
0.0
40
31.790
41
0.000
71
7
72
1
1
\W1.093;設計水深{\W0.787; 5.30 m}
7
STANDARD
11
0.00000
21
1.00000
31
0.0
0
MTEXT
5
89a
100
AcDbEntity
8
0-8寸法
62
7
370
-3
100
AcDbMText
10
2782.345
20
863.962
30
0.0
40
31.790
41
0.000
71
7
72
1
1
\W1.093;有効高{\W0.787; 300}
7
STANDARD
11
0.00000
21
1.00000
31
0.0
0
TEXT
5
89b
100
AcDbEntity
8
0-8寸法
62
7
370
-3
100
AcDbText
10
2384.752
20
1486.409
30
0.0
40
33.660
1
26
41
0.542
50
0.000
100
AcDbText
0
LINE
5
89c
100
AcDbEntity
8
F-F_J_ADD
6
HIDDEN
62
109
100
AcDbLine
10
2642.652000000000
20
1247.362000000000
30
0.0
11
2642.652000000000
21
722.362000000000
31
0.0
0
LINE
5
89d
100
AcDbEntity
8
F-F_J_ADD
6
HIDDEN
62
109
100
AcDbLine
10
699.220000000000
20
722.362000000000
30
0.0
11
699.220000000000
21
1247.362000000000
31
0.0
0
MTEXT
5
89e
100
AcDbEntity
8
0-8寸法
62
7
370
-3
100
AcDbMText
10
1678.410
20
2082.669
30
0.0
40
31.790
41
0.000
71
7
72
1
1
\W1.093;水密ゴム{\W0.787; }Ｐ型{\W0.787; }φ{\W0.787;16x51x7(CRｺﾞﾑ)}
7
STANDARD
11
1.00000
21
0.00000
31
0.0
0
MTEXT
5
89f
100
AcDbEntity
8
0-8寸法
62
7
370
-3
100
AcDbMText
10
1668.410
20
1982.669
30
0.0
40
31.790
41
0.000
71
7
72
1
1
\W1.093;ゴム押え{\W0.787; PL-6t(SUS304)}　
7
STANDARD
11
1.00000
21
0.00000
31
0.0
0
MTEXT
5
8a0
100
AcDbEntity
8
0-8寸法
62
7
370
-3
100
AcDbMText
10
1667.160
20
1882.669
30
0.0
40
31.790
41
0.000
71
7
72
1
1
\W1.093;皿{\W0.787;BT&NT  M8(SUS304}相当{\W0.787;)}
7
STANDARD
11
1.00000
21
0.00000
31
0.0
0
MTEXT
5
8a1
100
AcDbEntity
8
0-8寸法
62
7
370
-3
100
AcDbMText
10
1667.160
20
1482.669
30
0.0
40
31.790
41
0.000
71
7
72
1
1
\W1.093;六角{\W0.787;BT}＆{\W0.787;NT M12(SUS304}相当{\W0.787;)}
7
STANDARD
11
1.00000
21
0.00000
31
0.0
0
MTEXT
5
8a2
100
AcDbEntity
8
0-8寸法
62
7
370
-3
100
AcDbMText
10
437.814
20
1682.669
30
0.0
40
31.790
41
0.000
71
7
72
1
1
\W1.093;吊り{\W0.787;ﾌﾞﾗｹｯﾄ PL-8t(SUS304)}
7
STANDARD
11
1.00000
21
0.00000
31
0.0
0
TEXT
5
8a3
100
AcDbEntity
8
0-8寸法
62
7
370
-3
100
AcDbText
10
437.814
20
1586.409
30
0.0
40
33.660
1
           PL-12t(SUS304)
41
0.755
50
0.000
100
AcDbText
0
MTEXT
5
8a4
100
AcDbEntity
8
0-8寸法
62
7
370
-3
100
AcDbMText
10
1666.950
20
1581.588
30
0.0
40
31.790
41
0.000
71
7
72
1
1
\W1.093;吊り金具{\W0.787;   PL-9t(SUS304) }
7
STANDARD
11
1.00000
21
0.00000
31
0.0
0
LINE
5
8a5
100
AcDbEntity
8
0-8寸法
6
CONTINUOUS
62
4
100
AcDbLine
10
1649.220000000000
20
1572.362000000000
30
0.0
11
1649.220000000000
21
1472.362000000000
31
0.0
0
LINE
5
8a6
100
AcDbEntity
8
0-9扉体
6
CONTINUOUS
62
2
100
AcDbLine
10
2457.152000000000
20
1236.362000000000
30
0.0
11
2437.152000000000
21
1236.362000000000
31
0.0
0
ELLIPSE
  5
8a7
100
AcDbEntity
8
0-7図枠
6
CONTINUOUS
62
3
100
AcDbEllipse
10
2944.993000000000
20
189.029000000000
30
0.0
11
30.000000000000
21
0.000000000000
31
0.0
210
0.0
220
0.0
230
1.0
40
0.833300000000
41
0.000000000000
42
6.283185307180
0
ELLIPSE
  5
8a8
100
AcDbEntity
8
0-7図枠
6
CONTINUOUS
62
3
100
AcDbEllipse
10
2944.993000000000
20
189.029000000000
30
0.0
11
30.000000000000
21
0.000000000000
31
0.0
210
0.0
220
0.0
230
1.0
40
0.833300000000
41
0.000000000000
42
6.283185307180
0
LINE
5
8a9
100
AcDbEntity
8
0-7図枠
6
CONTINUOUS
62
3
100
AcDbLine
10
2900.000000000000
20
540.000000000000
30
0.0
11
2900.000000000000
21
150.000000000000
31
0.0
0
LINE
5
8aa
100
AcDbEntity
8
0-7図枠
6
CONTINUOUS
62
3
100
AcDbLine
10
2900.000000000000
20
540.000000000000
30
0.0
11
4050.000000000000
21
540.000000000000
31
0.0
0
LINE
5
8ab
100
AcDbEntity
8
0-7図枠
6
CONTINUOUS
62
3
100
AcDbLine
10
2900.000000000000
20
240.000000000000
30
0.0
11
4050.000000000000
21
240.000000000000
31
0.0
0
LINE
5
8ac
100
AcDbEntity
8
0-7図枠
6
CONTINUOUS
62
3
100
AcDbLine
10
3475.000000000000
20
540.000000000000
30
0.0
11
3475.000000000000
21
150.000000000000
31
0.0
0
LINE
5
8ad
100
AcDbEntity
8
0-7図枠
6
CONTINUOUS
62
3
100
AcDbLine
10
3415.000000000000
20
540.000000000000
30
0.0
11
3415.000000000000
21
150.000000000000
31
0.0
0
LINE
5
8ae
100
AcDbEntity
8
0-7図枠
6
CONTINUOUS
62
3
100
AcDbLine
10
3950.000000000000
20
240.000000000000
30
0.0
11
3950.000000000000
21
150.000000000000
31
0.0
0
LINE
5
8af
100
AcDbEntity
8
0-7図枠
6
CONTINUOUS
62
3
100
AcDbLine
10
3635.000000000000
20
350.000000000000
30
0.0
11
3635.000000000000
21
240.000000000000
31
0.0
0
LINE
5
8b0
100
AcDbEntity
8
0-7図枠
6
CONTINUOUS
62
3
100
AcDbLine
10
3685.000000000000
20
350.000000000000
30
0.0
11
3685.000000000000
21
240.000000000000
31
0.0
0
LINE
5
8b1
100
AcDbEntity
8
0-7図枠
6
CONTINUOUS
62
3
100
AcDbLine
10
3840.000000000000
20
350.000000000000
30
0.0
11
3840.000000000000
21
240.000000000000
31
0.0
0
LINE
5
8b2
100
AcDbEntity
8
0-7図枠
6
CONTINUOUS
62
3
100
AcDbLine
10
3890.000000000000
20
350.000000000000
30
0.0
11
3890.000000000000
21
240.000000000000
31
0.0
0
LINE
5
8b3
100
AcDbEntity
8
0-7図枠
6
CONTINUOUS
62
3
100
AcDbLine
10
3415.000000000000
20
350.000000000000
30
0.0
11
4050.000000000000
21
350.000000000000
31
0.0
0
LINE
5
8b4
100
AcDbEntity
8
0-7図枠
6
CONTINUOUS
62
3
100
AcDbLine
10
2900.000000000000
20
330.000000000000
30
0.0
11
3415.000000000000
21
330.000000000000
31
0.0
0
LINE
5
8b5
100
AcDbEntity
8
0-7図枠
6
CONTINUOUS
62
3
100
AcDbLine
10
2900.000000000000
20
420.000000000000
30
0.0
11
3415.000000000000
21
420.000000000000
31
0.0
0
LINE
5
8b6
100
AcDbEntity
8
0-7図枠
6
CONTINUOUS
62
3
100
AcDbLine
10
2954.999000000000
20
540.000000000000
30
0.0
11
2954.999000000000
21
240.000000000000
31
0.0
0
LINE
5
8b7
100
AcDbEntity
8
0-7図枠
6
CONTINUOUS
62
3
100
AcDbLine
10
3210.000000000000
20
420.000000000000
30
0.0
11
3210.000000000000
21
240.000000000000
31
0.0
0
LINE
5
8b8
100
AcDbEntity
8
0-7図枠
6
CONTINUOUS
62
3
100
AcDbLine
10
3155.000000000000
20
420.000000000000
30
0.0
11
3155.000000000000
21
240.000000000000
31
0.0
0
LINE
5
8b9
100
AcDbEntity
8
0-7図枠
6
CONTINUOUS
62
3
100
AcDbLine
10
3965.000000000000
20
165.000000000000
30
0.0
11
4000.000000000000
21
225.622000000000
31
0.0
0
LINE
5
8ba
100
AcDbEntity
8
0-7図枠
6
CONTINUOUS
62
3
100
AcDbLine
10
4035.000000000000
20
165.000000000000
30
0.0
11
4000.000000000000
21
225.622000000000
31
0.0
0
LINE
5
8bb
100
AcDbEntity
8
0-7図枠
6
CONTINUOUS
62
3
100
AcDbLine
10
3965.000000000000
20
165.000000000000
30
0.0
11
4035.000000000000
21
165.000000000000
31
0.0
0
LINE
5
8bc
100
AcDbEntity
8
0-7図枠
6
CONTINUOUS
62
3
100
AcDbLine
10
2923.408000000000
20
189.944000000000
30
0.0
11
2956.057000000000
21
171.094000000000
31
0.0
0
LINE
5
8bd
100
AcDbEntity
8
0-7図枠
6
CONTINUOUS
62
3
100
AcDbLine
10
2933.653000000000
20
192.689000000000
30
0.0
11
2963.413000000000
21
175.507000000000
31
0.0
0
LINE
5
8be
100
AcDbEntity
8
0-7図枠
6
CONTINUOUS
62
3
100
AcDbLine
10
2943.898000000000
20
195.434000000000
30
0.0
11
2968.126000000000
21
181.446000000000
31
0.0
0
LINE
5
8bf
100
AcDbEntity
8
0-7図枠
6
CONTINUOUS
62
3
100
AcDbLine
10
2926.237000000000
20
190.702000000000
30
0.0
11
2919.993000000000
21
189.029000000000
31
0.0
0
LINE
5
8c0
100
AcDbEntity
8
0-7図枠
6
CONTINUOUS
62
3
100
AcDbLine
10
2933.825000000000
20
189.703000000000
30
0.0
11
2961.277000000000
21
173.854000000000
31
0.0
0
LINE
5
8c1
100
AcDbEntity
8
0-7図枠
6
CONTINUOUS
62
3
100
AcDbLine
10
2944.071000000000
20
192.448000000000
30
0.0
11
2966.838000000000
21
179.303000000000
31
0.0
0
LINE
5
8c2
100
AcDbEntity
8
0-7図枠
6
CONTINUOUS
62
3
100
AcDbLine
10
2954.316000000000
20
195.193000000000
30
0.0
11
2969.755000000000
21
186.279000000000
31
0.0
0
LINE
5
8c3
100
AcDbEntity
8
0-7図枠
6
CONTINUOUS
62
3
100
AcDbLine
10
2936.482000000000
20
193.447000000000
30
0.0
11
2928.709000000000
21
191.364000000000
31
0.0
0
LINE
5
8c4
100
AcDbEntity
8
0-7図枠
6
CONTINUOUS
62
3
100
AcDbLine
10
2946.727000000000
20
196.192000000000
30
0.0
11
2939.182000000000
21
194.171000000000
31
0.0
0
ARC
5
8c5
100
AcDbEntity
8
0-7図枠
6
CONTINUOUS
62
3
100
AcDbCircle
10
2928.825000000000
20
181.043000000000
30
0.0
40
10.000000000000
100
AcDbArc
50
60.000000000000
51
105.000000000000
0
ARC
5
8c6
100
AcDbEntity
8
0-7図枠
6
CONTINUOUS
62
3
100
AcDbCircle
10
2939.070000000000
20
183.788000000000
30
0.0
40
10.000000000000
100
AcDbArc
50
60.000000000000
51
105.000000000000
0
ARC
5
8c7
100
AcDbEntity
8
0-7図枠
6
CONTINUOUS
62
3
100
AcDbCircle
10
2949.315000000000
20
186.533000000000
30
0.0
40
10.000000000000
100
AcDbArc
50
60.000000000000
51
105.000000000000
0
ELLIPSE
  5
8c8
100
AcDbEntity
8
0-7図枠
6
CONTINUOUS
62
3
100
AcDbEllipse
10
2944.993000000000
20
189.029000000000
30
0.0
11
25.000000000000
21
0.000000000000
31
0.0
210
0.0
220
0.0
230
1.0
40
0.800000000000
41
0.270792616483
42
6.145261525885
0
TEXT
5
8c9
100
AcDbEntity
8
0-7図枠
62
7
370
-3
100
AcDbText
10
2926.827
20
516.487
30
0.0
40
26.465
1
客先
41
0.856
50
0.000
  7
TATEGAKI
100
AcDbText
0
LINE
5
8ca
100
AcDbEntity
8
F-F_J_ADD
6
HIDDEN
62
109
100
AcDbLine
10
2927.499500000000
20
240.000000000000
30
0.0
11
2927.499500000000
21
540.000000000000
31
0.0
0
LINE
5
8cb
100
AcDbEntity
8
F-F_J_ADD
6
HIDDEN
62
109
100
AcDbLine
10
3184.999500000000
20
540.000000000000
30
0.0
11
3184.999500000000
21
420.000000000000
31
0.0
0
LINE
5
8cc
100
AcDbEntity
8
F-F_J_ADD
6
HIDDEN
62
109
100
AcDbLine
10
3054.999500000000
20
240.000000000000
30
0.0
11
3054.999500000000
21
420.000000000000
31
0.0
0
LINE
5
8cd
100
AcDbEntity
8
F-F_J_ADD
6
HIDDEN
62
109
100
AcDbLine
10
3182.500000000000
20
420.000000000000
30
0.0
11
3182.500000000000
21
240.000000000000
31
0.0
0
LINE
5
8ce
100
AcDbEntity
8
F-F_J_ADD
6
HIDDEN
62
109
100
AcDbLine
10
3312.500000000000
20
420.000000000000
30
0.0
11
3312.500000000000
21
240.000000000000
31
0.0
0
LINE
5
8cf
100
AcDbEntity
8
F-F_J_ADD
6
HIDDEN
62
109
100
AcDbLine
10
2900.000000000000
20
480.000000000000
30
0.0
11
3415.000000000000
21
480.000000000000
31
0.0
0
LINE
5
8d0
100
AcDbEntity
8
F-F_J_ADD
6
HIDDEN
62
109
100
AcDbLine
10
3415.000000000000
20
375.000000000000
30
0.0
11
2900.000000000000
21
375.000000000000
31
0.0
0
LINE
5
8d1
100
AcDbEntity
8
F-F_J_ADD
6
HIDDEN
62
109
100
AcDbLine
10
3415.000000000000
20
285.000000000000
30
0.0
11
2900.000000000000
21
285.000000000000
31
0.0
0
LINE
5
8d2
100
AcDbEntity
8
F-F_J_ADD
6
HIDDEN
62
109
100
AcDbLine
10
3445.000000000000
20
540.000000000000
30
0.0
11
3445.000000000000
21
150.000000000000
31
0.0
0
LINE
5
8d3
100
AcDbEntity
8
F-F_J_ADD
6
HIDDEN
62
109
100
AcDbLine
10
3555.000000000000
20
350.000000000000
30
0.0
11
3555.000000000000
21
240.000000000000
31
0.0
0
LINE
5
8d4
100
AcDbEntity
8
F-F_J_ADD
6
HIDDEN
62
109
100
AcDbLine
10
3660.000000000000
20
350.000000000000
30
0.0
11
3660.000000000000
21
240.000000000000
31
0.0
0
LINE
5
8d5
100
AcDbEntity
8
F-F_J_ADD
6
HIDDEN
62
109
100
AcDbLine
10
3762.500000000000
20
240.000000000000
30
0.0
11
3762.500000000000
21
350.000000000000
31
0.0
0
LINE
5
8d6
100
AcDbEntity
8
F-F_J_ADD
6
HIDDEN
62
109
100
AcDbLine
10
4050.000000000000
20
295.000000000000
30
0.0
11
3415.000000000000
21
295.000000000000
31
0.0
0
LINE
5
8d7
100
AcDbEntity
8
F-F_J_ADD
6
HIDDEN
62
109
100
AcDbLine
10
3865.000000000000
20
240.000000000000
30
0.0
11
3865.000000000000
21
350.000000000000
31
0.0
0
LINE
5
8d8
100
AcDbEntity
8
F-F_J_ADD
6
HIDDEN
62
109
100
AcDbLine
10
3970.000000000000
20
350.000000000000
30
0.0
11
3970.000000000000
21
240.000000000000
31
0.0
0
LINE
5
8d9
100
AcDbEntity
8
F-F_J_ADD
6
HIDDEN
62
109
100
AcDbLine
10
3475.000000000000
20
445.000000000000
30
0.0
11
3415.000000000000
21
445.000000000000
31
0.0
0
LINE
5
8da
100
AcDbEntity
8
F-F_J_ADD
6
HIDDEN
62
109
100
AcDbLine
10
2900.000000000000
20
195.000000000000
30
0.0
11
4050.000000000000
21
195.000000000000
31
0.0
0
LINE
5
8db
100
AcDbEntity
8
F-F_J_ADD
6
HIDDEN
62
109
100
AcDbLine
10
4000.000000000000
20
240.000000000000
30
0.0
11
4000.000000000000
21
150.000000000000
31
0.0
0
LINE
5
8dc
100
AcDbEntity
8
F-F_J_ADD
6
HIDDEN
62
109
100
AcDbLine
10
3712.500000000000
20
150.000000000000
30
0.0
11
3712.500000000000
21
240.000000000000
31
0.0
0
LINE
5
8dd
100
AcDbEntity
8
F-F_J_ADD
6
HIDDEN
62
109
100
AcDbLine
10
3762.500000000000
20
350.000000000000
30
0.0
11
3762.500000000000
21
540.000000000000
31
0.0
0
LINE
5
8de
100
AcDbEntity
8
F-F_J_ADD
6
HIDDEN
62
109
100
AcDbLine
10
3475.000000000000
20
512.857142857143
30
0.0
11
4050.000000000000
21
512.857142857143
31
0.0
0
LINE
5
8df
100
AcDbEntity
8
F-F_J_ADD
6
HIDDEN
62
109
100
AcDbLine
10
3475.000000000000
20
485.714285714286
30
0.0
11
4050.000000000000
21
485.714285714286
31
0.0
0
LINE
5
8e0
100
AcDbEntity
8
F-F_J_ADD
6
HIDDEN
62
109
100
AcDbLine
10
3475.000000000000
20
458.571428571429
30
0.0
11
4050.000000000000
21
458.571428571429
31
0.0
0
LINE
5
8e1
100
AcDbEntity
8
F-F_J_ADD
6
HIDDEN
62
109
100
AcDbLine
10
3475.000000000000
20
431.428571428572
30
0.0
11
4050.000000000000
21
431.428571428572
31
0.0
0
LINE
5
8e2
100
AcDbEntity
8
F-F_J_ADD
6
HIDDEN
62
109
100
AcDbLine
10
3475.000000000000
20
404.285714285715
30
0.0
11
4050.000000000000
21
404.285714285715
31
0.0
0
LINE
5
8e3
100
AcDbEntity
8
F-F_J_ADD
6
HIDDEN
62
109
100
AcDbLine
10
3475.000000000000
20
377.142857142858
30
0.0
11
4050.000000000000
21
377.142857142858
31
0.0
0
TEXT
5
8e4
100
AcDbEntity
8
0-7図枠
62
7
370
-3
100
AcDbText
10
3444.327
20
498.959
30
0.0
40
26.465
1
名　称
41
0.856
50
0.000
  7
TATEGAKI
100
AcDbText
0
TEXT
5
8e5
100
AcDbEntity
8
0-7図枠
62
7
370
-3
100
AcDbText
10
3119.405
20
464.432
30
0.0
40
37.807
41
0.856
50
0.000
1
標準図
72
1
11
3184.999
21
480.000
31
0.0
100
AcDbText
73
2
0
TEXT
5
8e6
100
AcDbEntity
8
0-7図枠
62
7
370
-3
100
AcDbText
10
2926.827
20
411.487
30
0.0
40
26.465
1
材質
41
0.856
50
0.000
  7
TATEGAKI
100
AcDbText
0
TEXT
5
8e7
100
AcDbEntity
8
0-7図枠
62
7
370
-3
100
AcDbText
10
3181.827
20
411.487
30
0.0
40
26.465
1
数量
41
0.856
50
0.000
  7
TATEGAKI
100
AcDbText
0
MTEXT
5
8e8
100
AcDbEntity
8
0-7図枠
62
7
370
-3
100
AcDbMText
10
3764.190
20
406.820
30
0.0
40
33.570
41
0.000
71
5
72
1
1
\W0.972;{\W0.700;ｱﾙﾐ}合金製{\W0.700;ﾌﾗｯﾌﾟｹﾞ-ﾄ(}壁付け{\W0.700;)}
7
STANDARD
11
1.00000
21
0.00000
31
0.0
0
TEXT
5
8e9
100
AcDbEntity
8
0-7図枠
62
7
370
-3
100
AcDbText
10
3000.637
20
359.432
30
0.0
40
37.807
41
0.530
50
0.000
1
A5083
72
1
11
3054.999
21
375.000
31
0.0
100
AcDbText
73
2
0
TEXT
5
8ea
100
AcDbEntity
8
0-7図枠
62
7
370
-3
100
AcDbText
10
3444.327
20
331.487
30
0.0
40
26.465
1
承認
41
0.856
50
0.000
  7
TATEGAKI
100
AcDbText
0
TEXT
5
8eb
100
AcDbEntity
8
0-7図枠
62
7
370
-3
100
AcDbText
10
3659.327
20
331.487
30
0.0
40
26.465
1
検図
41
0.856
50
0.000
  7
TATEGAKI
100
AcDbText
0
TEXT
5
8ec
100
AcDbEntity
8
0-7図枠
62
7
370
-3
100
AcDbText
10
3864.327
20
331.487
30
0.0
40
26.465
1
担当
41
0.856
50
0.000
  7
TATEGAKI
100
AcDbText
0
TEXT
5
8ed
100
AcDbEntity
8
0-7図枠
62
7
370
-3
100
AcDbText
10
2926.827
20
321.487
30
0.0
40
26.465
1
尺度
41
0.856
50
0.000
  7
TATEGAKI
100
AcDbText
0
TEXT
5
8ee
100
AcDbEntity
8
0-7図枠
62
7
370
-3
100
AcDbText
10
3181.827
20
321.487
30
0.0
40
26.465
1
日付
41
0.856
50
0.000
  7
TATEGAKI
100
AcDbText
0
TEXT
5
8ef
100
AcDbEntity
8
0-7図枠
62
7
370
-3
100
AcDbText
10
3511.869
20
279.432
30
0.0
40
37.807
41
0.856
50
0.000
1
熊崎
72
1
11
3555.000
21
295.000
31
0.0
100
AcDbText
73
2
0
TEXT
5
8f0
100
AcDbEntity
8
0-7図枠
62
7
370
-3
100
AcDbText
10
3719.369
20
279.432
30
0.0
40
37.807
41
0.856
50
0.000
1
井福
72
1
11
3762.500
21
295.000
31
0.0
100
AcDbText
73
2
0
TEXT
5
8f1
100
AcDbEntity
8
0-7図枠
62
7
370
-3
100
AcDbText
10
3926.869
20
279.432
30
0.0
40
37.807
41
0.856
50
0.000
1
平川
72
1
11
3970.000
21
295.000
31
0.0
100
AcDbText
73
2
0
TEXT
5
8f2
100
AcDbEntity
8
0-7図枠
62
7
370
-3
100
AcDbText
10
3011.869
20
269.432
30
0.0
40
37.807
41
0.684
50
0.000
1
1/10
72
1
11
3054.999
21
285.000
31
0.0
100
AcDbText
73
2
0
LINE
5
8f3
100
AcDbEntity
8
0-7図枠
6
CONTINUOUS
62
3
100
AcDbLine
10
3562.500000000000
20
490.000000000000
30
0.0
11
3962.500000000000
21
490.000000000000
31
0.0
0
TEXT
5
8f4
100
AcDbEntity
8
0-7図枠
62
7
370
-3
100
AcDbText
10
3444.327
20
231.487
30
0.0
40
26.465
1
図番
41
0.856
50
0.000
  7
TATEGAKI
100
AcDbText
0
TEXT
5
8f5
100
AcDbEntity
8
0-7図枠
62
7
370
-3
100
AcDbText
10
2998.955
20
180.639
30
0.0
40
37.807
1
三重重工業株式会社
41
0.856
50
0.000
100
AcDbText
0
TEXT
5
8f6
100
AcDbEntity
8
0-7図枠
62
7
370
-3
100
AcDbText
10
3989.851
20
170.635
30
0.0
40
37.807
1
2
41
0.461
50
0.000
100
AcDbText
0
TEXT
5
8f7
100
AcDbEntity
8
0-7図枠
62
7
370
-3
100
AcDbText
10
3595.817
20
443.004
30
0.0
40
37.807
1
300 Bo x 300 Ho
41
0.611
50
0.000
100
AcDbText
0
TEXT
5
8f8
100
AcDbEntity
8
0-7図枠
62
7
370
-3
100
AcDbText
10
3579.513
20
179.432
30
0.0
40
37.807
1
Ｋ－２１５１
41
0.856
50
0.000
100
AcDbText
0
TEXT
5
8f9
100
AcDbEntity
8
0-A文字
62
7
370
-3
100
AcDbText
10
3071.801
20
816.840
30
0.0
40
29.405
1
注記　塗装　ＡＬ部は下地処理後、ポリウレタン樹脂系
41
0.856
50
0.000
100
AcDbText
0
TEXT
5
8fa
100
AcDbEntity
8
0-A文字
62
7
370
-3
100
AcDbText
10
3071.801
20
696.840
30
0.0
40
29.405
1
　　　と致します。
41
0.856
50
0.000
100
AcDbText
0
TEXT
5
8fb
100
AcDbEntity
8
0-A文字
62
7
370
-3
100
AcDbText
10
3071.801
20
636.840
30
0.0
40
29.405
1
　　　但し、ＳＵＳ３０４部は酸洗いと致します。
41
0.856
50
0.000
100
AcDbText
0
LINE
5
8fc
100
AcDbEntity
8
0-A文字
6
CONTINUOUS
62
4
100
AcDbLine
10
3054.999000000000
20
803.475266711830
30
0.0
11
3961.492424156641
21
803.475266711830
31
0.0
0
LINE
5
8fd
100
AcDbEntity
8
0-A文字
6
CONTINUOUS
62
4
100
AcDbLine
10
3054.999000000000
20
743.475266711830
30
0.0
11
3961.492424156641
21
743.475266711830
31
0.0
0
LINE
5
8fe
100
AcDbEntity
8
0-A文字
6
CONTINUOUS
62
4
100
AcDbLine
10
3054.999000000000
20
683.475266711830
30
0.0
11
3961.492424156641
21
683.475266711830
31
0.0
0
LINE
5
8ff
100
AcDbEntity
8
0-A文字
6
CONTINUOUS
62
4
100
AcDbLine
10
3054.999000000000
20
623.475266711830
30
0.0
11
3961.492424156641
21
623.475266711830
31
0.0
0
MTEXT
5
900
100
AcDbEntity
8
0-7図枠
62
7
370
-3
100
AcDbMText
10
3615.386
20
497.482
30
0.0
40
27.772
41
0.000
71
7
72
1
1
\W0.972;型式　{\W0.700;MFR-A0303K}
7
STANDARD
11
1.00000
21
0.00000
31
0.0
0
LINE
5
901
100
AcDbEntity
8
0-9扉体
6
CONTINUOUS
62
2
100
AcDbLine
10
2472.152000000000
20
1216.974000000000
30
0.0
11
2472.152000000000
21
1189.863000000000
31
0.0
0
MTEXT
5
902
100
AcDbEntity
8
0-8寸法
62
7
370
-3
100
AcDbMText
10
437.814
20
1482.669
30
0.0
40
31.790
41
0.000
71
7
72
1
1
\W1.093;接着系{\W0.787;ｱﾝｶ- M12(SUS304}相当{\W0.787;)}
7
STANDARD
11
1.00000
21
0.00000
31
0.0
0
MTEXT
5
903
100
AcDbEntity
8
0-8寸法
62
7
370
-3
100
AcDbMText
10
1767.160
20
582.669
30
0.0
40
31.790
41
0.000
71
7
72
1
1
\W1.093;戸当り{\W0.787;  PL-12t(SUS304)}
7
STANDARD
11
1.00000
21
0.00000
31
0.0
0
MTEXT
5
904
100
AcDbEntity
8
0-8寸法
62
7
370
-3
100
AcDbMText
10
2284.660
20
482.669
30
0.0
40
31.790
41
0.000
71
9
72
1
1
\W1.093;金属系{\W0.787;ｱﾝｶ- M10(SUS304}相当{\W0.787;)}
7
STANDARD
11
1.00000
21
0.00000
31
0.0
0
LINE
5
905
100
AcDbEntity
8
0-8寸法
6
CONTINUOUS
62
4
100
AcDbLine
10
1689.945305868718
20
472.362000000000
30
0.0
11
2282.542000000000
21
472.362000000000
31
0.0
0
LINE
5
906
100
AcDbEntity
8
0-8寸法
6
CONTINUOUS
62
4
100
AcDbLine
10
1689.945305868718
20
572.362000000000
30
0.0
11
2282.542000000000
21
572.362000000000
31
0.0
0
TEXT
5
907
100
AcDbEntity
8
0-A文字
62
7
370
-3
100
AcDbText
10
1212.070
20
1016.965
30
0.0
40
33.660
41
0.893
50
0.000
1
ｽｷﾝﾌﾟﾚ-ﾄ
72
1
11
1300.470
21
1033.325
31
0.0
100
AcDbText
73
2
0
TEXT
5
908
100
AcDbEntity
8
0-A文字
62
7
370
-3
100
AcDbText
10
1245.820
20
956.965
30
0.0
40
33.660
41
0.577
50
0.000
1
PL-6t
72
1
11
1300.470
21
973.325
31
0.0
100
AcDbText
73
2
0
TEXT
5
909
100
AcDbEntity
8
0-A文字
62
7
370
-3
100
AcDbText
10
1223.320
20
906.965
30
0.0
40
33.660
41
0.659
50
0.000
1
(A5083)
72
1
11
1300.470
21
923.325
31
0.0
100
AcDbText
73
2
0
TEXT
5
90a
100
AcDbEntity
8
0-8寸法
62
7
370
-3
100
AcDbText
10
2517.002
20
1486.409
30
0.0
40
33.660
1
12t
41
0.640
50
0.000
100
AcDbText
0
TEXT
5
90b
100
AcDbEntity
8
0-9扉体
62
7
370
-3
100
AcDbText
10
3267.735
20
2360.200
30
0.0
40
33.660
41
0.856
50
0.000
1
設　計　条　件
72
1
11
3406.135
21
2374.060
31
0.0
100
AcDbText
73
2
0
MTEXT
5
90c
100
AcDbEntity
8
0-9扉体
62
7
370
-3
100
AcDbMText
10
3655.235
20
2188.960
30
0.0
40
31.790
41
0.000
71
5
72
1
1
\W0.972;後水深{\W0.700;   0.00 m}
7
STANDARD
11
1.00000
21
0.00000
31
0.0
0
TEXT
5
90d
100
AcDbEntity
8
0-9扉体
62
7
370
-3
100
AcDbText
10
3012.736
20
2172.700
30
0.0
40
33.660
41
0.856
50
0.000
1
設計水深
72
1
11
3091.136
21
2186.560
31
0.0
100
AcDbText
73
2
0
TEXT
5
90e
100
AcDbEntity
8
0-9扉体
62
7
370
-3
100
AcDbText
10
3012.736
20
2292.700
30
0.0
40
33.660
41
0.856
50
0.000
1
通水断面
72
1
11
3091.136
21
2306.560
31
0.0
100
AcDbText
73
2
0
LINE
5
90f
100
AcDbEntity
8
0-9扉体
6
CONTINUOUS
62
4
100
AcDbLine
10
3496.135174147582
20
2336.559497492340
30
0.0
11
3496.135174147582
21
2156.559497492340
31
0.0
0
LINE
5
910
100
AcDbEntity
8
0-9扉体
6
CONTINUOUS
62
4
100
AcDbLine
10
3181.135174147583
20
2336.559497492340
30
0.0
11
3181.135174147583
21
2156.559497492340
31
0.0
0
LINE
5
911
100
AcDbEntity
8
0-9扉体
6
CONTINUOUS
62
4
100
AcDbLine
10
3811.134174147583
20
2411.560497492340
30
0.0
11
3811.134174147583
21
2156.559497492340
31
0.0
0
POLYLINE
5
912
100
AcDbEntity
8
0-9扉体
6
CONTINUOUS
62
  4
100
AcDb2dPolyline
66
1
10
0.0
20
0.0
30
0.0
70
0
0
VERTEX
5
913
100
AcDbEntity
8
0-9扉体
6
CONTINUOUS
62
  4
100
AcDbVertex
100
AcDb2dVertex
10
3001.136174147582
20
2411.560497492340
30
0.0
0
VERTEX
5
914
100
AcDbEntity
8
0-9扉体
6
CONTINUOUS
62
  4
100
AcDbVertex
100
AcDb2dVertex
10
3001.136174147582
20
2156.559497492340
30
0.0
0
VERTEX
5
915
100
AcDbEntity
8
0-9扉体
6
CONTINUOUS
62
  4
100
AcDbVertex
100
AcDb2dVertex
10
3811.134174147583
20
2156.559497492340
30
0.0
0
SEQEND
5
916
100
AcDbEntity
8
0-9扉体
0
LINE
5
917
100
AcDbEntity
8
0-9扉体
6
CONTINUOUS
62
4
100
AcDbLine
10
3001.136174147582
20
2216.560497492340
30
0.0
11
3811.134174147583
21
2216.560497492340
31
0.0
0
LINE
5
918
100
AcDbEntity
8
0-9扉体
6
CONTINUOUS
62
4
100
AcDbLine
10
3001.136174147582
20
2276.560497492340
30
0.0
11
3811.134174147583
21
2276.560497492340
31
0.0
0
LINE
5
919
100
AcDbEntity
8
0-9扉体
6
CONTINUOUS
62
4
100
AcDbLine
10
3001.136174147582
20
2336.559497492340
30
0.0
11
3811.134174147583
21
2336.559497492340
31
0.0
0
LINE
5
91a
100
AcDbEntity
8
0-9扉体
6
CONTINUOUS
62
4
100
AcDbLine
10
3001.136174147582
20
2411.560497492340
30
0.0
11
3811.134174147583
21
2411.560497492340
31
0.0
0
TEXT
5
91b
100
AcDbEntity
8
0-9扉体
62
7
370
-3
100
AcDbText
10
3012.736
20
2232.700
30
0.0
40
33.660
41
0.856
50
0.000
1
扉体寸法
72
1
11
3091.136
21
2246.560
31
0.0
100
AcDbText
73
2
0
MTEXT
5
91c
100
AcDbEntity
8
0-9扉体
62
7
370
-3
100
AcDbMText
10
3190.235
20
2288.960
30
0.0
40
31.790
41
0.000
71
7
72
1
1
\W0.972;有効幅{\W0.700;   0.30 m}
7
STANDARD
11
1.00000
21
0.00000
31
0.0
0
MTEXT
5
91d
100
AcDbEntity
8
0-9扉体
62
7
370
-3
100
AcDbMText
10
3190.235
20
2228.960
30
0.0
40
31.790
41
0.000
71
7
72
1
1
\W0.972;扉体幅{\W0.700;   0.38 m}
7
STANDARD
11
1.00000
21
0.00000
31
0.0
0
MTEXT
5
91e
100
AcDbEntity
8
0-9扉体
62
7
370
-3
100
AcDbMText
10
3190.235
20
2168.960
30
0.0
40
31.790
41
0.000
71
7
72
1
1
\W0.972;前水深{\W0.700;   5.30 m}
7
STANDARD
11
1.00000
21
0.00000
31
0.0
0
MTEXT
5
91f
100
AcDbEntity
8
0-9扉体
62
7
370
-3
100
AcDbMText
10
3505.235
20
2288.960
30
0.0
40
31.790
41
0.000
71
7
72
1
1
\W0.972;有効高　{\W0.700; 0.30 m}
7
STANDARD
11
1.00000
21
0.00000
31
0.0
0
MTEXT
5
920
100
AcDbEntity
8
0-9扉体
62
7
370
-3
100
AcDbMText
10
3505.235
20
2228.960
30
0.0
40
31.790
41
0.000
71
7
72
1
1
\W0.972;扉体高{\W0.700;   0.38 m}
7
STANDARD
11
1.00000
21
0.00000
31
0.0
0
LINE
5
921
100
AcDbEntity
8
0-6戸当り
6
CONTINUOUS
62
2
100
AcDbLine
10
1064.220000000000
20
2271.023000000000
30
0.0
11
1061.720000000000
21
2300.536000000000
31
0.0
0
LINE
5
922
100
AcDbEntity
8
0-6戸当り
6
CONTINUOUS
62
2
100
AcDbLine
10
1069.220000000000
20
2271.023000000000
30
0.0
11
1066.720000000000
21
2300.536000000000
31
0.0
0
LINE
5
923
100
AcDbEntity
8
0-6戸当り
6
CONTINUOUS
62
2
100
AcDbLine
10
1064.220000000000
20
2271.023000000000
30
0.0
11
1074.220000000000
21
2271.023000000000
31
0.0
0
LINE
5
924
100
AcDbEntity
8
0-6戸当り
6
CONTINUOUS
62
2
100
AcDbLine
10
1063.863000000000
20
2275.239000000000
30
0.0
11
1068.863000000000
21
2275.239000000000
31
0.0
0
LINE
5
925
100
AcDbEntity
8
0-6戸当り
6
CONTINUOUS
62
2
100
AcDbLine
10
1063.506000000000
20
2279.456000000000
30
0.0
11
1068.506000000000
21
2279.456000000000
31
0.0
0
LINE
5
926
100
AcDbEntity
8
0-6戸当り
6
CONTINUOUS
62
2
100
AcDbLine
10
1063.149000000000
20
2283.672000000000
30
0.0
11
1068.149000000000
21
2283.672000000000
31
0.0
0
LINE
5
927
100
AcDbEntity
8
0-6戸当り
6
CONTINUOUS
62
2
100
AcDbLine
10
1062.791000000000
20
2287.888000000000
30
0.0
11
1067.792000000000
21
2287.888000000000
31
0.0
0
LINE
5
928
100
AcDbEntity
8
0-6戸当り
6
CONTINUOUS
62
2
100
AcDbLine
10
1062.434000000000
20
2292.104000000000
30
0.0
11
1067.435000000000
21
2292.104000000000
31
0.0
0
LINE
5
929
100
AcDbEntity
8
0-6戸当り
6
CONTINUOUS
62
2
100
AcDbLine
10
1062.077000000000
20
2296.320000000000
30
0.0
11
1067.078000000000
21
2296.320000000000
31
0.0
0
POLYLINE
5
92a
100
AcDbEntity
8
0-6戸当り
6
CONTINUOUS
62
  2
100
AcDb2dPolyline
66
1
10
0.0
20
0.0
30
0.0
70
0
0
VERTEX
5
92b
100
AcDbEntity
8
0-6戸当り
6
CONTINUOUS
62
  2
100
AcDbVertex
100
AcDb2dVertex
10
1074.220000000000
20
2271.023000000000
30
0.0
0
VERTEX
5
92c
100
AcDbEntity
8
0-6戸当り
6
CONTINUOUS
62
  2
100
AcDbVertex
100
AcDb2dVertex
10
1076.720000000000
20
2300.536000000000
30
0.0
0
VERTEX
5
92d
100
AcDbEntity
8
0-6戸当り
6
CONTINUOUS
62
  2
100
AcDbVertex
100
AcDb2dVertex
10
1071.720000000000
20
2300.536000000000
30
0.0
0
SEQEND
5
92e
100
AcDbEntity
8
0-6戸当り
0
LINE
5
92f
100
AcDbEntity
8
0-6戸当り
6
CONTINUOUS
62
2
100
AcDbLine
10
1069.220000000000
20
2271.023000000000
30
0.0
11
1071.720000000000
21
2300.536000000000
31
0.0
0
LINE
5
930
100
AcDbEntity
8
0-6戸当り
6
CONTINUOUS
62
2
100
AcDbLine
10
1074.577000000000
20
2275.239000000000
30
0.0
11
1069.578000000000
21
2275.239000000000
31
0.0
0
LINE
5
931
100
AcDbEntity
8
0-6戸当り
6
CONTINUOUS
62
2
100
AcDbLine
10
1074.934000000000
20
2279.456000000000
30
0.0
11
1069.934000000000
21
2279.456000000000
31
0.0
0
LINE
5
932
100
AcDbEntity
8
0-6戸当り
6
CONTINUOUS
62
2
100
AcDbLine
10
1075.291000000000
20
2283.672000000000
30
0.0
11
1070.291000000000
21
2283.672000000000
31
0.0
0
LINE
5
933
100
AcDbEntity
8
0-6戸当り
6
CONTINUOUS
62
2
100
AcDbLine
10
1075.648000000000
20
2287.888000000000
30
0.0
11
1070.648000000000
21
2287.888000000000
31
0.0
0
LINE
5
934
100
AcDbEntity
8
0-6戸当り
6
CONTINUOUS
62
2
100
AcDbLine
10
1076.005000000000
20
2292.104000000000
30
0.0
11
1071.006000000000
21
2292.104000000000
31
0.0
0
LINE
5
935
100
AcDbEntity
8
0-6戸当り
6
CONTINUOUS
62
2
100
AcDbLine
10
1076.363000000000
20
2296.320000000000
30
0.0
11
1071.363000000000
21
2296.320000000000
31
0.0
0
LINE
5
936
100
AcDbEntity
8
0-6戸当り
6
CONTINUOUS
62
2
100
AcDbLine
10
1061.720000000000
20
2300.536000000000
30
0.0
11
1066.720000000000
21
2300.536000000000
31
0.0
0
LINE
5
937
100
AcDbEntity
8
0-6戸当り
6
CONTINUOUS
62
2
100
AcDbLine
10
1064.220000000000
20
2266.822000000000
30
0.0
11
1064.220000000000
21
2271.023000000000
31
0.0
0
LINE
5
938
100
AcDbEntity
8
0-6戸当り
6
CONTINUOUS
62
2
100
AcDbLine
10
1074.220000000000
20
2266.822000000000
30
0.0
11
1074.220000000000
21
2271.023000000000
31
0.0
0
LINE
5
939
100
AcDbEntity
8
0-6戸当り
6
CONTINUOUS
62
2
100
AcDbLine
10
1158.720000000000
20
2232.422000000000
30
0.0
11
1158.720000000000
21
2242.422000000000
31
0.0
0
LINE
5
93a
100
AcDbEntity
8
0-6戸当り
6
CONTINUOUS
62
2
100
AcDbLine
10
1139.720000000000
20
2232.422000000000
30
0.0
11
1139.720000000000
21
2242.422000000000
31
0.0
0
LINE
5
93b
100
AcDbEntity
8
0-6戸当り
6
CONTINUOUS
62
2
100
AcDbLine
10
1139.720000000000
20
2232.422000000000
30
0.0
11
1158.720000000000
21
2232.422000000000
31
0.0
0
LINE
5
93c
100
AcDbEntity
8
0-6戸当り
6
CONTINUOUS
62
2
100
AcDbLine
10
1143.221000000000
20
2224.822000000000
30
0.0
11
1155.220000000000
21
2224.822000000000
31
0.0
0
LINE
5
93d
100
AcDbEntity
8
0-6戸当り
6
CONTINUOUS
62
2
100
AcDbLine
10
1145.470000000000
20
2224.822000000000
30
0.0
11
1145.470000000000
21
2232.422000000000
31
0.0
0
LINE
5
93e
100
AcDbEntity
8
0-6戸当り
6
CONTINUOUS
62
2
100
AcDbLine
10
1143.221000000000
20
2224.822000000000
30
0.0
11
1143.221000000000
21
2232.422000000000
31
0.0
0
LINE
5
93f
100
AcDbEntity
8
0-6戸当り
6
CONTINUOUS
62
2
100
AcDbLine
10
1152.970000000000
20
2224.822000000000
30
0.0
11
1152.970000000000
21
2232.422000000000
31
0.0
0
LINE
5
940
100
AcDbEntity
8
0-6戸当り
6
CONTINUOUS
62
2
100
AcDbLine
10
1155.220000000000
20
2224.822000000000
30
0.0
11
1155.220000000000
21
2232.422000000000
31
0.0
0
LINE
5
941
100
AcDbEntity
8
0-6戸当り
6
CONTINUOUS
62
2
100
AcDbLine
10
1149.220000000000
20
2233.271000000000
30
0.0
11
1149.220000000000
21
2242.422000000000
31
0.0
0
ARC
5
942
100
AcDbEntity
8
0-6戸当り
6
CONTINUOUS
62
2
100
AcDbCircle
10
1153.970000000000
20
2246.142000000000
30
0.0
40
13.720000000000
100
AcDbArc
50
249.744000000000
51
290.256000000000
0
ARC
5
943
100
AcDbEntity
8
0-6戸当り
6
CONTINUOUS
62
2
100
AcDbCircle
10
1144.470000000000
20
2246.142000000000
30
0.0
40
13.720000000000
100
AcDbArc
50
249.744000000000
51
290.256000000000
0
ARC
5
944
100
AcDbEntity
8
0-6戸当り
6
CONTINUOUS
62
2
100
AcDbCircle
10
1149.220000000000
20
2243.901000000000
30
0.0
40
20.000000000000
100
AcDbArc
50
252.543000000000
51
287.457000000000
0
LINE
5
945
100
AcDbEntity
8
0-6戸当り
6
CONTINUOUS
62
2
100
AcDbLine
10
1158.720000000000
20
2242.422000000000
30
0.0
11
1158.720000000000
21
2252.422000000000
31
0.0
0
LINE
5
946
100
AcDbEntity
8
0-6戸当り
6
CONTINUOUS
62
2
100
AcDbLine
10
1139.720000000000
20
2242.422000000000
30
0.0
11
1139.720000000000
21
2252.422000000000
31
0.0
0
LINE
5
947
100
AcDbEntity
8
0-6戸当り
6
CONTINUOUS
62
2
100
AcDbLine
10
1139.720000000000
20
2242.422000000000
30
0.0
11
1158.720000000000
21
2242.422000000000
31
0.0
0
LINE
5
948
100
AcDbEntity
8
0-6戸当り
6
CONTINUOUS
62
2
100
AcDbLine
10
1149.220000000000
20
2243.271000000000
30
0.0
11
1149.220000000000
21
2252.422000000000
31
0.0
0
ARC
5
949
100
AcDbEntity
8
0-6戸当り
6
CONTINUOUS
62
2
100
AcDbCircle
10
1153.970000000000
20
2256.142000000000
30
0.0
40
13.720000000000
100
AcDbArc
50
249.744000000000
51
290.256000000000
0
ARC
5
94a
100
AcDbEntity
8
0-6戸当り
6
CONTINUOUS
62
2
100
AcDbCircle
10
1144.470000000000
20
2256.142000000000
30
0.0
40
13.720000000000
100
AcDbArc
50
249.744000000000
51
290.256000000000
0
LINE
5
94b
100
AcDbEntity
8
0-9扉体
6
CONTINUOUS
62
3
100
AcDbLine
10
1104.220000000000
20
2238.822000000000
30
0.0
11
1139.720000000000
21
2238.822000000000
31
0.0
0
LINE
5
94c
100
AcDbEntity
8
0-9扉体
6
CONTINUOUS
62
2
100
AcDbLine
10
1158.720000000000
20
2238.822000000000
30
0.0
11
1181.620000000000
21
2238.822000000000
31
0.0
0
LINE
5
94d
100
AcDbEntity
8
0-9扉体
6
CONTINUOUS
62
3
100
AcDbLine
10
1104.220000000000
20
2232.822000000000
30
0.0
11
1139.720000000000
21
2232.822000000000
31
0.0
0
LINE
5
94e
100
AcDbEntity
8
0-9扉体
6
CONTINUOUS
62
3
100
AcDbLine
10
1158.720000000000
20
2232.822000000000
30
0.0
11
1170.720000000000
21
2232.822000000000
31
0.0
0
LINE
5
94f
100
AcDbEntity
8
0-9扉体
6
CONTINUOUS
62
2
100
AcDbLine
10
1158.720000000000
20
2250.335489868892
30
0.0
11
1160.809000000000
21
2252.422000000000
31
0.0
0
LINE
5
950
100
AcDbEntity
8
0-9扉体
6
CONTINUOUS
62
2
100
AcDbLine
10
1158.720000000000
20
2248.919000000000
30
0.0
11
1164.623000000000
21
2254.822000000000
31
0.0
0
LINE
5
951
100
AcDbEntity
8
0-9扉体
6
CONTINUOUS
62
2
100
AcDbLine
10
1176.907000000000
20
2238.822000000000
30
0.0
11
1181.620000000000
21
2243.535000000000
31
0.0
0
LINE
5
952
100
AcDbEntity
8
0-9扉体
6
CONTINUOUS
62
2
100
AcDbLine
10
1182.907000000000
20
2244.822000000000
30
0.0
11
1192.907000000000
21
2254.822000000000
31
0.0
0
LINE
5
953
100
AcDbEntity
8
0-9扉体
6
CONTINUOUS
62
2
100
AcDbLine
10
1120.338000000000
20
2238.822000000000
30
0.0
11
1136.220000000000
21
2254.703007437036
31
0.0
0
LINE
5
954
100
AcDbEntity
8
0-9扉体
6
CONTINUOUS
62
2
100
AcDbLine
10
1155.220000000000
20
2227.822000000000
30
0.0
11
1170.720000000000
21
2227.822000000000
31
0.0
0
LINE
5
955
100
AcDbEntity
8
0-9扉体
6
CONTINUOUS
62
2
100
AcDbLine
10
1144.220000000000
20
2189.822000000000
30
0.0
11
1144.220000000000
21
2224.536083268963
31
0.0
0
LINE
5
956
100
AcDbEntity
8
0-9扉体
6
CONTINUOUS
62
2
100
AcDbLine
10
1240.976000000000
20
2246.322000000000
30
0.0
11
1249.476000000000
21
2254.822000000000
31
0.0
0
LINE
5
957
100
AcDbEntity
8
0-9扉体
6
CONTINUOUS
62
2
100
AcDbLine
10
1239.561320000000
20
2246.322000000000
30
0.0
11
1248.062000000000
21
2254.822000000000
31
0.0
0
LINE
5
958
100
AcDbEntity
8
0-9扉体
6
CONTINUOUS
62
2
100
AcDbLine
10
1247.618000000000
20
2238.822000000000
30
0.0
11
1263.618000000000
21
2254.822000000000
31
0.0
0
LINE
5
959
100
AcDbEntity
8
0-6戸当り
6
CONTINUOUS
62
2
100
AcDbLine
10
2458.752000000000
20
1236.363000000000
30
0.0
11
2458.752000000000
21
1218.362000000000
31
0.0
0
LINE
5
95a
100
AcDbEntity
8
0-6戸当り
6
CONTINUOUS
62
2
100
AcDbLine
10
2459.553000000000
20
1232.549000000000
30
0.0
11
2468.502000000000
21
1232.549000000000
31
0.0
0
LINE
5
95b
100
AcDbEntity
8
0-6戸当り
6
CONTINUOUS
62
2
100
AcDbLine
10
2459.553000000000
20
1222.176000000000
30
0.0
11
2468.502000000000
21
1222.176000000000
31
0.0
0
LINE
5
95c
100
AcDbEntity
8
0-6戸当り
6
CONTINUOUS
62
2
100
AcDbLine
10
2458.752000000000
20
1236.363000000000
30
0.0
11
2459.211000000000
21
1237.158000000000
31
0.0
0
LINE
5
95d
100
AcDbEntity
8
0-6戸当り
6
CONTINUOUS
62
2
100
AcDbLine
10
2458.752000000000
20
1218.362000000000
30
0.0
11
2459.211000000000
21
1217.567000000000
31
0.0
0
ARC
5
95e
100
AcDbEntity
8
0-6戸当り
6
CONTINUOUS
62
2
100
AcDbCircle
10
2463.373000000000
20
1235.150000000000
30
0.0
40
4.621000000000
100
AcDbArc
50
145.757000000000
51
214.243000000000
0
ARC
5
95f
100
AcDbEntity
8
0-6戸当り
6
CONTINUOUS
62
2
100
AcDbCircle
10
2475.942000000000
20
1227.362000000000
30
0.0
40
17.190000000000
100
AcDbArc
50
162.440000000000
51
197.560000000000
0
ARC
5
960
100
AcDbEntity
8
0-6戸当り
6
CONTINUOUS
62
2
100
AcDbCircle
10
2463.373000000000
20
1219.575000000000
30
0.0
40
4.621000000000
100
AcDbArc
50
145.757000000000
51
214.243000000000
0
LINE
5
961
100
AcDbEntity
8
0-6戸当り
6
CONTINUOUS
62
2
100
AcDbLine
10
2450.902000000000
20
1233.362000000000
30
0.0
11
2450.902000000000
21
1221.362000000000
31
0.0
0
LINE
5
962
100
AcDbEntity
8
0-6戸当り
6
CONTINUOUS
62
2
100
AcDbLine
10
2450.902000000000
20
1233.362000000000
30
0.0
11
2458.752000000000
21
1233.362000000000
31
0.0
0
LINE
5
963
100
AcDbEntity
8
0-6戸当り
6
CONTINUOUS
62
2
100
AcDbLine
10
2450.902000000000
20
1231.113000000000
30
0.0
11
2458.752000000000
21
1231.113000000000
31
0.0
0
LINE
5
964
100
AcDbEntity
8
0-6戸当り
6
CONTINUOUS
62
2
100
AcDbLine
10
2450.902000000000
20
1223.612000000000
30
0.0
11
2458.752000000000
21
1223.612000000000
31
0.0
0
LINE
5
965
100
AcDbEntity
8
0-6戸当り
6
CONTINUOUS
62
2
100
AcDbLine
10
2450.902000000000
20
1221.362000000000
30
0.0
11
2458.752000000000
21
1221.362000000000
31
0.0
0
ARC
5
966
100
AcDbEntity
8
0-6戸当り
6
CONTINUOUS
62
2
100
AcDbCircle
10
2469.981000000000
20
1227.362000000000
30
0.0
40
20.000000000000
100
AcDbArc
50
162.543000000000
51
197.457000000000
0
LINE
5
967
100
AcDbEntity
8
0-6戸当り
6
CONTINUOUS
62
2
100
AcDbLine
10
2469.303000000000
20
1216.974000000000
30
0.0
11
2478.252000000000
21
1216.974000000000
31
0.0
0
LINE
5
968
100
AcDbEntity
8
0-6戸当り
6
CONTINUOUS
62
2
100
AcDbLine
10
2469.303000000000
20
1237.750000000000
30
0.0
11
2478.252000000000
21
1237.750000000000
31
0.0
0
LINE
5
969
100
AcDbEntity
8
0-6戸当り
6
CONTINUOUS
62
2
100
AcDbLine
10
2468.502000000000
20
1236.363000000000
30
0.0
11
2468.502000000000
21
1218.362000000000
31
0.0
0
LINE
5
96a
100
AcDbEntity
8
0-6戸当り
6
CONTINUOUS
62
2
100
AcDbLine
10
2469.303000000000
20
1232.549000000000
30
0.0
11
2478.252000000000
21
1232.549000000000
31
0.0
0
LINE
5
96b
100
AcDbEntity
8
0-6戸当り
6
CONTINUOUS
62
2
100
AcDbLine
10
2469.303000000000
20
1222.176000000000
30
0.0
11
2478.252000000000
21
1222.176000000000
31
0.0
0
LINE
5
96c
100
AcDbEntity
8
0-6戸当り
6
CONTINUOUS
62
2
100
AcDbLine
10
2468.502000000000
20
1236.363000000000
30
0.0
11
2468.961000000000
21
1237.158000000000
31
0.0
0
LINE
5
96d
100
AcDbEntity
8
0-6戸当り
6
CONTINUOUS
62
2
100
AcDbLine
10
2468.502000000000
20
1218.362000000000
30
0.0
11
2468.961000000000
21
1217.567000000000
31
0.0
0
ARC
5
96e
100
AcDbEntity
8
0-6戸当り
6
CONTINUOUS
62
2
100
AcDbCircle
10
2473.123000000000
20
1235.150000000000
30
0.0
40
4.621000000000
100
AcDbArc
50
145.757000000000
51
214.243000000000
0
ARC
5
96f
100
AcDbEntity
8
0-6戸当り
6
CONTINUOUS
62
2
100
AcDbCircle
10
2485.692000000000
20
1227.362000000000
30
0.0
40
17.190000000000
100
AcDbArc
50
162.440000000000
51
197.560000000000
0
ARC
5
970
100
AcDbEntity
8
0-6戸当り
6
CONTINUOUS
62
2
100
AcDbCircle
10
2473.123000000000
20
1219.575000000000
30
0.0
40
4.621000000000
100
AcDbArc
50
145.757000000000
51
214.243000000000
0
LINE
5
971
100
AcDbEntity
8
0-6戸当り
6
CONTINUOUS
62
2
100
AcDbLine
10
2459.553000000000
20
1237.750000000000
30
0.0
11
2468.502000000000
21
1237.750000000000
31
0.0
0
POLYLINE
5
972
100
AcDbEntity
8
0-6戸当り
6
CONTINUOUS
62
  2
100
AcDb2dPolyline
66
1
10
0.0
20
0.0
30
0.0
70
0
0
VERTEX
5
973
100
AcDbEntity
8
0-6戸当り
6
CONTINUOUS
62
  2
100
AcDbVertex
100
AcDb2dVertex
10
2459.553000000000
20
1216.974000000000
30
0.0
0
VERTEX
5
974
100
AcDbEntity
8
0-6戸当り
6
CONTINUOUS
62
  2
100
AcDbVertex
100
AcDb2dVertex
10
2468.502000000000
20
1216.974000000000
30
0.0
0
VERTEX
5
975
100
AcDbEntity
8
0-6戸当り
6
CONTINUOUS
62
  2
100
AcDbVertex
100
AcDb2dVertex
10
2468.502000000000
20
1237.750000000000
30
0.0
0
SEQEND
5
976
100
AcDbEntity
8
0-6戸当り
0
TEXT
5
977
100
AcDbEntity
8
0-7図枠
62
7
370
-3
100
AcDbText
10
3235.673
20
269.432
30
0.0
40
37.807
41
0.714
50
0.000
1
R5.12.1
72
1
11
3312.500
21
285.000
31
0.0
100
AcDbText
73
2
0
TEXT
5
978
100
AcDbEntity
8
0-A文字
62
7
370
-3
100
AcDbText
10
3071.801
20
756.840
30
0.0
40
29.405
1
　　　塗装とし、色調はグレー（マンセル値Ｎ７）
41
0.856
50
0.000
100
AcDbText
0
ARC
5
979
100
AcDbEntity
8
0-9扉体
6
CONTINUOUS
62
2
100
AcDbCircle
10
2454.652000000000
20
1212.362000000000
30
0.0
40
16.000000000000
100
AcDbArc
50
106.965353289381
51
376.753000000000
0
ENDSEC
 0
SECTION
  2
OBJECTS
 0
DICTIONARY
  5
C
100
AcDbDictionary
  3
ACAD_GROUP
350
D
  3
ACAD_MLINESTYLE
350
E
 0
DICTIONARY
  5
D
102
{ACAD_REACTORS
102
}
100
AcDbDictionary
 0
DICTIONARY
  5
E
102
{ACAD_REACTORS
102
}
100
AcDbDictionary
  3
STANDARD
350
13
0
MLINESTYLE
  5
13
102
{ACAD_REACTORS
102
}
100
AcDbMlineStyle
  2
STANDARD
 70
    0
3

62
256
51
90.0
52
90.0
71
0
0
ACDBPLACEHOLDER
  5
14
102
{ACAD_REACTORS
102
}
0
ENDSEC
0
EOF
