0
SECTION
2
HEADER
9
$ACADVER
1
AC1015
9
$ACADMAINTVER
 70
6
9
$DWGCODEPAGE
3
ANSI_932
9
$EXTMIN
10
0.000
20
0.000
30
0.0
9
$EXTMAX
10
4200.000
20
2970.000
30
0.0
9
$LIMMIN
10
0.000
20
0.000
9
$LIMMAX
10
4200.000
20
2970.000
9
$DIMSCALE
40
10.000000
9
$LTSCALE
40
10.000
9
$PDMODE
70
0
9
$PDSIZE
40
40.0
9
$HANDSEED
5
62073
9
$UNITMODE
70
0
9
$VISRETAIN
70
0
9
$PLINEGEN
70
0
9
$PSLTSCALE
70
1
9
$TREEDEPTH
70
3020
9
$CMLSTYLE
2
STANDARD
9
$CMLJUST
70
0
9
$CMLSCALE
40
1.0
9
$PROXYGRAPHICS
70
1
9
$MEASUREMENT
70
0
9
$CELWEIGHT
370
-1
9
$ENDCAPS
280
0
9
$JOINSTYLE
280
0
9
$LWDISPLAY
290
0
9
$INSUNITS
70
0
9
$HYPERLINKBASE
1

9
$STYLESHEET
1

9
$XEDIT
290
1
9
$CEPSNTYPE
380
0
9
$PSTYLEMODE
290
1
9
$FINGERPRINTGUID
2
{5F082321-0195-11D3-BDFB-0060B0CD5109}
9
$VERSIONGUID
2
{12943756-294D-11D3-98C2-0060B087942D}
9
$EXTNAMES
290
1
9
$PSVPSCALE
40
0.0
9
$OLESTARTUP
290
0
0
ENDSEC
0
SECTION
  2
CLASSES
0
ENDSEC
0
SECTION
2
TABLES
0
TABLE
2
VPORT
5
190
100
AcDbSymbolTable
70
2
0
VPORT
5
191
100
AcDbSymbolTableRecord
100
AcDbViewportTableRecord
2
*ACTIVE
70
0
10
0.0
20
0.0
11
1.0
21
1.0
12
2100.000
22
1485.000
13
0.0
23
0.0
14
1.0
24
1.0
15
0.0
25
0.0
16
0.0
26
0.0
36
1.0
17
0.0
27
0.0
37
0.0
40
3043.478
41
2.0
42
50.0
43
0.0
44
0.0
50
0.0
51
0.0
71
0
72
1000
73
1
74
1
75
0
76
0
77
0
78
0
0
ENDTAB
0
TABLE
2
LTYPE
5
1f4
100
AcDbSymbolTable
70
9
0
LTYPE
5
1f5
100
AcDbSymbolTableRecord
100
AcDbLinetypeTableRecord
2
BYBLOCK
70
 64
3

72
 65
73
  0
40
0.0
0
LTYPE
5
1f6
100
AcDbSymbolTableRecord
100
AcDbLinetypeTableRecord
2
BYLAYER
70
 64
3

72
 65
73
  0
40
0.0
0
LTYPE
5
1f7
100
AcDbSymbolTableRecord
100
AcDbLinetypeTableRecord
2
CONTINUOUS
70
64
3
SolidLine
72
65
73
0
40
0.0
0
LTYPE
5
1f8
100
AcDbSymbolTableRecord
100
AcDbLinetypeTableRecord
2
DOT
70
64
3
--  --  --  --  --  --  --  --     
72
65
73
2
40
3.000
49
1.000
74
0
49
-2.000
74
0
0
LTYPE
5
1f9
100
AcDbSymbolTableRecord
100
AcDbLinetypeTableRecord
2
DASHED
70
64
3
----    ----    ----    ----    
72
65
73
2
40
5.000
49
2.000
74
0
49
-3.000
74
0
0
LTYPE
5
1fa
100
AcDbSymbolTableRecord
100
AcDbLinetypeTableRecord
2
DASHED2
70
64
3
------  ------  ------  ------ 
72
65
73
2
40
10.000
49
4.000
74
0
49
-6.000
74
0
0
LTYPE
5
1fb
100
AcDbSymbolTableRecord
100
AcDbLinetypeTableRecord
2
CENTER
70
64
3
----- - ----- - ----- - ----- - 
72
65
73
4
40
10.000
49
6.000
74
0
49
-3.000
74
0
49
1.000
74
0
49
-3.000
74
0
0
LTYPE
5
1fc
100
AcDbSymbolTableRecord
100
AcDbLinetypeTableRecord
2
CENTER2
70
64
3
----------  --  ----------  -- 
72
65
73
4
40
17.000
49
12.000
74
0
49
-5.000
74
0
49
2.000
74
0
49
-5.000
74
0
0
LTYPE
5
1fd
100
AcDbSymbolTableRecord
100
AcDbLinetypeTableRecord
2
PHANTOM
70
64
3
--- - - --- - - --- - - --- - -
72
65
73
6
40
13.000
49
5.000
74
0
49
-3.000
74
0
49
1.000
74
0
49
-3.000
74
0
49
1.000
74
0
49
-3.000
74
0
0
LTYPE
5
1fe
100
AcDbSymbolTableRecord
100
AcDbLinetypeTableRecord
2
PHANTOM2
70
64
3
--------  -  -  --------  -  -
72
65
73
6
40
20.000
49
6.000
74
0
49
-5.000
74
0
49
2.000
74
0
49
-5.000
74
0
49
2.000
74
0
49
-5.000
74
0
0
LTYPE
5
1ff
100
AcDbSymbolTableRecord
100
AcDbLinetypeTableRecord
2
HIDDEN
70
64
3
-   -   -   -   -   -   -   -   
72
65
73
2
40
3.000
49
0.500
74
0
49
-2.500
74
0
0
ENDTAB
0
TABLE
2
STYLE
5
200
100
AcDbSymbolTable
70
1
0
STYLE
5
201
100
AcDbSymbolTableRecord
100
AcDbTextStyleTableRecord
2
STANDARD
70
0
40
0.0
41
1.0
50
0.0
71
0
42
0.0
3
txt.shx
4
extfont.shx
0
STYLE
5
202
100
AcDbSymbolTableRecord
100
AcDbTextStyleTableRecord
2
TATEGAKI
70
4
40
0.0
41
1.0
50
0.0
71
0
42
0.0
3
txt.shx
4
extfont.shx
0
STYLE
5
203
100
AcDbSymbolTableRecord
100
AcDbTextStyleTableRecord
2
DIM
70
0
40
0.0
41
0.75
50
0.0
71
0
42
0.0
3
txt.shx
4
extfont.shx
0
STYLE
5
204
100
AcDbSymbolTableRecord
100
AcDbTextStyleTableRecord
2
_Gothic_
70
0
40
1.0
41
1.0
50
0.0
71
0
42
10.0
3

4

1001
ACAD
1000
MS Gothic
1071
32817
0
STYLE
5
205
100
AcDbSymbolTableRecord
100
AcDbTextStyleTableRecord
2
_TateGothic_
70
4
40
0.0
41
1.0
50
0.0
71
0
42
0.0
3
@MS Gothic
4

0
ENDTAB
0
TABLE
2
VIEW
5
206
100
AcDbSymbolTable
70
0
0
ENDTAB
0
TABLE
2
UCS
5
207
100
AcDbSymbolTable
70
0
0
ENDTAB
0
TABLE
2
APPID
5
208
100
AcDbSymbolTable
70
1
0
APPID
5
209
100
AcDbSymbolTableRecord
100
AcDbRegAppTableRecord
2
ACAD
70
0
0
ENDTAB
0
TABLE
2
DIMSTYLE
5
403
330
0
100
AcDbSymbolTable
70
1
100
AcDbDimStyleTable
71
0
0
DIMSTYLE
105
404
330
402
100
AcDbSymbolTableRecord
100
AcDbDimStyleTableRecord
2
JAC_DIM
70
0
41
20.000
42
0.000
44
0.0
73
0
74
0
77
1
78
8
79
2
140
0.000
170
0
171
2
172
0
173
0
174
0
175
0
176
0
177
0
178
0
270
2
271
0
272
0
273
2
274
2
340
201
275
0
280
0
281
0
282
0
283
0
284
0
285
0
286
0
287
3
288
0
0
ENDTAB
0
TABLE
2
BLOCK_RECORD
5
405
100
AcDbSymbolTable
70
0
0
BLOCK_RECORD
5
406
100
AcDbSymbolTableRecord
100
AcDbBlockTableRecord
2
*MODEL_SPACE
0
BLOCK_RECORD
5
407
100
AcDbSymbolTableRecord
100
AcDbBlockTableRecord
2
*PAPER_SPACE
0
BLOCK_RECORD
5
408
100
AcDbSymbolTableRecord
100
AcDbBlockTableRecord
2
_JACCONVERT_
0
ENDTAB
0
TABLE
2
LAYER
5
409
100
AcDbSymbolTable
70
10
0
LAYER
5
40a
100
AcDbSymbolTableRecord
100
AcDbLayerTableRecord
2
0
70
0
62
7
6
CONTINUOUS
370
-3
390
14
0
LAYER
5
40b
100
AcDbSymbolTableRecord
100
AcDbLayerTableRecord
2
0-3RC
70
0
62
7
6
CONTINUOUS
370
-3
390
14
0
LAYER
5
40c
100
AcDbSymbolTableRecord
100
AcDbLayerTableRecord
2
0-4陰線
70
0
62
7
6
CONTINUOUS
370
-3
390
14
0
LAYER
5
40d
100
AcDbSymbolTableRecord
100
AcDbLayerTableRecord
2
0-5基準線
70
0
62
7
6
CONTINUOUS
370
-3
390
14
0
LAYER
5
40e
100
AcDbSymbolTableRecord
100
AcDbLayerTableRecord
2
0-6戸当り
70
0
62
7
6
CONTINUOUS
370
-3
390
14
0
LAYER
5
40f
100
AcDbSymbolTableRecord
100
AcDbLayerTableRecord
2
0-7図枠
70
0
62
7
6
CONTINUOUS
370
-3
390
14
0
LAYER
5
410
100
AcDbSymbolTableRecord
100
AcDbLayerTableRecord
2
0-8寸法
70
0
62
7
6
CONTINUOUS
370
-3
390
14
0
LAYER
5
411
100
AcDbSymbolTableRecord
100
AcDbLayerTableRecord
2
0-9扉体
70
0
62
7
6
CONTINUOUS
370
-3
390
14
0
LAYER
5
412
100
AcDbSymbolTableRecord
100
AcDbLayerTableRecord
2
0-A文字
70
0
62
7
6
CONTINUOUS
370
-3
390
14
0
LAYER
5
413
100
AcDbSymbolTableRecord
100
AcDbLayerTableRecord
2
F-F_J_ADD
70
0
62
-7
6
CONTINUOUS
290
0
370
-3
390
14
0
ENDTAB
0
ENDSEC
0
SECTION
2
BLOCKS
0
BLOCK
5
414
100
AcDbEntity
67
1
8
0
100
AcDbBlockBegin
2
*MODEL_SPACE
70
0
10
0.0
20
0.0
30
0.0
3
*MODEL_SPACE
1

0
ENDBLK
5
415
100
AcDbEntity
8
0
100
AcDbBlockEnd
0
BLOCK
5
416
100
AcDbEntity
67
1
8
0
100
AcDbBlockBegin
2
*PAPER_SPACE
70
0
10
0.0
20
0.0
30
0.0
3
*PAPER_SPACE
1

0
ENDBLK
5
417
100
AcDbEntity
67
1
8
0
100
AcDbBlockEnd
0
BLOCK
5
418
100
AcDbEntity
8
0
100
AcDbBlockBegin
2
_JACCONVERT_
70
2
10
0.0
20
0.0
30
0.0
3
_JACCONVERT_
1
_JACCONVERT_
0
ATTDEF
5
419
100
AcDbEntity
8
0
62
0
100
AcDbText
10
0.0
20
0.0
30
0.0
40
1.0
1
User:33307E08109409567083093083089083760830E50960850900C608B4808D6408F6408F4F08E
100
AcDbAttributeDefinition
3

2
USER
70
8
0
ATTDEF
5
41a
100
AcDbEntity
8
0
62
0
100
AcDbText
10
0.0
20
2.0
30
0.0
40
1.0
1
Date:24/01/30 10:35
100
AcDbAttributeDefinition
3

2
REVDATE
70
8
0
ATTDEF
5
41b
100
AcDbEntity
8
0
62
0
100
AcDbText
10
0.0
20
4.0
30
0.0
40
1.0
1
File:_MFR-A0808K.dxf
100
AcDbAttributeDefinition
3

2
FNAME
70
8
0
ATTDEF
5
41c
100
AcDbEntity
8
0
62
0
100
AcDbText
10
0.0
20
6.0
30
0.0
40
1.0
1
JacConvert Version3.13p copyright (c) 2001-2021 K.Nakahara
100
AcDbAttributeDefinition
3

2
VER
70
8
0
ENDBLK
5
41d
100
AcDbEntity
67
1
8
0
100
AcDbBlockEnd
0
ENDSEC
0
SECTION
2
ENTITIES
0
LINE
5
41e
100
AcDbEntity
8
0-6戸当り
6
CONTINUOUS
62
7
100
AcDbLine
10
1158.162000000000
20
2370.247000000000
30
0.0
11
1158.162000000000
21
2380.247000000000
31
0.0
0
LINE
5
41f
100
AcDbEntity
8
0-6戸当り
6
CONTINUOUS
62
3
100
AcDbLine
10
985.662000000000
20
2390.247000000000
30
0.0
11
1011.663000000000
21
2390.247000000000
31
0.0
0
LINE
5
420
100
AcDbEntity
8
0-6戸当り
6
CONTINUOUS
62
2
100
AcDbLine
10
985.662000000000
20
2390.247000000000
30
0.0
11
985.662000000000
21
2392.647000000000
31
0.0
0
LINE
5
421
100
AcDbEntity
8
0-6戸当り
6
CONTINUOUS
62
2
100
AcDbLine
10
1011.663000000000
20
2390.247000000000
30
0.0
11
1011.663000000000
21
2392.647000000000
31
0.0
0
ARC
5
422
100
AcDbEntity
8
0-6戸当り
6
CONTINUOUS
62
6
100
AcDbCircle
10
2622.094000000000
20
1636.188000000000
30
0.0
40
17.000000000000
100
AcDbArc
50
94.195000000000
51
216.983000000000
0
LINE
5
423
100
AcDbEntity
8
0-8寸法
6
CONTINUOUS
62
4
100
AcDbLine
10
2987.094000000000
20
735.188000000000
30
0.0
11
2987.094000000000
21
1535.188000000000
31
0.0
0
LINE
5
424
100
AcDbEntity
8
0-8寸法
6
CONTINUOUS
62
4
100
AcDbLine
10
2987.094000000000
20
735.188000000000
30
0.0
11
2981.917000000000
21
754.506000000000
31
0.0
0
LINE
5
425
100
AcDbEntity
8
0-8寸法
6
CONTINUOUS
62
4
100
AcDbLine
10
2987.094000000000
20
735.188000000000
30
0.0
11
2992.270000000000
21
754.506000000000
31
0.0
0
POLYLINE
5
426
100
AcDbEntity
8
0-7図枠
6
CONTINUOUS
62
  7
100
AcDb2dPolyline
66
1
10
0.0
20
0.0
30
0.0
70
0
0
VERTEX
5
427
100
AcDbEntity
8
0-7図枠
6
CONTINUOUS
62
  7
100
AcDbVertex
100
AcDb2dVertex
10
4050.000000000000
20
2770.000000000000
30
0.0
0
VERTEX
5
428
100
AcDbEntity
8
0-7図枠
6
CONTINUOUS
62
  7
100
AcDbVertex
100
AcDb2dVertex
10
4050.000000000000
20
150.000000000000
30
0.0
0
VERTEX
5
429
100
AcDbEntity
8
0-7図枠
6
CONTINUOUS
62
  7
100
AcDbVertex
100
AcDb2dVertex
10
249.999000000000
20
150.000000000000
30
0.0
0
SEQEND
5
42a
100
AcDbEntity
8
0-7図枠
0
POLYLINE
5
42b
100
AcDbEntity
8
0-7図枠
6
CONTINUOUS
62
  7
100
AcDb2dPolyline
66
1
10
0.0
20
0.0
30
0.0
70
0
0
VERTEX
5
42c
100
AcDbEntity
8
0-7図枠
6
CONTINUOUS
62
  7
100
AcDbVertex
100
AcDb2dVertex
10
4050.000000000000
20
2770.000000000000
30
0.0
0
VERTEX
5
42d
100
AcDbEntity
8
0-7図枠
6
CONTINUOUS
62
  7
100
AcDbVertex
100
AcDb2dVertex
10
249.999000000000
20
2770.000000000000
30
0.0
0
VERTEX
5
42e
100
AcDbEntity
8
0-7図枠
6
CONTINUOUS
62
  7
100
AcDbVertex
100
AcDb2dVertex
10
249.999000000000
20
150.000000000000
30
0.0
0
SEQEND
5
42f
100
AcDbEntity
8
0-7図枠
0
LINE
5
430
100
AcDbEntity
8
0-8寸法
6
CONTINUOUS
62
4
100
AcDbLine
10
2987.094000000000
20
635.188000000000
30
0.0
11
2987.094000000000
21
735.188000000000
31
0.0
0
LINE
5
431
100
AcDbEntity
8
0-8寸法
6
CONTINUOUS
62
4
100
AcDbLine
10
2987.094000000000
20
635.188000000000
30
0.0
11
2981.917000000000
21
654.506000000000
31
0.0
0
LINE
5
432
100
AcDbEntity
8
0-8寸法
6
CONTINUOUS
62
4
100
AcDbLine
10
2987.094000000000
20
635.188000000000
30
0.0
11
2992.270000000000
21
654.506000000000
31
0.0
0
LINE
5
433
100
AcDbEntity
8
0-8寸法
6
CONTINUOUS
62
4
100
AcDbLine
10
2987.094000000000
20
735.188000000000
30
0.0
11
2981.917000000000
21
715.870000000000
31
0.0
0
LINE
5
434
100
AcDbEntity
8
0-8寸法
6
CONTINUOUS
62
4
100
AcDbLine
10
2987.094000000000
20
735.188000000000
30
0.0
11
2992.270000000000
21
715.870000000000
31
0.0
0
LINE
5
435
100
AcDbEntity
8
0-8寸法
6
CONTINUOUS
62
4
100
AcDbLine
10
2691.773000000000
20
635.188000000000
30
0.0
11
2997.094000000000
21
635.188000000000
31
0.0
0
LINE
5
436
100
AcDbEntity
8
0-8寸法
6
CONTINUOUS
62
4
100
AcDbLine
10
2850.461000000000
20
735.188000000000
30
0.0
11
2997.094000000000
21
735.188000000000
31
0.0
0
LINE
5
437
100
AcDbEntity
8
0-3RC
6
CONTINUOUS
62
7
100
AcDbLine
10
2675.094000000000
20
735.188000000000
30
0.0
11
2837.094000000000
21
735.188000000000
31
0.0
0
LINE
5
438
100
AcDbEntity
8
F-F_J_ADD
6
HIDDEN
62
109
100
AcDbLine
10
0.000000000000
20
2970.000000000000
30
0.0
11
4200.000000000000
21
2970.000000000000
31
0.0
0
LINE
5
439
100
AcDbEntity
8
F-F_J_ADD
6
HIDDEN
62
109
100
AcDbLine
10
4200.000000000000
20
2970.000000000000
30
0.0
11
4200.000000000000
21
0.000000000000
31
0.0
0
LINE
5
43a
100
AcDbEntity
8
F-F_J_ADD
6
HIDDEN
62
109
100
AcDbLine
10
0.000000000000
20
0.000000000000
30
0.0
11
4200.000000000000
21
0.000000000000
31
0.0
0
LINE
5
43b
100
AcDbEntity
8
F-F_J_ADD
6
HIDDEN
62
109
100
AcDbLine
10
0.000000000000
20
2970.000000000000
30
0.0
11
0.000000000000
21
0.000000000000
31
0.0
0
LINE
5
43c
100
AcDbEntity
8
0-9扉体
6
CONTINUOUS
62
4
100
AcDbLine
10
2655.094000000000
20
1590.188000000000
30
0.0
11
2649.094000000000
21
1590.188000000000
31
0.0
0
ARC
5
43d
100
AcDbEntity
8
0-9扉体
6
CONTINUOUS
62
3
100
AcDbCircle
10
2665.094000000000
20
1575.188000000000
30
0.0
40
10.000000000000
100
AcDbArc
50
270.000000000000
51
540.000000000000
0
ARC
5
43e
100
AcDbEntity
8
0-9扉体
6
CONTINUOUS
62
3
100
AcDbCircle
10
2665.094000000000
20
1575.188000000000
30
0.0
40
10.000000000000
100
AcDbArc
50
270.000000000000
51
540.000000000000
0
POLYLINE
5
43f
100
AcDbEntity
  8
0-8寸法
6
CONTINUOUS
62
4
100
AcDb2dPolyline
66
1
10
0
20
0
70
1
40
4.000
41
4.000
0
VERTEX
5
440
100
AcDbEntity
  8
0-8寸法
6
CONTINUOUS
62
4
100
AcDbVertex
100
AcDb2dVertex
10
2647.094
20
1335.187
30
0.0
42
1.000
0
VERTEX
5
441
100
AcDbEntity
  8
0-8寸法
6
CONTINUOUS
62
4
100
AcDbVertex
100
AcDb2dVertex
10
2651.094
20
1335.187
30
0.0
42
1.000
0
SEQEND
5
442
100
AcDbEntity
  8
0-8寸法
0
POLYLINE
5
443
100
AcDbEntity
  8
0-8寸法
6
CONTINUOUS
62
4
100
AcDb2dPolyline
66
1
10
0
20
0
70
1
40
4.000
41
4.000
0
VERTEX
5
444
100
AcDbEntity
  8
0-8寸法
6
CONTINUOUS
62
4
100
AcDbVertex
100
AcDb2dVertex
10
2647.094
20
1335.187
30
0.0
42
1.000
0
VERTEX
5
445
100
AcDbEntity
  8
0-8寸法
6
CONTINUOUS
62
4
100
AcDbVertex
100
AcDb2dVertex
10
2651.094
20
1335.187
30
0.0
42
1.000
0
SEQEND
5
446
100
AcDbEntity
  8
0-8寸法
0
LINE
5
447
100
AcDbEntity
8
0-9扉体
6
CONTINUOUS
62
3
100
AcDbLine
10
2655.094000000000
20
1525.188000000000
30
0.0
11
2663.094000000000
21
1525.188000000000
31
0.0
0
LINE
5
448
100
AcDbEntity
8
0-9扉体
6
CONTINUOUS
62
3
100
AcDbLine
10
2665.094000000000
20
1565.188000000000
30
0.0
11
2663.094000000000
21
1565.188000000000
31
0.0
0
LINE
5
449
100
AcDbEntity
8
0-9扉体
6
CONTINUOUS
62
3
100
AcDbLine
10
2663.094000000000
20
1564.188000000000
30
0.0
11
2669.094000000000
21
1564.188000000000
31
0.0
0
LINE
5
44a
100
AcDbEntity
8
0-9扉体
6
CONTINUOUS
62
3
100
AcDbLine
10
2663.094000000000
20
1526.188000000000
30
0.0
11
2669.094000000000
21
1526.188000000000
31
0.0
0
LINE
5
44b
100
AcDbEntity
8
0-9扉体
6
DOT
62
3
100
AcDbLine
10
2665.094000000000
20
1541.188000000000
30
0.0
11
2669.094000000000
21
1537.188000000000
31
0.0
0
LINE
5
44c
100
AcDbEntity
8
0-9扉体
6
DOT
62
3
100
AcDbLine
10
2665.094000000000
20
1549.188000000000
30
0.0
11
2669.094000000000
21
1553.188000000000
31
0.0
0
LINE
5
44d
100
AcDbEntity
8
0-9扉体
6
DOT
62
3
100
AcDbLine
10
2665.094000000000
20
1541.188000000000
30
0.0
11
2665.094000000000
21
1549.188000000000
31
0.0
0
LINE
5
44e
100
AcDbEntity
8
0-9扉体
6
DOT
62
3
100
AcDbLine
10
2649.094000000000
20
1549.188000000000
30
0.0
11
2665.094000000000
21
1549.188000000000
31
0.0
0
LINE
5
44f
100
AcDbEntity
8
0-9扉体
6
DOT
62
3
100
AcDbLine
10
2649.094000000000
20
1541.188000000000
30
0.0
11
2665.094000000000
21
1541.188000000000
31
0.0
0
LINE
5
450
100
AcDbEntity
8
0-9扉体
6
CONTINUOUS
62
3
100
AcDbLine
10
2647.494000000000
20
1536.187000000000
30
0.0
11
2649.094000000000
21
1536.187000000000
31
0.0
0
LINE
5
451
100
AcDbEntity
8
0-9扉体
6
CONTINUOUS
62
3
100
AcDbLine
10
2647.494000000000
20
1554.188000000000
30
0.0
11
2649.094000000000
21
1554.188000000000
31
0.0
0
LINE
5
452
100
AcDbEntity
8
0-9扉体
6
CONTINUOUS
62
3
100
AcDbLine
10
2634.094000000000
20
1541.188000000000
30
0.0
11
2634.094000000000
21
1549.188000000000
31
0.0
0
LINE
5
453
100
AcDbEntity
8
0-9扉体
6
CONTINUOUS
62
3
100
AcDbLine
10
2647.494000000000
20
1554.188000000000
30
0.0
11
2647.494000000000
21
1536.187000000000
31
0.0
0
LINE
5
454
100
AcDbEntity
8
0-9扉体
6
CONTINUOUS
62
7
100
AcDbLine
10
2640.994000000000
20
1538.688000000000
30
0.0
11
2641.574000000000
21
1537.682000000000
31
0.0
0
LINE
5
455
100
AcDbEntity
8
0-9扉体
6
CONTINUOUS
62
7
100
AcDbLine
10
2640.994000000000
20
1551.688000000000
30
0.0
11
2641.574000000000
21
1552.693000000000
31
0.0
0
LINE
5
456
100
AcDbEntity
8
0-9扉体
6
CONTINUOUS
62
7
100
AcDbLine
10
2640.994000000000
20
1538.688000000000
30
0.0
11
2640.994000000000
21
1551.688000000000
31
0.0
0
LINE
5
457
100
AcDbEntity
8
0-9扉体
6
CONTINUOUS
62
3
100
AcDbLine
10
2640.994000000000
20
1549.188000000000
30
0.0
11
2634.094000000000
21
1549.188000000000
31
0.0
0
LINE
5
458
100
AcDbEntity
8
0-9扉体
6
CONTINUOUS
62
3
100
AcDbLine
10
2640.994000000000
20
1541.188000000000
30
0.0
11
2634.094000000000
21
1541.188000000000
31
0.0
0
LINE
5
459
100
AcDbEntity
8
0-9扉体
6
CONTINUOUS
62
7
100
AcDbLine
10
2647.494000000000
20
1552.693000000000
30
0.0
11
2641.574000000000
21
1552.693000000000
31
0.0
0
LINE
5
45a
100
AcDbEntity
8
0-9扉体
6
CONTINUOUS
62
7
100
AcDbLine
10
2647.494000000000
20
1548.940000000000
30
0.0
11
2641.574000000000
21
1548.940000000000
31
0.0
0
LINE
5
45b
100
AcDbEntity
8
0-9扉体
6
CONTINUOUS
62
7
100
AcDbLine
10
2647.494000000000
20
1541.435000000000
30
0.0
11
2641.574000000000
21
1541.435000000000
31
0.0
0
LINE
5
45c
100
AcDbEntity
8
0-9扉体
6
CONTINUOUS
62
7
100
AcDbLine
10
2647.494000000000
20
1537.682000000000
30
0.0
11
2641.574000000000
21
1537.682000000000
31
0.0
0
LINE
5
45d
100
AcDbEntity
8
0-9扉体
6
CONTINUOUS
62
2
100
AcDbLine
10
2640.994000000000
20
1548.188000000000
30
0.0
11
2634.094000000000
21
1548.188000000000
31
0.0
0
LINE
5
45e
100
AcDbEntity
8
0-9扉体
6
CONTINUOUS
62
2
100
AcDbLine
10
2640.994000000000
20
1542.188000000000
30
0.0
11
2634.094000000000
21
1542.188000000000
31
0.0
0
LINE
5
45f
100
AcDbEntity
8
0-9扉体
6
CONTINUOUS
62
3
100
AcDbLine
10
2655.094000000000
20
745.187000000000
30
0.0
11
2663.094000000000
21
745.187000000000
31
0.0
0
LINE
5
460
100
AcDbEntity
8
0-9扉体
6
CONTINUOUS
62
3
100
AcDbLine
10
2665.094000000000
20
705.188000000000
30
0.0
11
2663.094000000000
21
705.188000000000
31
0.0
0
LINE
5
461
100
AcDbEntity
8
0-9扉体
6
CONTINUOUS
62
3
100
AcDbLine
10
2663.094000000000
20
706.188000000000
30
0.0
11
2669.094000000000
21
706.188000000000
31
0.0
0
LINE
5
462
100
AcDbEntity
8
0-9扉体
6
CONTINUOUS
62
3
100
AcDbLine
10
2663.094000000000
20
744.188000000000
30
0.0
11
2669.094000000000
21
744.188000000000
31
0.0
0
LINE
5
463
100
AcDbEntity
8
0-9扉体
6
DOT
62
3
100
AcDbLine
10
2665.094000000000
20
729.188000000000
30
0.0
11
2669.094000000000
21
733.188000000000
31
0.0
0
LINE
5
464
100
AcDbEntity
8
0-9扉体
6
DOT
62
3
100
AcDbLine
10
2665.094000000000
20
721.187000000000
30
0.0
11
2669.094000000000
21
717.187000000000
31
0.0
0
LINE
5
465
100
AcDbEntity
8
0-9扉体
6
DOT
62
3
100
AcDbLine
10
2665.094000000000
20
729.188000000000
30
0.0
11
2665.094000000000
21
721.187000000000
31
0.0
0
LINE
5
466
100
AcDbEntity
8
0-9扉体
6
DOT
62
3
100
AcDbLine
10
2649.094000000000
20
721.187000000000
30
0.0
11
2665.094000000000
21
721.187000000000
31
0.0
0
LINE
5
467
100
AcDbEntity
8
0-9扉体
6
DOT
62
3
100
AcDbLine
10
2649.094000000000
20
729.188000000000
30
0.0
11
2665.094000000000
21
729.188000000000
31
0.0
0
LINE
5
468
100
AcDbEntity
8
0-9扉体
6
CONTINUOUS
62
3
100
AcDbLine
10
2647.494000000000
20
734.188000000000
30
0.0
11
2649.094000000000
21
734.188000000000
31
0.0
0
LINE
5
469
100
AcDbEntity
8
0-9扉体
6
CONTINUOUS
62
3
100
AcDbLine
10
2647.494000000000
20
716.188000000000
30
0.0
11
2649.094000000000
21
716.188000000000
31
0.0
0
LINE
5
46a
100
AcDbEntity
8
0-9扉体
6
CONTINUOUS
62
3
100
AcDbLine
10
2634.094000000000
20
729.188000000000
30
0.0
11
2634.094000000000
21
721.187000000000
31
0.0
0
LINE
5
46b
100
AcDbEntity
8
0-9扉体
6
CONTINUOUS
62
3
100
AcDbLine
10
2647.494000000000
20
716.188000000000
30
0.0
11
2647.494000000000
21
734.188000000000
31
0.0
0
LINE
5
46c
100
AcDbEntity
8
0-5基準線
6
CENTER2
62
7
100
AcDbLine
10
2631.690000000000
20
725.188000000000
30
0.0
11
2670.618000000000
21
725.188000000000
31
0.0
0
LINE
5
46d
100
AcDbEntity
8
0-9扉体
6
CONTINUOUS
62
7
100
AcDbLine
10
2640.994000000000
20
731.688000000000
30
0.0
11
2641.574000000000
21
732.693000000000
31
0.0
0
LINE
5
46e
100
AcDbEntity
8
0-9扉体
6
CONTINUOUS
62
7
100
AcDbLine
10
2640.994000000000
20
718.688000000000
30
0.0
11
2641.574000000000
21
717.682000000000
31
0.0
0
LINE
5
46f
100
AcDbEntity
8
0-9扉体
6
CONTINUOUS
62
7
100
AcDbLine
10
2640.994000000000
20
731.688000000000
30
0.0
11
2640.994000000000
21
718.688000000000
31
0.0
0
LINE
5
470
100
AcDbEntity
8
0-9扉体
6
CONTINUOUS
62
3
100
AcDbLine
10
2640.994000000000
20
721.187000000000
30
0.0
11
2634.094000000000
21
721.187000000000
31
0.0
0
LINE
5
471
100
AcDbEntity
8
0-9扉体
6
CONTINUOUS
62
3
100
AcDbLine
10
2640.994000000000
20
729.188000000000
30
0.0
11
2634.094000000000
21
729.188000000000
31
0.0
0
LINE
5
472
100
AcDbEntity
8
0-9扉体
6
CONTINUOUS
62
7
100
AcDbLine
10
2647.494000000000
20
717.682000000000
30
0.0
11
2641.574000000000
21
717.682000000000
31
0.0
0
LINE
5
473
100
AcDbEntity
8
0-9扉体
6
CONTINUOUS
62
7
100
AcDbLine
10
2647.494000000000
20
721.435000000000
30
0.0
11
2641.574000000000
21
721.435000000000
31
0.0
0
LINE
5
474
100
AcDbEntity
8
0-9扉体
6
CONTINUOUS
62
7
100
AcDbLine
10
2647.494000000000
20
728.941000000000
30
0.0
11
2641.574000000000
21
728.941000000000
31
0.0
0
LINE
5
475
100
AcDbEntity
8
0-9扉体
6
CONTINUOUS
62
7
100
AcDbLine
10
2647.494000000000
20
732.693000000000
30
0.0
11
2641.574000000000
21
732.693000000000
31
0.0
0
LINE
5
476
100
AcDbEntity
8
0-9扉体
6
CONTINUOUS
62
2
100
AcDbLine
10
2640.994000000000
20
722.187000000000
30
0.0
11
2634.094000000000
21
722.187000000000
31
0.0
0
LINE
5
477
100
AcDbEntity
8
0-9扉体
6
CONTINUOUS
62
2
100
AcDbLine
10
2640.994000000000
20
728.187000000000
30
0.0
11
2634.094000000000
21
728.187000000000
31
0.0
0
LINE
5
478
100
AcDbEntity
8
0-5基準線
6
CENTER2
62
7
100
AcDbLine
10
2630.750000000000
20
1545.188000000000
30
0.0
11
2670.618000000000
21
1545.188000000000
31
0.0
0
LINE
5
479
100
AcDbEntity
8
0-9扉体
6
CONTINUOUS
62
4
100
AcDbLine
10
2606.094000000000
20
1596.488000000000
30
0.0
11
2632.094000000000
21
1596.488000000000
31
0.0
0
LINE
5
47a
100
AcDbEntity
8
0-9扉体
6
CONTINUOUS
62
4
100
AcDbLine
10
2606.094000000000
20
1596.488000000000
30
0.0
11
2606.094000000000
21
1594.188000000000
31
0.0
0
LINE
5
47b
100
AcDbEntity
8
0-9扉体
6
CONTINUOUS
62
4
100
AcDbLine
10
2632.094000000000
20
1596.488000000000
30
0.0
11
2632.094000000000
21
1594.188000000000
31
0.0
0
LINE
5
47c
100
AcDbEntity
8
0-9扉体
6
CONTINUOUS
62
4
100
AcDbLine
10
2608.344000000000
20
1599.487000000000
30
0.0
11
2608.344000000000
21
1596.488000000000
31
0.0
0
LINE
5
47d
100
AcDbEntity
8
0-9扉体
6
CONTINUOUS
62
4
100
AcDbLine
10
2629.844000000000
20
1599.487000000000
30
0.0
11
2629.844000000000
21
1596.488000000000
31
0.0
0
LINE
5
47e
100
AcDbEntity
8
0-9扉体
6
CONTINUOUS
62
7
100
AcDbLine
10
2609.594000000000
20
1609.488000000000
30
0.0
11
2628.594000000000
21
1609.488000000000
31
0.0
0
LINE
5
47f
100
AcDbEntity
8
0-9扉体
6
CONTINUOUS
62
7
100
AcDbLine
10
2609.594000000000
20
1609.488000000000
30
0.0
11
2608.124000000000
21
1608.639000000000
31
0.0
0
LINE
5
480
100
AcDbEntity
8
0-9扉体
6
CONTINUOUS
62
7
100
AcDbLine
10
2628.594000000000
20
1609.488000000000
30
0.0
11
2630.063000000000
21
1608.639000000000
31
0.0
0
LINE
5
481
100
AcDbEntity
8
0-9扉体
6
CONTINUOUS
62
7
100
AcDbLine
10
2608.124000000000
20
1599.487000000000
30
0.0
11
2608.124000000000
21
1608.639000000000
31
0.0
0
LINE
5
482
100
AcDbEntity
8
0-9扉体
6
CONTINUOUS
62
7
100
AcDbLine
10
2630.063000000000
20
1599.487000000000
30
0.0
11
2630.063000000000
21
1608.639000000000
31
0.0
0
LINE
5
483
100
AcDbEntity
8
0-9扉体
6
CONTINUOUS
62
4
100
AcDbLine
10
2608.124000000000
20
1599.487000000000
30
0.0
11
2630.063000000000
21
1599.487000000000
31
0.0
0
LINE
5
484
100
AcDbEntity
8
0-9扉体
6
CONTINUOUS
62
7
100
AcDbLine
10
2613.609000000000
20
1599.487000000000
30
0.0
11
2613.609000000000
21
1608.639000000000
31
0.0
0
LINE
5
485
100
AcDbEntity
8
0-9扉体
6
CONTINUOUS
62
7
100
AcDbLine
10
2624.579000000000
20
1599.487000000000
30
0.0
11
2624.579000000000
21
1608.639000000000
31
0.0
0
LINE
5
486
100
AcDbEntity
8
0-9扉体
6
CONTINUOUS
62
7
100
AcDbLine
10
2628.594000000000
20
1571.188000000000
30
0.0
11
2609.594000000000
21
1571.188000000000
31
0.0
0
LINE
5
487
100
AcDbEntity
8
0-9扉体
6
CONTINUOUS
62
7
100
AcDbLine
10
2628.594000000000
20
1571.188000000000
30
0.0
11
2630.063000000000
21
1572.036000000000
31
0.0
0
LINE
5
488
100
AcDbEntity
8
0-9扉体
6
CONTINUOUS
62
7
100
AcDbLine
10
2609.594000000000
20
1571.188000000000
30
0.0
11
2608.124000000000
21
1572.036000000000
31
0.0
0
LINE
5
489
100
AcDbEntity
8
0-9扉体
6
CONTINUOUS
62
7
100
AcDbLine
10
2630.063000000000
20
1579.188000000000
30
0.0
11
2630.063000000000
21
1572.036000000000
31
0.0
0
LINE
5
48a
100
AcDbEntity
8
0-9扉体
6
CONTINUOUS
62
7
100
AcDbLine
10
2608.124000000000
20
1579.188000000000
30
0.0
11
2608.124000000000
21
1572.036000000000
31
0.0
0
LINE
5
48b
100
AcDbEntity
8
0-9扉体
6
CONTINUOUS
62
7
100
AcDbLine
10
2624.579000000000
20
1579.188000000000
30
0.0
11
2624.579000000000
21
1572.036000000000
31
0.0
0
LINE
5
48c
100
AcDbEntity
8
0-9扉体
6
CONTINUOUS
62
7
100
AcDbLine
10
2613.609000000000
20
1579.188000000000
30
0.0
11
2613.609000000000
21
1572.036000000000
31
0.0
0
LINE
5
48d
100
AcDbEntity
8
0-9扉体
6
CONTINUOUS
62
4
100
AcDbLine
10
2613.094000000000
20
1619.188000000000
30
0.0
11
2625.094000000000
21
1619.188000000000
31
0.0
0
LINE
5
48e
100
AcDbEntity
8
0-9扉体
6
CONTINUOUS
62
4
100
AcDbLine
10
2613.094000000000
20
1619.188000000000
30
0.0
11
2613.094000000000
21
1609.488000000000
31
0.0
0
LINE
5
48f
100
AcDbEntity
8
0-9扉体
6
CONTINUOUS
62
4
100
AcDbLine
10
2625.094000000000
20
1619.188000000000
30
0.0
11
2625.094000000000
21
1609.488000000000
31
0.0
0
LINE
5
490
100
AcDbEntity
8
0-9扉体
6
CONTINUOUS
62
4
100
AcDbLine
10
2614.094000000000
20
1619.188000000000
30
0.0
11
2614.094000000000
21
1609.488000000000
31
0.0
0
LINE
5
491
100
AcDbEntity
8
0-9扉体
6
CONTINUOUS
62
4
100
AcDbLine
10
2624.094000000000
20
1619.188000000000
30
0.0
11
2624.094000000000
21
1609.488000000000
31
0.0
0
LINE
5
492
100
AcDbEntity
8
0-9扉体
6
CONTINUOUS
62
4
100
AcDbLine
10
2644.094000000000
20
1594.188000000000
30
0.0
11
2658.594000000000
21
1608.688000000000
31
0.0
0
LINE
5
493
100
AcDbEntity
8
0-5基準線
6
CENTER2
62
7
100
AcDbLine
10
2641.094000000000
20
1655.188000000000
30
0.0
11
2641.094000000000
21
1615.188000000000
31
0.0
0
LINE
5
494
100
AcDbEntity
8
0-9扉体
6
CONTINUOUS
62
4
100
AcDbLine
10
893.662000000000
20
1585.188000000000
30
0.0
11
1793.662000000000
21
1585.188000000000
31
0.0
0
LINE
5
495
100
AcDbEntity
8
0-9扉体
6
DOT
62
4
100
AcDbLine
10
899.662000000000
20
685.188000000000
30
0.0
11
899.662000000000
21
1585.188000000000
31
0.0
0
LINE
5
496
100
AcDbEntity
8
0-9扉体
6
DOT
62
4
100
AcDbLine
10
899.662000000000
20
1579.188000000000
30
0.0
11
1787.662000000000
21
1579.188000000000
31
0.0
0
LINE
5
497
100
AcDbEntity
8
0-9扉体
6
CONTINUOUS
62
4
100
AcDbLine
10
2619.094000000000
20
1599.487000000000
30
0.0
11
2616.094000000000
21
1596.488000000000
31
0.0
0
LINE
5
498
100
AcDbEntity
8
0-9扉体
6
CONTINUOUS
62
4
100
AcDbLine
10
2619.094000000000
20
1596.488000000000
30
0.0
11
2622.094000000000
21
1599.487000000000
31
0.0
0
LINE
5
499
100
AcDbEntity
8
0-9扉体
6
CONTINUOUS
62
4
100
AcDbLine
10
2623.594000000000
20
1659.188000000000
30
0.0
11
2594.094000000000
21
1594.188000000000
31
0.0
0
LINE
5
49a
100
AcDbEntity
8
0-5基準線
6
CENTER2
62
7
100
AcDbLine
10
2622.374000000000
20
1635.188000000000
30
0.0
11
2660.334000000000
21
1635.188000000000
31
0.0
0
LINE
5
49b
100
AcDbEntity
8
0-9扉体
6
CONTINUOUS
62
6
100
AcDbLine
10
2666.087000000000
20
685.237000000000
30
0.0
11
2675.045000000000
21
694.195000000000
31
0.0
0
LINE
5
49c
100
AcDbEntity
8
0-9扉体
6
CONTINUOUS
62
6
100
AcDbLine
10
2664.634000000000
20
685.198000000000
30
0.0
11
2675.083000000000
21
695.648000000000
31
0.0
0
LINE
5
49d
100
AcDbEntity
8
0-9扉体
6
CONTINUOUS
62
6
100
AcDbLine
10
2655.094000000000
20
702.528000000000
30
0.0
11
2663.094000000000
21
710.528000000000
31
0.0
0
LINE
5
49e
100
AcDbEntity
8
0-9扉体
6
CONTINUOUS
62
6
100
AcDbLine
10
2655.094000000000
20
703.942000000000
30
0.0
11
2663.094000000000
21
711.942000000000
31
0.0
0
LINE
5
49f
100
AcDbEntity
8
0-9扉体
6
CONTINUOUS
62
6
100
AcDbLine
10
2655.094000000000
20
716.670000000000
30
0.0
11
2663.094000000000
21
724.670000000000
31
0.0
0
LINE
5
4a0
100
AcDbEntity
8
0-9扉体
6
CONTINUOUS
62
6
100
AcDbLine
10
2655.094000000000
20
718.085000000000
30
0.0
11
2663.094000000000
21
726.085000000000
31
0.0
0
LINE
5
4a1
100
AcDbEntity
8
0-9扉体
6
CONTINUOUS
62
6
100
AcDbLine
10
2655.094000000000
20
730.813000000000
30
0.0
11
2663.094000000000
21
738.812000000000
31
0.0
0
LINE
5
4a2
100
AcDbEntity
8
0-9扉体
6
CONTINUOUS
62
6
100
AcDbLine
10
2655.094000000000
20
732.227000000000
30
0.0
11
2663.094000000000
21
740.227000000000
31
0.0
0
LINE
5
4a3
100
AcDbEntity
8
0-9扉体
6
CONTINUOUS
62
6
100
AcDbLine
10
2655.094000000000
20
744.955000000000
30
0.0
11
2655.326000000000
21
745.187000000000
31
0.0
0
LINE
5
4a4
100
AcDbEntity
8
0-9扉体
6
CONTINUOUS
62
6
100
AcDbLine
10
2656.607000000000
20
689.899000000000
30
0.0
11
2661.162000000000
21
694.454000000000
31
0.0
0
LINE
5
4a5
100
AcDbEntity
8
0-9扉体
6
CONTINUOUS
62
6
100
AcDbLine
10
2665.827000000000
20
699.120000000000
30
0.0
11
2670.383000000000
21
703.675000000000
31
0.0
0
LINE
5
4a6
100
AcDbEntity
8
0-9扉体
6
CONTINUOUS
62
6
100
AcDbLine
10
2656.103000000000
20
690.810000000000
30
0.0
11
2661.150000000000
21
695.857000000000
31
0.0
0
LINE
5
4a7
100
AcDbEntity
8
0-9扉体
6
CONTINUOUS
62
6
100
AcDbLine
10
2664.425000000000
20
699.131000000000
30
0.0
11
2669.472000000000
21
704.178000000000
31
0.0
0
LINE
5
4a8
100
AcDbEntity
8
0-9扉体
6
CONTINUOUS
62
6
100
AcDbLine
10
2660.769000000000
20
1525.188000000000
30
0.0
11
2663.094000000000
21
1527.513000000000
31
0.0
0
LINE
5
4a9
100
AcDbEntity
8
0-9扉体
6
CONTINUOUS
62
6
100
AcDbLine
10
2659.355000000000
20
1525.188000000000
30
0.0
11
2663.094000000000
21
1528.927000000000
31
0.0
0
LINE
5
4aa
100
AcDbEntity
8
0-9扉体
6
CONTINUOUS
62
6
100
AcDbLine
10
2655.094000000000
20
1533.655000000000
30
0.0
11
2663.094000000000
21
1541.655000000000
31
0.0
0
LINE
5
4ab
100
AcDbEntity
8
0-9扉体
6
CONTINUOUS
62
6
100
AcDbLine
10
2655.094000000000
20
1535.069000000000
30
0.0
11
2663.094000000000
21
1543.069000000000
31
0.0
0
LINE
5
4ac
100
AcDbEntity
8
0-9扉体
6
CONTINUOUS
62
6
100
AcDbLine
10
2655.094000000000
20
1547.797000000000
30
0.0
11
2663.094000000000
21
1555.797000000000
31
0.0
0
LINE
5
4ad
100
AcDbEntity
8
0-9扉体
6
CONTINUOUS
62
6
100
AcDbLine
10
2655.094000000000
20
1549.211000000000
30
0.0
11
2663.094000000000
21
1557.211000000000
31
0.0
0
LINE
5
4ae
100
AcDbEntity
8
0-9扉体
6
CONTINUOUS
62
6
100
AcDbLine
10
2655.138000000000
20
1576.126000000000
30
0.0
11
2664.156000000000
21
1585.144000000000
31
0.0
0
LINE
5
4af
100
AcDbEntity
8
0-9扉体
6
CONTINUOUS
62
6
100
AcDbLine
10
2655.458000000000
20
1577.860000000000
30
0.0
11
2662.422000000000
21
1584.824000000000
31
0.0
0
LINE
5
4b0
100
AcDbEntity
8
0-9扉体
6
CONTINUOUS
62
6
100
AcDbLine
10
2668.687000000000
20
1576.946000000000
30
0.0
11
2673.022000000000
21
1581.282000000000
31
0.0
0
LINE
5
4b1
100
AcDbEntity
8
0-9扉体
6
CONTINUOUS
62
6
100
AcDbLine
10
2655.094000000000
20
1561.939000000000
30
0.0
11
2664.402000000000
21
1571.248000000000
31
0.0
0
LINE
5
4b2
100
AcDbEntity
8
0-9扉体
6
CONTINUOUS
62
6
100
AcDbLine
10
2669.034000000000
20
1575.879000000000
30
0.0
11
2673.600000000000
21
1580.446000000000
31
0.0
0
LINE
5
4b3
100
AcDbEntity
8
0-A文字
6
CONTINUOUS
62
7
100
AcDbLine
10
2252.112000000000
20
1155.188000000000
30
0.0
11
2452.812000000000
21
1155.188000000000
31
0.0
0
LINE
5
4b4
100
AcDbEntity
8
0-A文字
6
CONTINUOUS
62
7
100
AcDbLine
10
2252.112000000000
20
1115.187000000000
30
0.0
11
2452.812000000000
21
1115.187000000000
31
0.0
0
LINE
5
4b5
100
AcDbEntity
8
0-A文字
6
CONTINUOUS
62
7
100
AcDbLine
10
2252.112000000000
20
1155.188000000000
30
0.0
11
2252.112000000000
21
1115.187000000000
31
0.0
0
LINE
5
4b6
100
AcDbEntity
8
0-A文字
6
CONTINUOUS
62
7
100
AcDbLine
10
2452.812000000000
20
1155.188000000000
30
0.0
11
2452.812000000000
21
1175.188000000000
31
0.0
0
LINE
5
4b7
100
AcDbEntity
8
0-A文字
6
CONTINUOUS
62
7
100
AcDbLine
10
2452.812000000000
20
1115.187000000000
30
0.0
11
2452.812000000000
21
1095.187000000000
31
0.0
0
LINE
5
4b8
100
AcDbEntity
8
0-A文字
6
CONTINUOUS
62
7
100
AcDbLine
10
2452.812000000000
20
1175.188000000000
30
0.0
11
2522.094000000000
21
1135.188000000000
31
0.0
0
LINE
5
4b9
100
AcDbEntity
8
0-A文字
6
CONTINUOUS
62
7
100
AcDbLine
10
2452.812000000000
20
1095.187000000000
30
0.0
11
2522.094000000000
21
1135.188000000000
31
0.0
0
LINE
5
4ba
100
AcDbEntity
8
0-8寸法
6
CONTINUOUS
62
4
100
AcDbLine
10
2987.094000000000
20
1535.188000000000
30
0.0
11
2981.917000000000
21
1515.869000000000
31
0.0
0
LINE
5
4bb
100
AcDbEntity
8
0-8寸法
6
CONTINUOUS
62
4
100
AcDbLine
10
2987.094000000000
20
1535.188000000000
30
0.0
11
2992.270000000000
21
1515.869000000000
31
0.0
0
LINE
5
4bc
100
AcDbEntity
8
0-8寸法
6
CONTINUOUS
62
4
100
AcDbLine
10
893.662000000000
20
485.188000000000
30
0.0
11
1793.662000000000
21
485.188000000000
31
0.0
0
LINE
5
4bd
100
AcDbEntity
8
0-8寸法
6
CONTINUOUS
62
4
100
AcDbLine
10
893.662000000000
20
485.188000000000
30
0.0
11
912.981000000000
21
490.364000000000
31
0.0
0
LINE
5
4be
100
AcDbEntity
8
0-8寸法
6
CONTINUOUS
62
4
100
AcDbLine
10
893.662000000000
20
485.188000000000
30
0.0
11
912.981000000000
21
480.011000000000
31
0.0
0
LINE
5
4bf
100
AcDbEntity
8
0-8寸法
6
CONTINUOUS
62
4
100
AcDbLine
10
1793.662000000000
20
485.188000000000
30
0.0
11
1774.344000000000
21
490.364000000000
31
0.0
0
LINE
5
4c0
100
AcDbEntity
8
0-8寸法
6
CONTINUOUS
62
4
100
AcDbLine
10
1793.662000000000
20
485.188000000000
30
0.0
11
1774.344000000000
21
480.011000000000
31
0.0
0
LINE
5
4c1
100
AcDbEntity
8
0-8寸法
6
CONTINUOUS
62
4
100
AcDbLine
10
693.662000000000
20
685.188000000000
30
0.0
11
693.662000000000
21
1585.188000000000
31
0.0
0
LINE
5
4c2
100
AcDbEntity
8
0-8寸法
6
CONTINUOUS
62
4
100
AcDbLine
10
881.337000000000
20
685.188000000000
30
0.0
11
683.662000000000
21
685.188000000000
31
0.0
0
LINE
5
4c3
100
AcDbEntity
8
0-8寸法
6
CONTINUOUS
62
4
100
AcDbLine
10
881.337000000000
20
1585.188000000000
30
0.0
11
683.662000000000
21
1585.188000000000
31
0.0
0
LINE
5
4c4
100
AcDbEntity
8
0-8寸法
6
CONTINUOUS
62
4
100
AcDbLine
10
693.662000000000
20
685.188000000000
30
0.0
11
688.486000000000
21
704.506000000000
31
0.0
0
LINE
5
4c5
100
AcDbEntity
8
0-8寸法
6
CONTINUOUS
62
4
100
AcDbLine
10
693.662000000000
20
685.188000000000
30
0.0
11
698.838000000000
21
704.506000000000
31
0.0
0
LINE
5
4c6
100
AcDbEntity
8
0-8寸法
6
CONTINUOUS
62
4
100
AcDbLine
10
693.662000000000
20
1585.188000000000
30
0.0
11
688.486000000000
21
1565.869000000000
31
0.0
0
LINE
5
4c7
100
AcDbEntity
8
0-8寸法
6
CONTINUOUS
62
4
100
AcDbLine
10
693.662000000000
20
1585.188000000000
30
0.0
11
698.838000000000
21
1565.869000000000
31
0.0
0
LINE
5
4c8
100
AcDbEntity
8
0-8寸法
6
CONTINUOUS
62
4
100
AcDbLine
10
893.662000000000
20
678.332000000000
30
0.0
11
893.662000000000
21
475.188000000000
31
0.0
0
LINE
5
4c9
100
AcDbEntity
8
0-8寸法
6
CONTINUOUS
62
4
100
AcDbLine
10
1793.662000000000
20
678.332000000000
30
0.0
11
1793.662000000000
21
475.188000000000
31
0.0
0
LINE
5
4ca
100
AcDbEntity
8
0-8寸法
6
CONTINUOUS
62
4
100
AcDbLine
10
261.380000000000
20
1910.188000000000
30
0.0
11
893.662000000000
21
1910.188000000000
31
0.0
0
LINE
5
4cb
100
AcDbEntity
8
0-8寸法
6
CONTINUOUS
62
4
100
AcDbLine
10
261.380000000000
20
2010.188000000000
30
0.0
11
893.662000000000
21
2010.188000000000
31
0.0
0
LINE
5
4cc
100
AcDbEntity
8
0-9扉体
6
CONTINUOUS
62
3
100
AcDbLine
10
1733.663000000000
20
2372.647000000000
30
0.0
11
1733.663000000000
21
2380.647000000000
31
0.0
0
LINE
5
4cd
100
AcDbEntity
8
0-9扉体
6
CONTINUOUS
62
3
100
AcDbLine
10
1773.662000000000
20
2382.647000000000
30
0.0
11
1773.662000000000
21
2380.647000000000
31
0.0
0
LINE
5
4ce
100
AcDbEntity
8
0-9扉体
6
CONTINUOUS
62
3
100
AcDbLine
10
1772.662000000000
20
2380.647000000000
30
0.0
11
1772.662000000000
21
2386.647000000000
31
0.0
0
LINE
5
4cf
100
AcDbEntity
8
0-9扉体
6
CONTINUOUS
62
3
100
AcDbLine
10
1734.662000000000
20
2380.647000000000
30
0.0
11
1734.662000000000
21
2386.647000000000
31
0.0
0
LINE
5
4d0
100
AcDbEntity
8
0-9扉体
6
DOT
62
3
100
AcDbLine
10
1749.662000000000
20
2382.647000000000
30
0.0
11
1745.662000000000
21
2386.647000000000
31
0.0
0
LINE
5
4d1
100
AcDbEntity
8
0-9扉体
6
DOT
62
3
100
AcDbLine
10
1757.663000000000
20
2382.647000000000
30
0.0
11
1761.662000000000
21
2386.647000000000
31
0.0
0
LINE
5
4d2
100
AcDbEntity
8
0-9扉体
6
DOT
62
3
100
AcDbLine
10
1749.662000000000
20
2382.647000000000
30
0.0
11
1757.663000000000
21
2382.647000000000
31
0.0
0
LINE
5
4d3
100
AcDbEntity
8
0-9扉体
6
DOT
62
3
100
AcDbLine
10
1757.663000000000
20
2366.647000000000
30
0.0
11
1757.663000000000
21
2382.647000000000
31
0.0
0
LINE
5
4d4
100
AcDbEntity
8
0-9扉体
6
DOT
62
3
100
AcDbLine
10
1749.662000000000
20
2366.647000000000
30
0.0
11
1749.662000000000
21
2382.647000000000
31
0.0
0
LINE
5
4d5
100
AcDbEntity
8
0-9扉体
6
CONTINUOUS
62
3
100
AcDbLine
10
1744.662000000000
20
2365.047000000000
30
0.0
11
1744.662000000000
21
2366.647000000000
31
0.0
0
LINE
5
4d6
100
AcDbEntity
8
0-9扉体
6
CONTINUOUS
62
3
100
AcDbLine
10
1762.662000000000
20
2365.047000000000
30
0.0
11
1762.662000000000
21
2366.647000000000
31
0.0
0
LINE
5
4d7
100
AcDbEntity
8
0-9扉体
6
CONTINUOUS
62
3
100
AcDbLine
10
1749.662000000000
20
2351.647000000000
30
0.0
11
1757.663000000000
21
2351.647000000000
31
0.0
0
LINE
5
4d8
100
AcDbEntity
8
0-9扉体
6
CONTINUOUS
62
3
100
AcDbLine
10
1762.662000000000
20
2365.047000000000
30
0.0
11
1744.662000000000
21
2365.047000000000
31
0.0
0
LINE
5
4d9
100
AcDbEntity
8
0-5基準線
6
CENTER2
62
7
100
AcDbLine
10
1753.662000000000
20
2349.244000000000
30
0.0
11
1753.662000000000
21
2388.172000000000
31
0.0
0
LINE
5
4da
100
AcDbEntity
8
0-9扉体
6
CONTINUOUS
62
7
100
AcDbLine
10
1747.162000000000
20
2358.547000000000
30
0.0
11
1746.157000000000
21
2359.128000000000
31
0.0
0
LINE
5
4db
100
AcDbEntity
8
0-9扉体
6
CONTINUOUS
62
7
100
AcDbLine
10
1760.162000000000
20
2358.547000000000
30
0.0
11
1761.168000000000
21
2359.128000000000
31
0.0
0
LINE
5
4dc
100
AcDbEntity
8
0-9扉体
6
CONTINUOUS
62
7
100
AcDbLine
10
1747.162000000000
20
2358.547000000000
30
0.0
11
1760.162000000000
21
2358.547000000000
31
0.0
0
LINE
5
4dd
100
AcDbEntity
8
0-9扉体
6
CONTINUOUS
62
3
100
AcDbLine
10
1757.663000000000
20
2358.547000000000
30
0.0
11
1757.663000000000
21
2351.647000000000
31
0.0
0
LINE
5
4de
100
AcDbEntity
8
0-9扉体
6
CONTINUOUS
62
3
100
AcDbLine
10
1749.662000000000
20
2358.547000000000
30
0.0
11
1749.662000000000
21
2351.647000000000
31
0.0
0
LINE
5
4df
100
AcDbEntity
8
0-9扉体
6
CONTINUOUS
62
7
100
AcDbLine
10
1761.168000000000
20
2365.047000000000
30
0.0
11
1761.168000000000
21
2359.128000000000
31
0.0
0
LINE
5
4e0
100
AcDbEntity
8
0-9扉体
6
CONTINUOUS
62
7
100
AcDbLine
10
1757.415000000000
20
2365.047000000000
30
0.0
11
1757.415000000000
21
2359.128000000000
31
0.0
0
LINE
5
4e1
100
AcDbEntity
8
0-9扉体
6
CONTINUOUS
62
7
100
AcDbLine
10
1749.909000000000
20
2365.047000000000
30
0.0
11
1749.909000000000
21
2359.128000000000
31
0.0
0
LINE
5
4e2
100
AcDbEntity
8
0-9扉体
6
CONTINUOUS
62
7
100
AcDbLine
10
1746.157000000000
20
2365.047000000000
30
0.0
11
1746.157000000000
21
2359.128000000000
31
0.0
0
LINE
5
4e3
100
AcDbEntity
8
0-9扉体
6
CONTINUOUS
62
2
100
AcDbLine
10
1756.662000000000
20
2358.547000000000
30
0.0
11
1756.662000000000
21
2351.647000000000
31
0.0
0
LINE
5
4e4
100
AcDbEntity
8
0-9扉体
6
CONTINUOUS
62
2
100
AcDbLine
10
1750.662000000000
20
2358.547000000000
30
0.0
11
1750.662000000000
21
2351.647000000000
31
0.0
0
LINE
5
4e5
100
AcDbEntity
8
0-9扉体
6
CONTINUOUS
62
6
100
AcDbLine
10
1793.613000000000
20
2383.640000000000
30
0.0
11
1784.655000000000
21
2392.598000000000
31
0.0
0
LINE
5
4e6
100
AcDbEntity
8
0-9扉体
6
CONTINUOUS
62
6
100
AcDbLine
10
1793.652000000000
20
2382.187000000000
30
0.0
11
1783.202000000000
21
2392.637000000000
31
0.0
0
LINE
5
4e7
100
AcDbEntity
8
0-9扉体
6
CONTINUOUS
62
6
100
AcDbLine
10
1776.322000000000
20
2372.647000000000
30
0.0
11
1768.322000000000
21
2380.647000000000
31
0.0
0
LINE
5
4e8
100
AcDbEntity
8
0-9扉体
6
CONTINUOUS
62
6
100
AcDbLine
10
1774.908000000000
20
2372.647000000000
30
0.0
11
1766.908000000000
21
2380.647000000000
31
0.0
0
LINE
5
4e9
100
AcDbEntity
8
0-9扉体
6
CONTINUOUS
62
6
100
AcDbLine
10
1762.179000000000
20
2372.647000000000
30
0.0
11
1754.180000000000
21
2380.647000000000
31
0.0
0
LINE
5
4ea
100
AcDbEntity
8
0-9扉体
6
CONTINUOUS
62
6
100
AcDbLine
10
1760.765000000000
20
2372.647000000000
30
0.0
11
1752.765000000000
21
2380.647000000000
31
0.0
0
LINE
5
4eb
100
AcDbEntity
8
0-9扉体
6
CONTINUOUS
62
6
100
AcDbLine
10
1748.037000000000
20
2372.647000000000
30
0.0
11
1740.037000000000
21
2380.647000000000
31
0.0
0
LINE
5
4ec
100
AcDbEntity
8
0-9扉体
6
CONTINUOUS
62
6
100
AcDbLine
10
1746.623000000000
20
2372.647000000000
30
0.0
11
1738.623000000000
21
2380.647000000000
31
0.0
0
LINE
5
4ed
100
AcDbEntity
8
0-9扉体
6
CONTINUOUS
62
6
100
AcDbLine
10
1733.895000000000
20
2372.647000000000
30
0.0
11
1733.663000000000
21
2372.880000000000
31
0.0
0
LINE
5
4ee
100
AcDbEntity
8
0-9扉体
6
CONTINUOUS
62
6
100
AcDbLine
10
1788.951000000000
20
2374.160000000000
30
0.0
11
1784.396000000000
21
2378.715000000000
31
0.0
0
LINE
5
4ef
100
AcDbEntity
8
0-9扉体
6
CONTINUOUS
62
6
100
AcDbLine
10
1779.730000000000
20
2383.381000000000
30
0.0
11
1775.175000000000
21
2387.936000000000
31
0.0
0
LINE
5
4f0
100
AcDbEntity
8
0-9扉体
6
CONTINUOUS
62
6
100
AcDbLine
10
1788.040000000000
20
2373.657000000000
30
0.0
11
1782.993000000000
21
2378.704000000000
31
0.0
0
LINE
5
4f1
100
AcDbEntity
8
0-9扉体
6
CONTINUOUS
62
6
100
AcDbLine
10
1779.719000000000
20
2381.978000000000
30
0.0
11
1774.671000000000
21
2387.025000000000
31
0.0
0
LINE
5
4f2
100
AcDbEntity
8
0-9扉体
6
CONTINUOUS
62
4
100
AcDbLine
10
1798.662000000000
20
2366.647000000000
30
0.0
11
1798.662000000000
21
2372.647000000000
31
0.0
0
LINE
5
4f3
100
AcDbEntity
8
0-8寸法
6
CONTINUOUS
62
4
100
AcDbLine
10
2241.885000000000
20
1685.188000000000
30
0.0
11
2440.114000000000
21
1685.188000000000
31
0.0
0
LINE
5
4f4
100
AcDbEntity
8
0-8寸法
6
CONTINUOUS
62
4
100
AcDbLine
10
2256.195000000000
20
1675.187000000000
30
0.0
11
2426.136000000000
21
1675.187000000000
31
0.0
0
LINE
5
4f5
100
AcDbEntity
8
0-8寸法
6
CONTINUOUS
62
4
100
AcDbLine
10
2274.587000000000
20
1665.188000000000
30
0.0
11
2405.537000000000
21
1665.188000000000
31
0.0
0
LINE
5
4f6
100
AcDbEntity
8
0-8寸法
6
CONTINUOUS
62
4
100
AcDbLine
10
2294.450000000000
20
1655.188000000000
30
0.0
11
2387.145000000000
21
1655.188000000000
31
0.0
0
LINE
5
4f7
100
AcDbEntity
8
0-8寸法
6
CONTINUOUS
62
4
100
AcDbLine
10
2312.842000000000
20
1645.188000000000
30
0.0
11
2365.810000000000
21
1645.188000000000
31
0.0
0
LINE
5
4f8
100
AcDbEntity
8
0-8寸法
6
CONTINUOUS
62
4
100
AcDbLine
10
2325.348000000000
20
1635.187000000000
30
0.0
11
2351.097000000000
21
1635.187000000000
31
0.0
0
LINE
5
4f9
100
AcDbEntity
8
0-8寸法
6
CONTINUOUS
62
4
100
AcDbLine
10
2641.094000000000
20
1910.188000000000
30
0.0
11
2621.775000000000
21
1915.364000000000
31
0.0
0
LINE
5
4fa
100
AcDbEntity
8
0-8寸法
6
CONTINUOUS
62
4
100
AcDbLine
10
2641.094000000000
20
1910.188000000000
30
0.0
11
2621.775000000000
21
1905.011000000000
31
0.0
0
LINE
5
4fb
100
AcDbEntity
8
0-8寸法
6
CONTINUOUS
62
4
100
AcDbLine
10
2172.094000000000
20
685.188000000000
30
0.0
11
2172.094000000000
21
1685.188000000000
31
0.0
0
LINE
5
4fc
100
AcDbEntity
8
0-8寸法
6
CONTINUOUS
62
4
100
AcDbLine
10
2214.976000000000
20
1685.188000000000
30
0.0
11
2162.094000000000
21
1685.188000000000
31
0.0
0
LINE
5
4fd
100
AcDbEntity
8
0-8寸法
6
CONTINUOUS
62
4
100
AcDbLine
10
2172.094000000000
20
685.188000000000
30
0.0
11
2166.918000000000
21
704.506000000000
31
0.0
0
LINE
5
4fe
100
AcDbEntity
8
0-8寸法
6
CONTINUOUS
62
4
100
AcDbLine
10
2172.094000000000
20
685.188000000000
30
0.0
11
2177.271000000000
21
704.506000000000
31
0.0
0
LINE
5
4ff
100
AcDbEntity
8
0-8寸法
6
CONTINUOUS
62
4
100
AcDbLine
10
2172.094000000000
20
1685.188000000000
30
0.0
11
2166.918000000000
21
1665.869000000000
31
0.0
0
LINE
5
500
100
AcDbEntity
8
0-8寸法
6
CONTINUOUS
62
4
100
AcDbLine
10
2172.094000000000
20
1685.188000000000
30
0.0
11
2177.271000000000
21
1665.869000000000
31
0.0
0
LINE
5
501
100
AcDbEntity
8
0-8寸法
6
CONTINUOUS
62
4
100
AcDbLine
10
2580.223000000000
20
685.188000000000
30
0.0
11
2162.094000000000
21
685.188000000000
31
0.0
0
LINE
5
502
100
AcDbEntity
8
0-8寸法
6
CONTINUOUS
62
4
100
AcDbLine
10
1851.678000000000
20
2310.188000000000
30
0.0
11
2536.140000000000
21
2310.188000000000
31
0.0
0
LINE
5
503
100
AcDbEntity
8
0-8寸法
6
CONTINUOUS
62
4
100
AcDbLine
10
1851.678000000000
20
2210.188000000000
30
0.0
11
2536.140000000000
21
2210.188000000000
31
0.0
0
LINE
5
504
100
AcDbEntity
8
0-8寸法
6
CONTINUOUS
62
4
100
AcDbLine
10
1851.678000000000
20
2110.188000000000
30
0.0
11
2536.140000000000
21
2110.188000000000
31
0.0
0
LINE
5
505
100
AcDbEntity
8
0-8寸法
6
CONTINUOUS
62
4
100
AcDbLine
10
2552.094000000000
20
485.188000000000
30
0.0
11
2552.094000000000
21
385.188000000000
31
0.0
0
LINE
5
506
100
AcDbEntity
8
0-8寸法
6
CONTINUOUS
62
4
100
AcDbLine
10
943.662000000000
20
2654.647000000000
30
0.0
11
1743.662000000000
21
2654.647000000000
31
0.0
0
LINE
5
507
100
AcDbEntity
8
0-8寸法
6
CONTINUOUS
62
4
100
AcDbLine
10
943.662000000000
20
2654.647000000000
30
0.0
11
962.981000000000
21
2659.823000000000
31
0.0
0
LINE
5
508
100
AcDbEntity
8
0-8寸法
6
CONTINUOUS
62
4
100
AcDbLine
10
943.662000000000
20
2654.647000000000
30
0.0
11
962.981000000000
21
2649.471000000000
31
0.0
0
LINE
5
509
100
AcDbEntity
8
0-8寸法
6
CONTINUOUS
62
4
100
AcDbLine
10
1743.662000000000
20
2654.647000000000
30
0.0
11
1724.344000000000
21
2659.823000000000
31
0.0
0
LINE
5
50a
100
AcDbEntity
8
0-8寸法
6
CONTINUOUS
62
4
100
AcDbLine
10
1743.662000000000
20
2654.647000000000
30
0.0
11
1724.344000000000
21
2649.471000000000
31
0.0
0
LINE
5
50b
100
AcDbEntity
8
0-8寸法
6
CONTINUOUS
62
4
100
AcDbLine
10
1851.678000000000
20
1910.188000000000
30
0.0
11
2438.946000000000
21
1910.188000000000
31
0.0
0
LINE
5
50c
100
AcDbEntity
8
0-8寸法
6
CONTINUOUS
62
4
100
AcDbLine
10
2655.094000000000
20
1335.188000000000
30
0.0
11
2674.412000000000
21
1340.364000000000
31
0.0
0
LINE
5
50d
100
AcDbEntity
8
0-8寸法
6
CONTINUOUS
62
4
100
AcDbLine
10
2655.094000000000
20
1335.188000000000
30
0.0
11
2674.412000000000
21
1330.011000000000
31
0.0
0
LINE
5
50e
100
AcDbEntity
8
0-8寸法
6
CONTINUOUS
62
4
100
AcDbLine
10
2588.594000000000
20
1335.188000000000
30
0.0
11
2569.275000000000
21
1340.364000000000
31
0.0
0
LINE
5
50f
100
AcDbEntity
8
0-8寸法
6
CONTINUOUS
62
4
100
AcDbLine
10
2588.594000000000
20
1335.188000000000
30
0.0
11
2569.275000000000
21
1330.011000000000
31
0.0
0
LINE
5
510
100
AcDbEntity
8
0-8寸法
6
CONTINUOUS
62
4
100
AcDbLine
10
2649.094000000000
20
1335.188000000000
30
0.0
11
2461.006000000000
21
1335.188000000000
31
0.0
0
LINE
5
511
100
AcDbEntity
8
0-8寸法
6
CONTINUOUS
62
4
100
AcDbLine
10
1851.678000000000
20
2310.188000000000
30
0.0
11
1851.678000000000
21
2110.188000000000
31
0.0
0
LINE
5
512
100
AcDbEntity
8
0-8寸法
6
CONTINUOUS
62
4
100
AcDbLine
10
1851.678000000000
20
2310.188000000000
30
0.0
11
1777.699000000000
21
2377.688000000000
31
0.0
0
LINE
5
513
100
AcDbEntity
8
0-9扉体
6
CONTINUOUS
62
4
100
AcDbLine
10
2589.094000000000
20
1585.188000000000
30
0.0
11
2649.094000000000
21
1585.188000000000
31
0.0
0
LINE
5
514
100
AcDbEntity
8
0-9扉体
6
CONTINUOUS
62
4
100
AcDbLine
10
2649.094000000000
20
1590.188000000000
30
0.0
11
2649.094000000000
21
1198.928000000000
31
0.0
0
LINE
5
515
100
AcDbEntity
8
0-9扉体
6
CONTINUOUS
62
6
100
AcDbLine
10
2655.094000000000
20
1563.354000000000
30
0.0
11
2663.335000000000
21
1571.595000000000
31
0.0
0
LINE
5
516
100
AcDbEntity
8
0-9扉体
6
CONTINUOUS
62
4
100
AcDbLine
10
2594.094000000000
20
1594.188000000000
30
0.0
11
2594.094000000000
21
1585.188000000000
31
0.0
0
POLYLINE
5
517
100
AcDbEntity
8
0-9扉体
6
CONTINUOUS
62
  4
100
AcDb2dPolyline
66
1
10
0.0
20
0.0
30
0.0
70
0
0
VERTEX
5
518
100
AcDbEntity
8
0-9扉体
6
CONTINUOUS
62
  4
100
AcDbVertex
100
AcDb2dVertex
10
2594.094000000000
20
1594.188000000000
30
0.0
0
VERTEX
5
519
100
AcDbEntity
8
0-9扉体
6
CONTINUOUS
62
  4
100
AcDbVertex
100
AcDb2dVertex
10
2644.094000000000
20
1594.188000000000
30
0.0
0
VERTEX
5
51a
100
AcDbEntity
8
0-9扉体
6
CONTINUOUS
62
  4
100
AcDbVertex
100
AcDb2dVertex
10
2644.094000000000
20
1585.188000000000
30
0.0
0
SEQEND
5
51b
100
AcDbEntity
8
0-9扉体
0
LINE
5
51c
100
AcDbEntity
8
0-8寸法
6
CONTINUOUS
62
4
100
AcDbLine
10
2586.600000000000
20
1585.188000000000
30
0.0
11
2491.094000000000
21
1585.188000000000
31
0.0
0
LINE
5
51d
100
AcDbEntity
8
0-8寸法
6
CONTINUOUS
62
4
100
AcDbLine
10
2501.094000000000
20
1535.188000000000
30
0.0
11
2495.917000000000
21
1515.869000000000
31
0.0
0
LINE
5
51e
100
AcDbEntity
8
0-8寸法
6
CONTINUOUS
62
4
100
AcDbLine
10
2501.094000000000
20
1535.188000000000
30
0.0
11
2506.270000000000
21
1515.869000000000
31
0.0
0
LINE
5
51f
100
AcDbEntity
8
0-8寸法
6
CONTINUOUS
62
4
100
AcDbLine
10
2501.094000000000
20
1635.188000000000
30
0.0
11
2495.917000000000
21
1654.506000000000
31
0.0
0
LINE
5
520
100
AcDbEntity
8
0-8寸法
6
CONTINUOUS
62
4
100
AcDbLine
10
2501.094000000000
20
1635.188000000000
30
0.0
11
2506.270000000000
21
1654.506000000000
31
0.0
0
LINE
5
521
100
AcDbEntity
8
0-8寸法
6
CONTINUOUS
62
4
100
AcDbLine
10
2604.443000000000
20
1635.188000000000
30
0.0
11
2491.094000000000
21
1635.188000000000
31
0.0
0
POLYLINE
5
522
100
AcDbEntity
8
0-8寸法
6
CONTINUOUS
62
  4
100
AcDb2dPolyline
66
1
10
0.0
20
0.0
30
0.0
70
0
0
VERTEX
5
523
100
AcDbEntity
8
0-8寸法
6
CONTINUOUS
62
  4
100
AcDbVertex
100
AcDb2dVertex
10
2501.094000000000
20
1465.001000000000
30
0.0
0
VERTEX
5
524
100
AcDbEntity
8
0-8寸法
6
CONTINUOUS
62
  4
100
AcDbVertex
100
AcDb2dVertex
10
2501.094000000000
20
1585.188000000000
30
0.0
0
VERTEX
5
525
100
AcDbEntity
8
0-8寸法
6
CONTINUOUS
62
  4
100
AcDbVertex
100
AcDb2dVertex
10
2501.094000000000
20
1707.762000000000
30
0.0
0
SEQEND
5
526
100
AcDbEntity
8
0-8寸法
0
LINE
5
527
100
AcDbEntity
8
0-8寸法
6
CONTINUOUS
62
4
100
AcDbLine
10
2586.600000000000
20
1535.188000000000
30
0.0
11
2491.094000000000
21
1535.188000000000
31
0.0
0
LINE
5
528
100
AcDbEntity
8
0-6戸当り
6
CONTINUOUS
62
6
100
AcDbLine
10
2675.094000000000
20
635.188000000000
30
0.0
11
2687.094000000000
21
635.188000000000
31
0.0
0
LINE
5
529
100
AcDbEntity
8
0-6戸当り
6
CONTINUOUS
62
6
100
AcDbLine
10
2675.094000000000
20
1685.188000000000
30
0.0
11
2687.094000000000
21
1685.188000000000
31
0.0
0
LINE
5
52a
100
AcDbEntity
8
0-5基準線
6
CENTER2
62
7
100
AcDbLine
10
2619.094000000000
20
1621.402000000000
30
0.0
11
2619.094000000000
21
1565.915000000000
31
0.0
0
LINE
5
52b
100
AcDbEntity
8
0-6戸当り
6
CONTINUOUS
62
6
100
AcDbLine
10
1843.662000000000
20
635.188000000000
30
0.0
11
843.662000000000
21
635.188000000000
31
0.0
0
LINE
5
52c
100
AcDbEntity
8
0-6戸当り
6
CONTINUOUS
62
6
100
AcDbLine
10
1843.662000000000
20
1685.188000000000
30
0.0
11
1843.662000000000
21
635.188000000000
31
0.0
0
LINE
5
52d
100
AcDbEntity
8
0-6戸当り
6
CONTINUOUS
62
6
100
AcDbLine
10
843.662000000000
20
1685.188000000000
30
0.0
11
1843.662000000000
21
1685.188000000000
31
0.0
0
LINE
5
52e
100
AcDbEntity
8
0-6戸当り
6
CONTINUOUS
62
6
100
AcDbLine
10
843.662000000000
20
635.188000000000
30
0.0
11
843.662000000000
21
1685.188000000000
31
0.0
0
LINE
5
52f
100
AcDbEntity
8
0-6戸当り
6
CONTINUOUS
62
2
100
AcDbLine
10
2691.295000000000
20
660.187000000000
30
0.0
11
2720.808000000000
21
662.688000000000
31
0.0
0
LINE
5
530
100
AcDbEntity
8
0-6戸当り
6
CONTINUOUS
62
2
100
AcDbLine
10
2691.295000000000
20
655.188000000000
30
0.0
11
2720.808000000000
21
657.687000000000
31
0.0
0
LINE
5
531
100
AcDbEntity
8
0-6戸当り
6
CONTINUOUS
62
2
100
AcDbLine
10
2691.295000000000
20
660.187000000000
30
0.0
11
2691.295000000000
21
650.188000000000
31
0.0
0
LINE
5
532
100
AcDbEntity
8
0-6戸当り
6
CONTINUOUS
62
2
100
AcDbLine
10
2695.512000000000
20
660.545000000000
30
0.0
11
2695.512000000000
21
655.545000000000
31
0.0
0
LINE
5
533
100
AcDbEntity
8
0-6戸当り
6
CONTINUOUS
62
2
100
AcDbLine
10
2699.728000000000
20
660.902000000000
30
0.0
11
2699.728000000000
21
655.901000000000
31
0.0
0
LINE
5
534
100
AcDbEntity
8
0-6戸当り
6
CONTINUOUS
62
2
100
AcDbLine
10
2703.944000000000
20
661.259000000000
30
0.0
11
2703.944000000000
21
656.259000000000
31
0.0
0
LINE
5
535
100
AcDbEntity
8
0-6戸当り
6
CONTINUOUS
62
2
100
AcDbLine
10
2708.160000000000
20
661.616000000000
30
0.0
11
2708.160000000000
21
656.616000000000
31
0.0
0
LINE
5
536
100
AcDbEntity
8
0-6戸当り
6
CONTINUOUS
62
2
100
AcDbLine
10
2712.376000000000
20
661.973000000000
30
0.0
11
2712.376000000000
21
656.973000000000
31
0.0
0
LINE
5
537
100
AcDbEntity
8
0-6戸当り
6
CONTINUOUS
62
2
100
AcDbLine
10
2716.592000000000
20
662.330000000000
30
0.0
11
2716.592000000000
21
657.330000000000
31
0.0
0
POLYLINE
5
538
100
AcDbEntity
8
0-6戸当り
6
CONTINUOUS
62
  2
100
AcDb2dPolyline
66
1
10
0.0
20
0.0
30
0.0
70
0
0
VERTEX
5
539
100
AcDbEntity
8
0-6戸当り
6
CONTINUOUS
62
  2
100
AcDbVertex
100
AcDb2dVertex
10
2691.295000000000
20
650.188000000000
30
0.0
0
VERTEX
5
53a
100
AcDbEntity
8
0-6戸当り
6
CONTINUOUS
62
  2
100
AcDbVertex
100
AcDb2dVertex
10
2720.808000000000
20
647.687000000000
30
0.0
0
VERTEX
5
53b
100
AcDbEntity
8
0-6戸当り
6
CONTINUOUS
62
  2
100
AcDbVertex
100
AcDb2dVertex
10
2720.808000000000
20
652.688000000000
30
0.0
0
SEQEND
5
53c
100
AcDbEntity
8
0-6戸当り
0
LINE
5
53d
100
AcDbEntity
8
0-6戸当り
6
CONTINUOUS
62
2
100
AcDbLine
10
2691.295000000000
20
655.188000000000
30
0.0
11
2720.808000000000
21
652.688000000000
31
0.0
0
LINE
5
53e
100
AcDbEntity
8
0-6戸当り
6
CONTINUOUS
62
2
100
AcDbLine
10
2695.512000000000
20
649.831000000000
30
0.0
11
2695.512000000000
21
654.830000000000
31
0.0
0
LINE
5
53f
100
AcDbEntity
8
0-6戸当り
6
CONTINUOUS
62
2
100
AcDbLine
10
2699.728000000000
20
649.474000000000
30
0.0
11
2699.728000000000
21
654.473000000000
31
0.0
0
LINE
5
540
100
AcDbEntity
8
0-6戸当り
6
CONTINUOUS
62
2
100
AcDbLine
10
2703.944000000000
20
649.116000000000
30
0.0
11
2703.944000000000
21
654.116000000000
31
0.0
0
LINE
5
541
100
AcDbEntity
8
0-6戸当り
6
CONTINUOUS
62
2
100
AcDbLine
10
2708.160000000000
20
648.759000000000
30
0.0
11
2708.160000000000
21
653.759000000000
31
0.0
0
LINE
5
542
100
AcDbEntity
8
0-6戸当り
6
CONTINUOUS
62
2
100
AcDbLine
10
2712.376000000000
20
648.402000000000
30
0.0
11
2712.376000000000
21
653.402000000000
31
0.0
0
LINE
5
543
100
AcDbEntity
8
0-6戸当り
6
CONTINUOUS
62
2
100
AcDbLine
10
2716.592000000000
20
648.044000000000
30
0.0
11
2716.592000000000
21
653.045000000000
31
0.0
0
LINE
5
544
100
AcDbEntity
8
0-6戸当り
6
CONTINUOUS
62
3
100
AcDbLine
10
2673.493000000000
20
666.188000000000
30
0.0
11
2675.094000000000
21
666.188000000000
31
0.0
0
LINE
5
545
100
AcDbEntity
8
0-6戸当り
6
CONTINUOUS
62
3
100
AcDbLine
10
2673.493000000000
20
644.187000000000
30
0.0
11
2675.094000000000
21
644.187000000000
31
0.0
0
LINE
5
546
100
AcDbEntity
8
0-6戸当り
6
CONTINUOUS
62
7
100
AcDbLine
10
2665.494000000000
20
663.687000000000
30
0.0
11
2666.253000000000
21
665.003000000000
31
0.0
0
POLYLINE
5
547
100
AcDbEntity
8
0-6戸当り
6
CONTINUOUS
62
  7
100
AcDb2dPolyline
66
1
10
0.0
20
0.0
30
0.0
70
0
0
VERTEX
5
548
100
AcDbEntity
8
0-6戸当り
6
CONTINUOUS
62
  7
100
AcDbVertex
100
AcDb2dVertex
10
2665.494000000000
20
663.687000000000
30
0.0
0
VERTEX
5
549
100
AcDbEntity
8
0-6戸当り
6
CONTINUOUS
62
  7
100
AcDbVertex
100
AcDb2dVertex
10
2665.494000000000
20
646.687000000000
30
0.0
0
VERTEX
5
54a
100
AcDbEntity
8
0-6戸当り
6
CONTINUOUS
62
  7
100
AcDbVertex
100
AcDb2dVertex
10
2666.253000000000
20
645.372000000000
30
0.0
0
SEQEND
5
54b
100
AcDbEntity
8
0-6戸当り
0
LINE
5
54c
100
AcDbEntity
8
0-6戸当り
6
CONTINUOUS
62
7
100
AcDbLine
10
2673.493000000000
20
645.372000000000
30
0.0
11
2666.253000000000
21
645.372000000000
31
0.0
0
LINE
5
54d
100
AcDbEntity
8
0-6戸当り
6
CONTINUOUS
62
7
100
AcDbLine
10
2673.493000000000
20
660.095000000000
30
0.0
11
2666.253000000000
21
660.095000000000
31
0.0
0
LINE
5
54e
100
AcDbEntity
8
0-6戸当り
6
CONTINUOUS
62
7
100
AcDbLine
10
2673.493000000000
20
650.280000000000
30
0.0
11
2666.253000000000
21
650.280000000000
31
0.0
0
LINE
5
54f
100
AcDbEntity
8
0-6戸当り
6
CONTINUOUS
62
7
100
AcDbLine
10
2673.493000000000
20
665.003000000000
30
0.0
11
2666.253000000000
21
665.003000000000
31
0.0
0
LINE
5
550
100
AcDbEntity
8
0-6戸当り
6
CONTINUOUS
62
3
100
AcDbLine
10
2673.493000000000
20
644.187000000000
30
0.0
11
2673.493000000000
21
666.188000000000
31
0.0
0
LINE
5
551
100
AcDbEntity
8
0-6戸当り
6
CONTINUOUS
62
3
100
AcDbLine
10
2665.494000000000
20
650.187000000000
30
0.0
11
2660.808000000000
21
650.187000000000
31
0.0
0
LINE
5
552
100
AcDbEntity
8
0-6戸当り
6
CONTINUOUS
62
3
100
AcDbLine
10
2665.494000000000
20
660.188000000000
30
0.0
11
2660.808000000000
21
660.188000000000
31
0.0
0
LINE
5
553
100
AcDbEntity
8
0-6戸当り
6
CONTINUOUS
62
4
100
AcDbLine
10
2665.494000000000
20
651.188000000000
30
0.0
11
2660.577000000000
21
651.188000000000
31
0.0
0
LINE
5
554
100
AcDbEntity
8
0-6戸当り
6
CONTINUOUS
62
4
100
AcDbLine
10
2665.494000000000
20
659.187000000000
30
0.0
11
2660.577000000000
21
659.187000000000
31
0.0
0
LINE
5
555
100
AcDbEntity
8
0-6戸当り
6
CONTINUOUS
62
3
100
AcDbLine
10
2660.808000000000
20
650.187000000000
30
0.0
11
2660.808000000000
21
660.188000000000
31
0.0
0
LINE
5
556
100
AcDbEntity
8
0-6戸当り
6
CONTINUOUS
62
2
100
AcDbLine
10
2720.808000000000
20
662.688000000000
30
0.0
11
2720.808000000000
21
657.687000000000
31
0.0
0
LINE
5
557
100
AcDbEntity
8
0-6戸当り
6
CONTINUOUS
62
2
100
AcDbLine
10
2687.094000000000
20
660.187000000000
30
0.0
11
2691.295000000000
21
660.187000000000
31
0.0
0
LINE
5
558
100
AcDbEntity
8
0-6戸当り
6
CONTINUOUS
62
2
100
AcDbLine
10
2687.094000000000
20
650.188000000000
30
0.0
11
2691.295000000000
21
650.188000000000
31
0.0
0
LINE
5
559
100
AcDbEntity
8
0-5基準線
6
CENTER2
62
7
100
AcDbLine
10
2656.921000000000
20
655.188000000000
30
0.0
11
2725.877000000000
21
655.188000000000
31
0.0
0
LINE
5
55a
100
AcDbEntity
8
0-6戸当り
6
CONTINUOUS
62
3
100
AcDbLine
10
1823.662000000000
20
664.987000000000
30
0.0
11
1815.175000000000
21
660.088000000000
31
0.0
0
LINE
5
55b
100
AcDbEntity
8
0-6戸当り
6
CONTINUOUS
62
3
100
AcDbLine
10
1823.662000000000
20
645.388000000000
30
0.0
11
1815.175000000000
21
650.288000000000
31
0.0
0
LINE
5
55c
100
AcDbEntity
8
0-6戸当り
6
CONTINUOUS
62
3
100
AcDbLine
10
1815.175000000000
20
660.088000000000
30
0.0
11
1815.175000000000
21
650.288000000000
31
0.0
0
LINE
5
55d
100
AcDbEntity
8
0-6戸当り
6
CONTINUOUS
62
3
100
AcDbLine
10
1823.662000000000
20
645.388000000000
30
0.0
11
1832.149000000000
21
650.288000000000
31
0.0
0
LINE
5
55e
100
AcDbEntity
8
0-6戸当り
6
CONTINUOUS
62
3
100
AcDbLine
10
1823.662000000000
20
664.987000000000
30
0.0
11
1832.149000000000
21
660.088000000000
31
0.0
0
LINE
5
55f
100
AcDbEntity
8
0-6戸当り
6
CONTINUOUS
62
3
100
AcDbLine
10
1832.149000000000
20
650.288000000000
30
0.0
11
1832.149000000000
21
660.088000000000
31
0.0
0
LINE
5
560
100
AcDbEntity
8
0-5基準線
6
CENTER2
62
7
100
AcDbLine
10
1823.662000000000
20
640.188000000000
30
0.0
11
1823.662000000000
21
670.187000000000
31
0.0
0
LINE
5
561
100
AcDbEntity
8
0-5基準線
6
CENTER2
62
7
100
AcDbLine
10
1808.662000000000
20
655.188000000000
30
0.0
11
1838.662000000000
21
655.188000000000
31
0.0
0
LINE
5
562
100
AcDbEntity
8
0-6戸当り
6
CONTINUOUS
62
3
100
AcDbLine
10
863.662000000000
20
664.987000000000
30
0.0
11
872.149000000000
21
660.088000000000
31
0.0
0
LINE
5
563
100
AcDbEntity
8
0-6戸当り
6
CONTINUOUS
62
3
100
AcDbLine
10
863.662000000000
20
645.388000000000
30
0.0
11
872.149000000000
21
650.288000000000
31
0.0
0
LINE
5
564
100
AcDbEntity
8
0-6戸当り
6
CONTINUOUS
62
3
100
AcDbLine
10
872.149000000000
20
660.088000000000
30
0.0
11
872.149000000000
21
650.288000000000
31
0.0
0
LINE
5
565
100
AcDbEntity
8
0-6戸当り
6
CONTINUOUS
62
3
100
AcDbLine
10
863.662000000000
20
645.388000000000
30
0.0
11
855.175000000000
21
650.288000000000
31
0.0
0
LINE
5
566
100
AcDbEntity
8
0-6戸当り
6
CONTINUOUS
62
3
100
AcDbLine
10
863.662000000000
20
664.987000000000
30
0.0
11
855.175000000000
21
660.088000000000
31
0.0
0
LINE
5
567
100
AcDbEntity
8
0-6戸当り
6
CONTINUOUS
62
3
100
AcDbLine
10
855.175000000000
20
650.288000000000
30
0.0
11
855.175000000000
21
660.088000000000
31
0.0
0
LINE
5
568
100
AcDbEntity
8
0-5基準線
6
CENTER2
62
7
100
AcDbLine
10
863.662000000000
20
640.188000000000
30
0.0
11
863.662000000000
21
670.187000000000
31
0.0
0
LINE
5
569
100
AcDbEntity
8
0-5基準線
6
CENTER2
62
7
100
AcDbLine
10
878.662000000000
20
655.188000000000
30
0.0
11
848.662000000000
21
655.188000000000
31
0.0
0
LINE
5
56a
100
AcDbEntity
8
0-8寸法
6
CONTINUOUS
62
4
100
AcDbLine
10
1843.662000000000
20
385.188000000000
30
0.0
11
1862.981000000000
21
390.364000000000
31
0.0
0
LINE
5
56b
100
AcDbEntity
8
0-8寸法
6
CONTINUOUS
62
4
100
AcDbLine
10
1843.662000000000
20
385.188000000000
30
0.0
11
1862.981000000000
21
380.011000000000
31
0.0
0
LINE
5
56c
100
AcDbEntity
8
0-8寸法
6
CONTINUOUS
62
4
100
AcDbLine
10
843.662000000000
20
285.188000000000
30
0.0
11
1843.662000000000
21
285.188000000000
31
0.0
0
LINE
5
56d
100
AcDbEntity
8
0-8寸法
6
CONTINUOUS
62
4
100
AcDbLine
10
843.662000000000
20
285.188000000000
30
0.0
11
862.981000000000
21
290.364000000000
31
0.0
0
LINE
5
56e
100
AcDbEntity
8
0-8寸法
6
CONTINUOUS
62
4
100
AcDbLine
10
843.662000000000
20
285.188000000000
30
0.0
11
862.981000000000
21
280.011000000000
31
0.0
0
LINE
5
56f
100
AcDbEntity
8
0-8寸法
6
CONTINUOUS
62
4
100
AcDbLine
10
1843.662000000000
20
285.188000000000
30
0.0
11
1824.344000000000
21
290.364000000000
31
0.0
0
LINE
5
570
100
AcDbEntity
8
0-8寸法
6
CONTINUOUS
62
4
100
AcDbLine
10
1843.662000000000
20
285.188000000000
30
0.0
11
1824.344000000000
21
280.011000000000
31
0.0
0
LINE
5
571
100
AcDbEntity
8
0-8寸法
6
CONTINUOUS
62
4
100
AcDbLine
10
1823.662000000000
20
385.188000000000
30
0.0
11
1918.808000000000
21
385.188000000000
31
0.0
0
LINE
5
572
100
AcDbEntity
8
0-8寸法
6
CONTINUOUS
62
4
100
AcDbLine
10
843.662000000000
20
623.958000000000
30
0.0
11
843.662000000000
21
275.188000000000
31
0.0
0
LINE
5
573
100
AcDbEntity
8
0-8寸法
6
CONTINUOUS
62
4
100
AcDbLine
10
1843.662000000000
20
623.958000000000
30
0.0
11
1843.662000000000
21
275.188000000000
31
0.0
0
LINE
5
574
100
AcDbEntity
8
0-8寸法
6
CONTINUOUS
62
4
100
AcDbLine
10
843.662000000000
20
385.188000000000
30
0.0
11
824.344000000000
21
390.364000000000
31
0.0
0
LINE
5
575
100
AcDbEntity
8
0-8寸法
6
CONTINUOUS
62
4
100
AcDbLine
10
843.662000000000
20
385.188000000000
30
0.0
11
824.344000000000
21
380.011000000000
31
0.0
0
LINE
5
576
100
AcDbEntity
8
0-8寸法
6
CONTINUOUS
62
4
100
AcDbLine
10
863.662000000000
20
385.188000000000
30
0.0
11
768.516000000000
21
385.188000000000
31
0.0
0
LINE
5
577
100
AcDbEntity
8
0-8寸法
6
CONTINUOUS
62
4
100
AcDbLine
10
593.662000000000
20
635.188000000000
30
0.0
11
588.486000000000
21
615.869000000000
31
0.0
0
LINE
5
578
100
AcDbEntity
8
0-8寸法
6
CONTINUOUS
62
4
100
AcDbLine
10
593.662000000000
20
635.188000000000
30
0.0
11
598.838000000000
21
615.869000000000
31
0.0
0
LINE
5
579
100
AcDbEntity
8
0-8寸法
6
CONTINUOUS
62
4
100
AcDbLine
10
593.662000000000
20
655.188000000000
30
0.0
11
593.662000000000
21
560.042000000000
31
0.0
0
LINE
5
57a
100
AcDbEntity
8
0-8寸法
6
CONTINUOUS
62
4
100
AcDbLine
10
493.662000000000
20
635.188000000000
30
0.0
11
493.662000000000
21
1685.188000000000
31
0.0
0
LINE
5
57b
100
AcDbEntity
8
0-8寸法
6
CONTINUOUS
62
4
100
AcDbLine
10
493.662000000000
20
635.188000000000
30
0.0
11
488.486000000000
21
654.506000000000
31
0.0
0
LINE
5
57c
100
AcDbEntity
8
0-8寸法
6
CONTINUOUS
62
4
100
AcDbLine
10
493.662000000000
20
635.188000000000
30
0.0
11
498.838000000000
21
654.506000000000
31
0.0
0
LINE
5
57d
100
AcDbEntity
8
0-8寸法
6
CONTINUOUS
62
4
100
AcDbLine
10
493.662000000000
20
1685.188000000000
30
0.0
11
488.486000000000
21
1665.869000000000
31
0.0
0
LINE
5
57e
100
AcDbEntity
8
0-8寸法
6
CONTINUOUS
62
4
100
AcDbLine
10
493.662000000000
20
1685.188000000000
30
0.0
11
498.838000000000
21
1665.869000000000
31
0.0
0
LINE
5
57f
100
AcDbEntity
8
0-6戸当り
6
CONTINUOUS
62
3
100
AcDbLine
10
2672.694000000000
20
1652.188000000000
30
0.0
11
2672.694000000000
21
1678.188000000000
31
0.0
0
LINE
5
580
100
AcDbEntity
8
0-6戸当り
6
CONTINUOUS
62
2
100
AcDbLine
10
2672.694000000000
20
1652.188000000000
30
0.0
11
2675.094000000000
21
1652.188000000000
31
0.0
0
LINE
5
581
100
AcDbEntity
8
0-6戸当り
6
CONTINUOUS
62
2
100
AcDbLine
10
2672.694000000000
20
1678.188000000000
30
0.0
11
2675.094000000000
21
1678.188000000000
31
0.0
0
LINE
5
582
100
AcDbEntity
8
0-8寸法
6
CONTINUOUS
62
4
100
AcDbLine
10
2641.094000000000
20
1672.715000000000
30
0.0
11
2641.094000000000
21
1920.188000000000
31
0.0
0
LINE
5
583
100
AcDbEntity
8
0-8寸法
6
CONTINUOUS
62
4
100
AcDbLine
10
2687.094000000000
20
1910.188000000000
30
0.0
11
2706.413000000000
21
1915.364000000000
31
0.0
0
LINE
5
584
100
AcDbEntity
8
0-8寸法
6
CONTINUOUS
62
4
100
AcDbLine
10
2687.094000000000
20
1910.188000000000
30
0.0
11
2706.413000000000
21
1905.011000000000
31
0.0
0
LINE
5
585
100
AcDbEntity
8
0-8寸法
6
CONTINUOUS
62
4
100
AcDbLine
10
2774.845000000000
20
1910.188000000000
30
0.0
11
2675.094000000000
21
1910.188000000000
31
0.0
0
LINE
5
586
100
AcDbEntity
8
0-8寸法
6
CONTINUOUS
62
4
100
AcDbLine
10
2675.094000000000
20
1691.001000000000
30
0.0
11
2675.094000000000
21
1920.188000000000
31
0.0
0
LINE
5
587
100
AcDbEntity
8
0-8寸法
6
CONTINUOUS
62
4
100
AcDbLine
10
2687.094000000000
20
1793.013000000000
30
0.0
11
2687.094000000000
21
1920.188000000000
31
0.0
0
LINE
5
588
100
AcDbEntity
8
0-8寸法
6
CONTINUOUS
62
4
100
AcDbLine
10
2987.094000000000
20
1535.188000000000
30
0.0
11
2987.094000000000
21
1685.188000000000
31
0.0
0
LINE
5
589
100
AcDbEntity
8
0-8寸法
6
CONTINUOUS
62
4
100
AcDbLine
10
2987.094000000000
20
1535.188000000000
30
0.0
11
2981.917000000000
21
1554.506000000000
31
0.0
0
LINE
5
58a
100
AcDbEntity
8
0-8寸法
6
CONTINUOUS
62
4
100
AcDbLine
10
2987.094000000000
20
1535.188000000000
30
0.0
11
2992.270000000000
21
1554.506000000000
31
0.0
0
LINE
5
58b
100
AcDbEntity
8
0-8寸法
6
CONTINUOUS
62
4
100
AcDbLine
10
2987.094000000000
20
1685.188000000000
30
0.0
11
2981.917000000000
21
1665.869000000000
31
0.0
0
LINE
5
58c
100
AcDbEntity
8
0-8寸法
6
CONTINUOUS
62
4
100
AcDbLine
10
2987.094000000000
20
1685.188000000000
30
0.0
11
2992.270000000000
21
1665.869000000000
31
0.0
0
LINE
5
58d
100
AcDbEntity
8
0-8寸法
6
CONTINUOUS
62
4
100
AcDbLine
10
2691.773000000000
20
1685.188000000000
30
0.0
11
2997.094000000000
21
1685.188000000000
31
0.0
0
LINE
5
58e
100
AcDbEntity
8
0-8寸法
6
CONTINUOUS
62
4
100
AcDbLine
10
2675.094000000000
20
1185.188000000000
30
0.0
11
2694.412000000000
21
1190.364000000000
31
0.0
0
LINE
5
58f
100
AcDbEntity
8
0-8寸法
6
CONTINUOUS
62
4
100
AcDbLine
10
2675.094000000000
20
1185.188000000000
30
0.0
11
2694.412000000000
21
1180.011000000000
31
0.0
0
LINE
5
590
100
AcDbEntity
8
0-8寸法
6
CONTINUOUS
62
4
100
AcDbLine
10
2655.094000000000
20
1185.188000000000
30
0.0
11
2635.775000000000
21
1190.364000000000
31
0.0
0
LINE
5
591
100
AcDbEntity
8
0-8寸法
6
CONTINUOUS
62
4
100
AcDbLine
10
2655.094000000000
20
1185.188000000000
30
0.0
11
2635.775000000000
21
1180.011000000000
31
0.0
0
LINE
5
592
100
AcDbEntity
8
0-3RC
6
CONTINUOUS
62
6
100
AcDbLine
10
2687.094000000000
20
1176.115000000000
30
0.0
11
2687.094000000000
21
535.188000000000
31
0.0
0
LINE
5
593
100
AcDbEntity
8
0-8寸法
6
CONTINUOUS
62
4
100
AcDbLine
10
2784.234000000000
20
1185.188000000000
30
0.0
11
2623.678000000000
21
1185.188000000000
31
0.0
0
LINE
5
594
100
AcDbEntity
8
0-6戸当り
6
CONTINUOUS
62
6
100
AcDbLine
10
2675.094000000000
20
1269.454000000000
30
0.0
11
2675.094000000000
21
635.188000000000
31
0.0
0
LINE
5
595
100
AcDbEntity
8
0-3RC
6
CONTINUOUS
62
6
100
AcDbLine
10
2687.094000000000
20
1785.187000000000
30
0.0
11
2687.094000000000
21
1198.928000000000
31
0.0
0
LINE
5
596
100
AcDbEntity
8
0-6戸当り
6
CONTINUOUS
62
6
100
AcDbLine
10
2675.094000000000
20
1685.188000000000
30
0.0
11
2675.094000000000
21
1352.005000000000
31
0.0
0
LINE
5
597
100
AcDbEntity
8
0-8寸法
6
CONTINUOUS
62
4
100
AcDbLine
10
2649.094000000000
20
1335.188000000000
30
0.0
11
2784.234000000000
21
1335.188000000000
31
0.0
0
LINE
5
598
100
AcDbEntity
8
0-8寸法
6
CONTINUOUS
62
4
100
AcDbLine
10
2008.772000000000
20
285.188000000000
30
0.0
11
2552.094000000000
21
285.188000000000
31
0.0
0
LINE
5
599
100
AcDbEntity
8
0-8寸法
6
CONTINUOUS
62
4
100
AcDbLine
10
261.380000000000
20
1810.188000000000
30
0.0
11
893.662000000000
21
1810.188000000000
31
0.0
0
LINE
5
59a
100
AcDbEntity
8
0-8寸法
6
CONTINUOUS
62
4
100
AcDbLine
10
893.662000000000
20
2010.188000000000
30
0.0
11
893.662000000000
21
1810.188000000000
31
0.0
0
LINE
5
59b
100
AcDbEntity
8
0-3RC
6
CONTINUOUS
62
6
100
AcDbLine
10
743.662000000000
20
2404.647000000000
30
0.0
11
1943.662000000000
21
2404.647000000000
31
0.0
0
LINE
5
59c
100
AcDbEntity
8
0-6戸当り
6
CONTINUOUS
62
6
100
AcDbLine
10
843.662000000000
20
2392.647000000000
30
0.0
11
843.662000000000
21
2404.647000000000
31
0.0
0
LINE
5
59d
100
AcDbEntity
8
0-6戸当り
6
CONTINUOUS
62
7
100
AcDbLine
10
843.662000000000
20
2392.647000000000
30
0.0
11
1843.662000000000
21
2392.647000000000
31
0.0
0
LINE
5
59e
100
AcDbEntity
8
0-6戸当り
6
CONTINUOUS
62
6
100
AcDbLine
10
1843.662000000000
20
2392.647000000000
30
0.0
11
1843.662000000000
21
2404.647000000000
31
0.0
0
LINE
5
59f
100
AcDbEntity
8
0-6戸当り
6
CONTINUOUS
62
2
100
AcDbLine
10
1818.663000000000
20
2408.849000000000
30
0.0
11
1816.162000000000
21
2438.361000000000
31
0.0
0
LINE
5
5a0
100
AcDbEntity
8
0-6戸当り
6
CONTINUOUS
62
2
100
AcDbLine
10
1823.662000000000
20
2408.849000000000
30
0.0
11
1821.162000000000
21
2438.361000000000
31
0.0
0
LINE
5
5a1
100
AcDbEntity
8
0-6戸当り
6
CONTINUOUS
62
2
100
AcDbLine
10
1818.663000000000
20
2408.849000000000
30
0.0
11
1828.662000000000
21
2408.849000000000
31
0.0
0
LINE
5
5a2
100
AcDbEntity
8
0-6戸当り
6
CONTINUOUS
62
2
100
AcDbLine
10
1818.305000000000
20
2413.065000000000
30
0.0
11
1823.305000000000
21
2413.065000000000
31
0.0
0
LINE
5
5a3
100
AcDbEntity
8
0-6戸当り
6
CONTINUOUS
62
2
100
AcDbLine
10
1817.948000000000
20
2417.281000000000
30
0.0
11
1822.948000000000
21
2417.281000000000
31
0.0
0
LINE
5
5a4
100
AcDbEntity
8
0-6戸当り
6
CONTINUOUS
62
2
100
AcDbLine
10
1817.591000000000
20
2421.497000000000
30
0.0
11
1822.591000000000
21
2421.497000000000
31
0.0
0
LINE
5
5a5
100
AcDbEntity
8
0-6戸当り
6
CONTINUOUS
62
2
100
AcDbLine
10
1817.233000000000
20
2425.713000000000
30
0.0
11
1822.234000000000
21
2425.713000000000
31
0.0
0
LINE
5
5a6
100
AcDbEntity
8
0-6戸当り
6
CONTINUOUS
62
2
100
AcDbLine
10
1816.877000000000
20
2429.929000000000
30
0.0
11
1821.877000000000
21
2429.929000000000
31
0.0
0
LINE
5
5a7
100
AcDbEntity
8
0-6戸当り
6
CONTINUOUS
62
2
100
AcDbLine
10
1816.520000000000
20
2434.145000000000
30
0.0
11
1821.520000000000
21
2434.145000000000
31
0.0
0
POLYLINE
5
5a8
100
AcDbEntity
8
0-6戸当り
6
CONTINUOUS
62
  2
100
AcDb2dPolyline
66
1
10
0.0
20
0.0
30
0.0
70
0
0
VERTEX
5
5a9
100
AcDbEntity
8
0-6戸当り
6
CONTINUOUS
62
  2
100
AcDbVertex
100
AcDb2dVertex
10
1828.662000000000
20
2408.849000000000
30
0.0
0
VERTEX
5
5aa
100
AcDbEntity
8
0-6戸当り
6
CONTINUOUS
62
  2
100
AcDbVertex
100
AcDb2dVertex
10
1831.162000000000
20
2438.361000000000
30
0.0
0
VERTEX
5
5ab
100
AcDbEntity
8
0-6戸当り
6
CONTINUOUS
62
  2
100
AcDbVertex
100
AcDb2dVertex
10
1826.162000000000
20
2438.361000000000
30
0.0
0
SEQEND
5
5ac
100
AcDbEntity
8
0-6戸当り
0
LINE
5
5ad
100
AcDbEntity
8
0-6戸当り
6
CONTINUOUS
62
2
100
AcDbLine
10
1823.662000000000
20
2408.849000000000
30
0.0
11
1826.162000000000
21
2438.361000000000
31
0.0
0
LINE
5
5ae
100
AcDbEntity
8
0-6戸当り
6
CONTINUOUS
62
2
100
AcDbLine
10
1829.019000000000
20
2413.065000000000
30
0.0
11
1824.020000000000
21
2413.065000000000
31
0.0
0
LINE
5
5af
100
AcDbEntity
8
0-6戸当り
6
CONTINUOUS
62
2
100
AcDbLine
10
1829.376000000000
20
2417.281000000000
30
0.0
11
1824.377000000000
21
2417.281000000000
31
0.0
0
LINE
5
5b0
100
AcDbEntity
8
0-6戸当り
6
CONTINUOUS
62
2
100
AcDbLine
10
1829.734000000000
20
2421.497000000000
30
0.0
11
1824.734000000000
21
2421.497000000000
31
0.0
0
LINE
5
5b1
100
AcDbEntity
8
0-6戸当り
6
CONTINUOUS
62
2
100
AcDbLine
10
1830.091000000000
20
2425.713000000000
30
0.0
11
1825.091000000000
21
2425.713000000000
31
0.0
0
LINE
5
5b2
100
AcDbEntity
8
0-6戸当り
6
CONTINUOUS
62
2
100
AcDbLine
10
1830.447000000000
20
2429.929000000000
30
0.0
11
1825.448000000000
21
2429.929000000000
31
0.0
0
LINE
5
5b3
100
AcDbEntity
8
0-6戸当り
6
CONTINUOUS
62
2
100
AcDbLine
10
1830.805000000000
20
2434.145000000000
30
0.0
11
1825.805000000000
21
2434.145000000000
31
0.0
0
LINE
5
5b4
100
AcDbEntity
8
0-6戸当り
6
CONTINUOUS
62
3
100
AcDbLine
10
1812.662000000000
20
2391.047000000000
30
0.0
11
1812.662000000000
21
2392.647000000000
31
0.0
0
LINE
5
5b5
100
AcDbEntity
8
0-6戸当り
6
CONTINUOUS
62
3
100
AcDbLine
10
1834.663000000000
20
2391.047000000000
30
0.0
11
1834.663000000000
21
2392.647000000000
31
0.0
0
LINE
5
5b6
100
AcDbEntity
8
0-6戸当り
6
CONTINUOUS
62
7
100
AcDbLine
10
1815.162000000000
20
2383.047000000000
30
0.0
11
1813.847000000000
21
2383.806000000000
31
0.0
0
POLYLINE
5
5b7
100
AcDbEntity
8
0-6戸当り
6
CONTINUOUS
62
  7
100
AcDb2dPolyline
66
1
10
0.0
20
0.0
30
0.0
70
0
0
VERTEX
5
5b8
100
AcDbEntity
8
0-6戸当り
6
CONTINUOUS
62
  7
100
AcDbVertex
100
AcDb2dVertex
10
1815.162000000000
20
2383.047000000000
30
0.0
0
VERTEX
5
5b9
100
AcDbEntity
8
0-6戸当り
6
CONTINUOUS
62
  7
100
AcDbVertex
100
AcDb2dVertex
10
1832.162000000000
20
2383.047000000000
30
0.0
0
VERTEX
5
5ba
100
AcDbEntity
8
0-6戸当り
6
CONTINUOUS
62
  7
100
AcDbVertex
100
AcDb2dVertex
10
1833.477000000000
20
2383.806000000000
30
0.0
0
SEQEND
5
5bb
100
AcDbEntity
8
0-6戸当り
0
LINE
5
5bc
100
AcDbEntity
8
0-6戸当り
6
CONTINUOUS
62
7
100
AcDbLine
10
1833.477000000000
20
2391.047000000000
30
0.0
11
1833.477000000000
21
2383.806000000000
31
0.0
0
LINE
5
5bd
100
AcDbEntity
8
0-6戸当り
6
CONTINUOUS
62
7
100
AcDbLine
10
1818.755000000000
20
2391.047000000000
30
0.0
11
1818.755000000000
21
2383.806000000000
31
0.0
0
LINE
5
5be
100
AcDbEntity
8
0-6戸当り
6
CONTINUOUS
62
7
100
AcDbLine
10
1828.570000000000
20
2391.047000000000
30
0.0
11
1828.570000000000
21
2383.806000000000
31
0.0
0
LINE
5
5bf
100
AcDbEntity
8
0-6戸当り
6
CONTINUOUS
62
7
100
AcDbLine
10
1813.847000000000
20
2391.047000000000
30
0.0
11
1813.847000000000
21
2383.806000000000
31
0.0
0
LINE
5
5c0
100
AcDbEntity
8
0-6戸当り
6
CONTINUOUS
62
3
100
AcDbLine
10
1834.663000000000
20
2391.047000000000
30
0.0
11
1812.662000000000
21
2391.047000000000
31
0.0
0
LINE
5
5c1
100
AcDbEntity
8
0-6戸当り
6
CONTINUOUS
62
3
100
AcDbLine
10
1828.662000000000
20
2383.047000000000
30
0.0
11
1828.662000000000
21
2378.361000000000
31
0.0
0
LINE
5
5c2
100
AcDbEntity
8
0-6戸当り
6
CONTINUOUS
62
3
100
AcDbLine
10
1818.662000000000
20
2383.047000000000
30
0.0
11
1818.662000000000
21
2378.361000000000
31
0.0
0
LINE
5
5c3
100
AcDbEntity
8
0-6戸当り
6
CONTINUOUS
62
4
100
AcDbLine
10
1827.662000000000
20
2383.047000000000
30
0.0
11
1827.662000000000
21
2378.130000000000
31
0.0
0
LINE
5
5c4
100
AcDbEntity
8
0-6戸当り
6
CONTINUOUS
62
4
100
AcDbLine
10
1819.662000000000
20
2383.047000000000
30
0.0
11
1819.662000000000
21
2378.130000000000
31
0.0
0
LINE
5
5c5
100
AcDbEntity
8
0-6戸当り
6
CONTINUOUS
62
3
100
AcDbLine
10
1828.662000000000
20
2378.361000000000
30
0.0
11
1818.662000000000
21
2378.361000000000
31
0.0
0
LINE
5
5c6
100
AcDbEntity
8
0-6戸当り
6
CONTINUOUS
62
2
100
AcDbLine
10
1816.162000000000
20
2438.361000000000
30
0.0
11
1821.162000000000
21
2438.361000000000
31
0.0
0
LINE
5
5c7
100
AcDbEntity
8
0-6戸当り
6
CONTINUOUS
62
2
100
AcDbLine
10
1818.663000000000
20
2404.647000000000
30
0.0
11
1818.663000000000
21
2408.849000000000
31
0.0
0
LINE
5
5c8
100
AcDbEntity
8
0-6戸当り
6
CONTINUOUS
62
2
100
AcDbLine
10
1828.662000000000
20
2404.647000000000
30
0.0
11
1828.662000000000
21
2408.849000000000
31
0.0
0
LINE
5
5c9
100
AcDbEntity
8
0-5基準線
6
CENTER2
62
7
100
AcDbLine
10
1823.662000000000
20
2374.474000000000
30
0.0
11
1823.662000000000
21
2443.430000000000
31
0.0
0
LINE
5
5ca
100
AcDbEntity
8
0-6戸当り
6
CONTINUOUS
62
3
100
AcDbLine
10
874.662000000000
20
2391.047000000000
30
0.0
11
874.662000000000
21
2392.647000000000
31
0.0
0
LINE
5
5cb
100
AcDbEntity
8
0-6戸当り
6
CONTINUOUS
62
3
100
AcDbLine
10
852.662000000000
20
2391.047000000000
30
0.0
11
852.662000000000
21
2392.647000000000
31
0.0
0
LINE
5
5cc
100
AcDbEntity
8
0-6戸当り
6
CONTINUOUS
62
7
100
AcDbLine
10
872.162000000000
20
2383.047000000000
30
0.0
11
873.477000000000
21
2383.806000000000
31
0.0
0
POLYLINE
5
5cd
100
AcDbEntity
8
0-6戸当り
6
CONTINUOUS
62
  7
100
AcDb2dPolyline
66
1
10
0.0
20
0.0
30
0.0
70
0
0
VERTEX
5
5ce
100
AcDbEntity
8
0-6戸当り
6
CONTINUOUS
62
  7
100
AcDbVertex
100
AcDb2dVertex
10
872.162000000000
20
2383.047000000000
30
0.0
0
VERTEX
5
5cf
100
AcDbEntity
8
0-6戸当り
6
CONTINUOUS
62
  7
100
AcDbVertex
100
AcDb2dVertex
10
855.162000000000
20
2383.047000000000
30
0.0
0
VERTEX
5
5d0
100
AcDbEntity
8
0-6戸当り
6
CONTINUOUS
62
  7
100
AcDbVertex
100
AcDb2dVertex
10
853.847000000000
20
2383.806000000000
30
0.0
0
SEQEND
5
5d1
100
AcDbEntity
8
0-6戸当り
0
LINE
5
5d2
100
AcDbEntity
8
0-6戸当り
6
CONTINUOUS
62
7
100
AcDbLine
10
853.847000000000
20
2391.047000000000
30
0.0
11
853.847000000000
21
2383.806000000000
31
0.0
0
LINE
5
5d3
100
AcDbEntity
8
0-6戸当り
6
CONTINUOUS
62
7
100
AcDbLine
10
868.569000000000
20
2391.047000000000
30
0.0
11
868.569000000000
21
2383.806000000000
31
0.0
0
LINE
5
5d4
100
AcDbEntity
8
0-6戸当り
6
CONTINUOUS
62
7
100
AcDbLine
10
858.755000000000
20
2391.047000000000
30
0.0
11
858.755000000000
21
2383.806000000000
31
0.0
0
LINE
5
5d5
100
AcDbEntity
8
0-6戸当り
6
CONTINUOUS
62
7
100
AcDbLine
10
873.477000000000
20
2391.047000000000
30
0.0
11
873.477000000000
21
2383.806000000000
31
0.0
0
LINE
5
5d6
100
AcDbEntity
8
0-6戸当り
6
CONTINUOUS
62
3
100
AcDbLine
10
852.662000000000
20
2391.047000000000
30
0.0
11
874.662000000000
21
2391.047000000000
31
0.0
0
LINE
5
5d7
100
AcDbEntity
8
0-6戸当り
6
CONTINUOUS
62
3
100
AcDbLine
10
858.662000000000
20
2383.047000000000
30
0.0
11
858.662000000000
21
2378.361000000000
31
0.0
0
LINE
5
5d8
100
AcDbEntity
8
0-6戸当り
6
CONTINUOUS
62
3
100
AcDbLine
10
868.662000000000
20
2383.047000000000
30
0.0
11
868.662000000000
21
2378.361000000000
31
0.0
0
LINE
5
5d9
100
AcDbEntity
8
0-6戸当り
6
CONTINUOUS
62
4
100
AcDbLine
10
859.662000000000
20
2383.047000000000
30
0.0
11
859.662000000000
21
2378.130000000000
31
0.0
0
LINE
5
5da
100
AcDbEntity
8
0-6戸当り
6
CONTINUOUS
62
4
100
AcDbLine
10
867.662000000000
20
2383.047000000000
30
0.0
11
867.662000000000
21
2378.130000000000
31
0.0
0
LINE
5
5db
100
AcDbEntity
8
0-6戸当り
6
CONTINUOUS
62
3
100
AcDbLine
10
858.662000000000
20
2378.361000000000
30
0.0
11
868.662000000000
21
2378.361000000000
31
0.0
0
LINE
5
5dc
100
AcDbEntity
8
0-5基準線
6
CENTER2
62
7
100
AcDbLine
10
863.662000000000
20
2374.474000000000
30
0.0
11
863.662000000000
21
2443.430000000000
31
0.0
0
LINE
5
5dd
100
AcDbEntity
8
0-8寸法
6
CONTINUOUS
62
4
100
AcDbLine
10
2850.461000000000
20
1535.188000000000
30
0.0
11
2997.094000000000
21
1535.188000000000
31
0.0
0
LINE
5
5de
100
AcDbEntity
8
0-3RC
6
CONTINUOUS
62
7
100
AcDbLine
10
2675.094000000000
20
1535.188000000000
30
0.0
11
2837.094000000000
21
1535.188000000000
31
0.0
0
LINE
5
5df
100
AcDbEntity
8
0-3RC
6
DOT
62
4
100
AcDbLine
10
943.662000000000
20
2392.647000000000
30
0.0
11
943.662000000000
21
2504.647000000000
31
0.0
0
LINE
5
5e0
100
AcDbEntity
8
0-3RC
6
CONTINUOUS
62
7
100
AcDbLine
10
1743.662000000000
20
2392.647000000000
30
0.0
11
1743.662000000000
21
2504.647000000000
31
0.0
0
LINE
5
5e1
100
AcDbEntity
8
0-8寸法
6
CONTINUOUS
62
4
100
AcDbLine
10
943.662000000000
20
2520.779000000000
30
0.0
11
943.662000000000
21
2664.647000000000
31
0.0
0
LINE
5
5e2
100
AcDbEntity
8
0-5基準線
6
CENTER2
62
7
100
AcDbLine
10
1343.662000000000
20
2504.647000000000
30
0.0
11
1343.662000000000
21
2287.357000000000
31
0.0
0
LINE
5
5e3
100
AcDbEntity
8
0-8寸法
6
CONTINUOUS
62
4
100
AcDbLine
10
843.662000000000
20
2654.647000000000
30
0.0
11
943.662000000000
21
2654.647000000000
31
0.0
0
LINE
5
5e4
100
AcDbEntity
8
0-8寸法
6
CONTINUOUS
62
4
100
AcDbLine
10
843.662000000000
20
2654.647000000000
30
0.0
11
862.981000000000
21
2659.823000000000
31
0.0
0
LINE
5
5e5
100
AcDbEntity
8
0-8寸法
6
CONTINUOUS
62
4
100
AcDbLine
10
843.662000000000
20
2654.647000000000
30
0.0
11
862.981000000000
21
2649.471000000000
31
0.0
0
LINE
5
5e6
100
AcDbEntity
8
0-8寸法
6
CONTINUOUS
62
4
100
AcDbLine
10
943.662000000000
20
2654.647000000000
30
0.0
11
924.343000000000
21
2659.823000000000
31
0.0
0
LINE
5
5e7
100
AcDbEntity
8
0-8寸法
6
CONTINUOUS
62
4
100
AcDbLine
10
943.662000000000
20
2654.647000000000
30
0.0
11
924.343000000000
21
2649.471000000000
31
0.0
0
LINE
5
5e8
100
AcDbEntity
8
0-8寸法
6
CONTINUOUS
62
4
100
AcDbLine
10
1743.662000000000
20
2654.647000000000
30
0.0
11
1843.662000000000
21
2654.647000000000
31
0.0
0
LINE
5
5e9
100
AcDbEntity
8
0-8寸法
6
CONTINUOUS
62
4
100
AcDbLine
10
1743.662000000000
20
2520.779000000000
30
0.0
11
1743.662000000000
21
2664.647000000000
31
0.0
0
LINE
5
5ea
100
AcDbEntity
8
0-8寸法
6
CONTINUOUS
62
4
100
AcDbLine
10
1743.662000000000
20
2654.647000000000
30
0.0
11
1762.981000000000
21
2659.823000000000
31
0.0
0
LINE
5
5eb
100
AcDbEntity
8
0-8寸法
6
CONTINUOUS
62
4
100
AcDbLine
10
1743.662000000000
20
2654.647000000000
30
0.0
11
1762.981000000000
21
2649.471000000000
31
0.0
0
LINE
5
5ec
100
AcDbEntity
8
0-8寸法
6
CONTINUOUS
62
4
100
AcDbLine
10
1843.662000000000
20
2654.647000000000
30
0.0
11
1824.344000000000
21
2659.823000000000
31
0.0
0
LINE
5
5ed
100
AcDbEntity
8
0-8寸法
6
CONTINUOUS
62
4
100
AcDbLine
10
1843.662000000000
20
2654.647000000000
30
0.0
11
1824.344000000000
21
2649.471000000000
31
0.0
0
LINE
5
5ee
100
AcDbEntity
8
0-8寸法
6
CONTINUOUS
62
4
100
AcDbLine
10
843.662000000000
20
2418.495000000000
30
0.0
11
843.662000000000
21
2664.647000000000
31
0.0
0
LINE
5
5ef
100
AcDbEntity
8
0-8寸法
6
CONTINUOUS
62
4
100
AcDbLine
10
1843.662000000000
20
2418.495000000000
30
0.0
11
1843.662000000000
21
2664.647000000000
31
0.0
0
LINE
5
5f0
100
AcDbEntity
8
0-8寸法
6
CONTINUOUS
62
4
100
AcDbLine
10
893.662000000000
20
2110.188000000000
30
0.0
11
1793.662000000000
21
2110.188000000000
31
0.0
0
LINE
5
5f1
100
AcDbEntity
8
0-8寸法
6
CONTINUOUS
62
4
100
AcDbLine
10
893.662000000000
20
2110.188000000000
30
0.0
11
912.981000000000
21
2115.364000000000
31
0.0
0
LINE
5
5f2
100
AcDbEntity
8
0-8寸法
6
CONTINUOUS
62
4
100
AcDbLine
10
893.662000000000
20
2110.188000000000
30
0.0
11
912.981000000000
21
2105.011000000000
31
0.0
0
LINE
5
5f3
100
AcDbEntity
8
0-8寸法
6
CONTINUOUS
62
4
100
AcDbLine
10
1793.662000000000
20
2110.188000000000
30
0.0
11
1774.344000000000
21
2115.364000000000
31
0.0
0
LINE
5
5f4
100
AcDbEntity
8
0-8寸法
6
CONTINUOUS
62
4
100
AcDbLine
10
1793.662000000000
20
2110.188000000000
30
0.0
11
1774.344000000000
21
2105.011000000000
31
0.0
0
LINE
5
5f5
100
AcDbEntity
8
0-8寸法
6
CONTINUOUS
62
4
100
AcDbLine
10
893.662000000000
20
2291.952000000000
30
0.0
11
893.662000000000
21
2100.188000000000
31
0.0
0
LINE
5
5f6
100
AcDbEntity
8
0-8寸法
6
CONTINUOUS
62
4
100
AcDbLine
10
1793.662000000000
20
2291.952000000000
30
0.0
11
1793.662000000000
21
2100.188000000000
31
0.0
0
LINE
5
5f7
100
AcDbEntity
8
0-8寸法
6
CONTINUOUS
62
4
100
AcDbLine
10
2687.094000000000
20
635.188000000000
30
0.0
11
2684.971000000000
21
615.301000000000
31
0.0
0
LINE
5
5f8
100
AcDbEntity
8
0-8寸法
6
CONTINUOUS
62
4
100
AcDbLine
10
2687.094000000000
20
635.188000000000
30
0.0
11
2675.312000000000
21
619.026000000000
31
0.0
0
LINE
5
5f9
100
AcDbEntity
8
0-9扉体
6
CONTINUOUS
62
3
100
AcDbLine
10
2663.094000000000
20
1352.005000000000
30
0.0
11
2663.094000000000
21
1520.810000000000
31
0.0
0
LINE
5
5fa
100
AcDbEntity
8
0-9扉体
6
CONTINUOUS
62
3
100
AcDbLine
10
2663.094000000000
20
1525.188000000000
30
0.0
11
2663.094000000000
21
1565.188000000000
31
0.0
0
LINE
5
5fb
100
AcDbEntity
8
0-9扉体
6
CONTINUOUS
62
3
100
AcDbLine
10
2669.094000000000
20
1352.005000000000
30
0.0
11
2669.094000000000
21
1520.810000000000
31
0.0
0
LINE
5
5fc
100
AcDbEntity
8
0-9扉体
6
CONTINUOUS
62
3
100
AcDbLine
10
2669.094000000000
20
1526.188000000000
30
0.0
11
2669.094000000000
21
1564.188000000000
31
0.0
0
LINE
5
5fd
100
AcDbEntity
8
0-9扉体
6
CONTINUOUS
62
3
100
AcDbLine
10
2663.094000000000
20
1269.454000000000
30
0.0
11
2663.094000000000
21
753.501000000000
31
0.0
0
LINE
5
5fe
100
AcDbEntity
8
0-9扉体
6
CONTINUOUS
62
3
100
AcDbLine
10
2663.094000000000
20
745.187000000000
30
0.0
11
2663.094000000000
21
705.188000000000
31
0.0
0
LINE
5
5ff
100
AcDbEntity
8
0-9扉体
6
CONTINUOUS
62
3
100
AcDbLine
10
2669.094000000000
20
1269.454000000000
30
0.0
11
2669.094000000000
21
753.501000000000
31
0.0
0
LINE
5
600
100
AcDbEntity
8
0-9扉体
6
CONTINUOUS
62
3
100
AcDbLine
10
2669.094000000000
20
744.188000000000
30
0.0
11
2669.094000000000
21
706.188000000000
31
0.0
0
LINE
5
601
100
AcDbEntity
8
0-9扉体
6
CONTINUOUS
62
3
100
AcDbLine
10
1343.662000000000
20
2380.647000000000
30
0.0
11
1728.226000000000
21
2380.647000000000
31
0.0
0
LINE
5
602
100
AcDbEntity
8
0-9扉体
6
CONTINUOUS
62
3
100
AcDbLine
10
1733.663000000000
20
2380.647000000000
30
0.0
11
1773.662000000000
21
2380.647000000000
31
0.0
0
LINE
5
603
100
AcDbEntity
8
0-9扉体
6
CONTINUOUS
62
3
100
AcDbLine
10
1343.662000000000
20
2386.647000000000
30
0.0
11
1728.226000000000
21
2386.647000000000
31
0.0
0
LINE
5
604
100
AcDbEntity
8
0-9扉体
6
CONTINUOUS
62
3
100
AcDbLine
10
1734.662000000000
20
2386.647000000000
30
0.0
11
1772.662000000000
21
2386.647000000000
31
0.0
0
LINE
5
605
100
AcDbEntity
8
0-9扉体
6
CONTINUOUS
62
4
100
AcDbLine
10
888.662000000000
20
2366.647000000000
30
0.0
11
888.662000000000
21
2372.647000000000
31
0.0
0
LINE
5
606
100
AcDbEntity
8
0-9扉体
6
CONTINUOUS
62
6
100
AcDbLine
10
943.354000000000
20
2372.647000000000
30
0.0
11
963.354000000000
21
2392.647000000000
31
0.0
0
LINE
5
607
100
AcDbEntity
8
0-9扉体
6
CONTINUOUS
62
6
100
AcDbLine
10
942.068000000000
20
2372.775000000000
30
0.0
11
961.940000000000
21
2392.647000000000
31
0.0
0
LINE
5
608
100
AcDbEntity
8
0-9扉体
6
CONTINUOUS
62
6
100
AcDbLine
10
927.798000000000
20
2372.647000000000
30
0.0
11
947.797000000000
21
2392.647000000000
31
0.0
0
LINE
5
609
100
AcDbEntity
8
0-9扉体
6
CONTINUOUS
62
6
100
AcDbLine
10
929.211000000000
20
2372.647000000000
30
0.0
11
949.211000000000
21
2392.647000000000
31
0.0
0
LINE
5
60a
100
AcDbEntity
8
0-A文字
6
CONTINUOUS
62
4
100
AcDbLine
10
1418.643000000000
20
919.949000000000
30
0.0
11
1666.650000000000
21
919.949000000000
31
0.0
0
LINE
5
60b
100
AcDbEntity
8
0-5基準線
6
CENTER2
62
7
100
AcDbLine
10
1343.662000000000
20
1735.188000000000
30
0.0
11
1343.662000000000
21
603.044000000000
31
0.0
0
LINE
5
60c
100
AcDbEntity
8
0-9扉体
6
CONTINUOUS
62
6
100
AcDbLine
10
2597.594000000000
20
1523.188000000000
30
0.0
11
2597.594000000000
21
1573.188000000000
31
0.0
0
LINE
5
60d
100
AcDbEntity
8
0-9扉体
6
CONTINUOUS
62
6
100
AcDbLine
10
2594.594000000000
20
1520.188000000000
30
0.0
11
2588.594000000000
21
1520.188000000000
31
0.0
0
LINE
5
60e
100
AcDbEntity
8
0-9扉体
6
CONTINUOUS
62
6
100
AcDbLine
10
2649.094000000000
20
1579.188000000000
30
0.0
11
2603.594000000000
21
1579.188000000000
31
0.0
0
LINE
5
60f
100
AcDbEntity
8
0-9扉体
6
CONTINUOUS
62
6
100
AcDbLine
10
2588.594000000000
20
1585.188000000000
30
0.0
11
2649.094000000000
21
1585.188000000000
31
0.0
0
LINE
5
610
100
AcDbEntity
8
0-9扉体
6
CONTINUOUS
62
6
100
AcDbLine
10
2588.594000000000
20
685.188000000000
30
0.0
11
2588.594000000000
21
1585.188000000000
31
0.0
0
LINE
5
611
100
AcDbEntity
8
0-9扉体
6
CONTINUOUS
62
6
100
AcDbLine
10
2597.594000000000
20
1058.188000000000
30
0.0
11
2597.594000000000
21
1108.188000000000
31
0.0
0
LINE
5
612
100
AcDbEntity
8
0-9扉体
6
CONTINUOUS
62
6
100
AcDbLine
10
2649.094000000000
20
1114.188000000000
30
0.0
11
2603.594000000000
21
1114.188000000000
31
0.0
0
LINE
5
613
100
AcDbEntity
8
0-9扉体
6
CONTINUOUS
62
6
100
AcDbLine
10
2588.594000000000
20
1120.188000000000
30
0.0
11
2649.094000000000
21
1120.188000000000
31
0.0
0
LINE
5
614
100
AcDbEntity
8
0-9扉体
6
CONTINUOUS
62
6
100
AcDbLine
10
2594.594000000000
20
1055.188000000000
30
0.0
11
2588.594000000000
21
1055.188000000000
31
0.0
0
LINE
5
615
100
AcDbEntity
8
0-9扉体
6
DOT
62
4
100
AcDbLine
10
1787.662000000000
20
1585.188000000000
30
0.0
11
1787.662000000000
21
685.188000000000
31
0.0
0
LINE
5
616
100
AcDbEntity
8
0-9扉体
6
DOT
62
6
100
AcDbLine
10
1787.662000000000
20
1114.188000000000
30
0.0
11
899.662000000000
21
1114.188000000000
31
0.0
0
LINE
5
617
100
AcDbEntity
8
0-9扉体
6
CONTINUOUS
62
6
100
AcDbLine
10
958.662000000000
20
685.188000000000
30
0.0
11
958.662000000000
21
1585.188000000000
31
0.0
0
LINE
5
618
100
AcDbEntity
8
0-9扉体
6
CONTINUOUS
62
6
100
AcDbLine
10
1728.662000000000
20
1585.188000000000
30
0.0
11
1728.662000000000
21
685.188000000000
31
0.0
0
LINE
5
619
100
AcDbEntity
8
0-9扉体
6
CONTINUOUS
62
6
100
AcDbLine
10
958.662000000000
20
1520.188000000000
30
0.0
11
1728.662000000000
21
1520.188000000000
31
0.0
0
LINE
5
61a
100
AcDbEntity
8
0-9扉体
6
DOT
62
6
100
AcDbLine
10
958.662000000000
20
1120.188000000000
30
0.0
11
899.662000000000
21
1120.188000000000
31
0.0
0
LINE
5
61b
100
AcDbEntity
8
0-9扉体
6
CONTINUOUS
62
6
100
AcDbLine
10
1728.662000000000
20
1055.188000000000
30
0.0
11
958.662000000000
21
1055.188000000000
31
0.0
0
LINE
5
61c
100
AcDbEntity
8
0-9扉体
6
CONTINUOUS
62
6
100
AcDbLine
10
1728.662000000000
20
1120.188000000000
30
0.0
11
958.662000000000
21
1120.188000000000
31
0.0
0
LINE
5
61d
100
AcDbEntity
8
0-9扉体
6
DOT
62
6
100
AcDbLine
10
1728.662000000000
20
1120.188000000000
30
0.0
11
1787.662000000000
21
1120.188000000000
31
0.0
0
LINE
5
61e
100
AcDbEntity
8
0-9扉体
6
CONTINUOUS
62
6
100
AcDbLine
10
1728.662000000000
20
750.188000000000
30
0.0
11
958.662000000000
21
750.188000000000
31
0.0
0
LINE
5
61f
100
AcDbEntity
8
0-9扉体
6
DOT
62
6
100
AcDbLine
10
1339.662000000000
20
1579.188000000000
30
0.0
11
1339.662000000000
21
1520.188000000000
31
0.0
0
LINE
5
620
100
AcDbEntity
8
0-9扉体
6
DOT
62
6
100
AcDbLine
10
1347.662000000000
20
1579.188000000000
30
0.0
11
1347.662000000000
21
1520.188000000000
31
0.0
0
LINE
5
621
100
AcDbEntity
8
0-9扉体
6
CONTINUOUS
62
6
100
AcDbLine
10
1339.662000000000
20
1520.188000000000
30
0.0
11
1339.662000000000
21
1120.188000000000
31
0.0
0
LINE
5
622
100
AcDbEntity
8
0-9扉体
6
CONTINUOUS
62
6
100
AcDbLine
10
1347.662000000000
20
1520.188000000000
30
0.0
11
1347.662000000000
21
1120.188000000000
31
0.0
0
LINE
5
623
100
AcDbEntity
8
0-9扉体
6
DOT
62
6
100
AcDbLine
10
1339.662000000000
20
1114.188000000000
30
0.0
11
1339.662000000000
21
1055.188000000000
31
0.0
0
LINE
5
624
100
AcDbEntity
8
0-9扉体
6
DOT
62
6
100
AcDbLine
10
1347.662000000000
20
1114.188000000000
30
0.0
11
1347.662000000000
21
1055.188000000000
31
0.0
0
LINE
5
625
100
AcDbEntity
8
0-9扉体
6
CONTINUOUS
62
6
100
AcDbLine
10
1339.662000000000
20
1055.188000000000
30
0.0
11
1339.662000000000
21
750.188000000000
31
0.0
0
LINE
5
626
100
AcDbEntity
8
0-9扉体
6
CONTINUOUS
62
6
100
AcDbLine
10
1347.662000000000
20
1055.188000000000
30
0.0
11
1347.662000000000
21
750.188000000000
31
0.0
0
LINE
5
627
100
AcDbEntity
8
0-8寸法
6
CONTINUOUS
62
4
100
AcDbLine
10
2675.094000000000
20
1910.188000000000
30
0.0
11
2518.338000000000
21
1910.188000000000
31
0.0
0
LINE
5
628
100
AcDbEntity
8
0-8寸法
6
CONTINUOUS
62
4
100
AcDbLine
10
863.662000000000
20
623.958000000000
30
0.0
11
863.662000000000
21
375.188000000000
31
0.0
0
LINE
5
629
100
AcDbEntity
8
0-8寸法
6
CONTINUOUS
62
4
100
AcDbLine
10
1823.662000000000
20
623.958000000000
30
0.0
11
1823.662000000000
21
375.188000000000
31
0.0
0
LINE
5
62a
100
AcDbEntity
8
0-8寸法
6
CONTINUOUS
62
4
100
AcDbLine
10
834.142000000000
20
655.188000000000
30
0.0
11
583.662000000000
21
655.188000000000
31
0.0
0
LINE
5
62b
100
AcDbEntity
8
0-8寸法
6
CONTINUOUS
62
4
100
AcDbLine
10
834.142000000000
20
635.188000000000
30
0.0
11
483.662000000000
21
635.188000000000
31
0.0
0
LINE
5
62c
100
AcDbEntity
8
0-8寸法
6
CONTINUOUS
62
4
100
AcDbLine
10
834.142000000000
20
1685.188000000000
30
0.0
11
483.662000000000
21
1685.188000000000
31
0.0
0
LINE
5
62d
100
AcDbEntity
8
0-9扉体
6
CONTINUOUS
62
6
100
AcDbLine
10
1731.662000000000
20
2315.147000000000
30
0.0
11
1781.662000000000
21
2315.147000000000
31
0.0
0
LINE
5
62e
100
AcDbEntity
8
0-9扉体
6
CONTINUOUS
62
6
100
AcDbLine
10
1787.662000000000
20
2366.647000000000
30
0.0
11
1787.662000000000
21
2321.147000000000
31
0.0
0
LINE
5
62f
100
AcDbEntity
8
0-9扉体
6
CONTINUOUS
62
6
100
AcDbLine
10
1728.662000000000
20
2312.147000000000
30
0.0
11
1728.662000000000
21
2306.147000000000
31
0.0
0
LINE
5
630
100
AcDbEntity
8
0-9扉体
6
CONTINUOUS
62
6
100
AcDbLine
10
1793.662000000000
20
2306.147000000000
30
0.0
11
1793.662000000000
21
2366.647000000000
31
0.0
0
LINE
5
631
100
AcDbEntity
8
0-9扉体
6
CONTINUOUS
62
6
100
AcDbLine
10
893.662000000000
20
2306.147000000000
30
0.0
11
893.662000000000
21
2366.647000000000
31
0.0
0
LINE
5
632
100
AcDbEntity
8
0-9扉体
6
CONTINUOUS
62
6
100
AcDbLine
10
893.662000000000
20
2306.147000000000
30
0.0
11
1793.662000000000
21
2306.147000000000
31
0.0
0
LINE
5
633
100
AcDbEntity
8
0-9扉体
6
CONTINUOUS
62
6
100
AcDbLine
10
1347.662000000000
20
2366.647000000000
30
0.0
11
1347.662000000000
21
2306.147000000000
31
0.0
0
LINE
5
634
100
AcDbEntity
8
0-9扉体
6
DOT
62
6
100
AcDbLine
10
1339.662000000000
20
2366.647000000000
30
0.0
11
1339.662000000000
21
2306.147000000000
31
0.0
0
LINE
5
635
100
AcDbEntity
8
0-9扉体
6
CONTINUOUS
62
6
100
AcDbLine
10
913.655000000000
20
2372.647000000000
30
0.0
11
933.655000000000
21
2392.647000000000
31
0.0
0
LINE
5
636
100
AcDbEntity
8
0-9扉体
6
CONTINUOUS
62
6
100
AcDbLine
10
915.069000000000
20
2372.647000000000
30
0.0
11
935.069000000000
21
2392.647000000000
31
0.0
0
LINE
5
637
100
AcDbEntity
8
0-9扉体
6
CONTINUOUS
62
6
100
AcDbLine
10
899.513000000000
20
2372.647000000000
30
0.0
11
919.513000000000
21
2392.647000000000
31
0.0
0
LINE
5
638
100
AcDbEntity
8
0-9扉体
6
CONTINUOUS
62
6
100
AcDbLine
10
901.228000000000
20
2372.948000000000
30
0.0
11
920.927000000000
21
2392.647000000000
31
0.0
0
LINE
5
639
100
AcDbEntity
8
0-9扉体
6
CONTINUOUS
62
6
100
AcDbLine
10
893.788000000000
20
2381.064000000000
30
0.0
11
905.371000000000
21
2392.647000000000
31
0.0
0
LINE
5
63a
100
AcDbEntity
8
0-9扉体
6
CONTINUOUS
62
6
100
AcDbLine
10
894.045000000000
20
2379.907000000000
30
0.0
11
906.785000000000
21
2392.647000000000
31
0.0
0
LINE
5
63b
100
AcDbEntity
8
0-8寸法
6
CONTINUOUS
62
4
100
AcDbLine
10
1851.678000000000
20
1810.188000000000
30
0.0
11
2438.946000000000
21
1810.188000000000
31
0.0
0
LINE
5
63c
100
AcDbEntity
8
0-6戸当り
6
CONTINUOUS
62
3
100
AcDbLine
10
1058.662000000000
20
664.987000000000
30
0.0
11
1067.149000000000
21
660.088000000000
31
0.0
0
LINE
5
63d
100
AcDbEntity
8
0-6戸当り
6
CONTINUOUS
62
3
100
AcDbLine
10
1058.662000000000
20
645.388000000000
30
0.0
11
1067.149000000000
21
650.288000000000
31
0.0
0
LINE
5
63e
100
AcDbEntity
8
0-6戸当り
6
CONTINUOUS
62
3
100
AcDbLine
10
1067.149000000000
20
660.088000000000
30
0.0
11
1067.149000000000
21
650.288000000000
31
0.0
0
LINE
5
63f
100
AcDbEntity
8
0-6戸当り
6
CONTINUOUS
62
3
100
AcDbLine
10
1058.662000000000
20
645.388000000000
30
0.0
11
1050.175000000000
21
650.288000000000
31
0.0
0
LINE
5
640
100
AcDbEntity
8
0-6戸当り
6
CONTINUOUS
62
3
100
AcDbLine
10
1058.662000000000
20
664.987000000000
30
0.0
11
1050.175000000000
21
660.088000000000
31
0.0
0
LINE
5
641
100
AcDbEntity
8
0-6戸当り
6
CONTINUOUS
62
3
100
AcDbLine
10
1050.175000000000
20
650.288000000000
30
0.0
11
1050.175000000000
21
660.088000000000
31
0.0
0
LINE
5
642
100
AcDbEntity
8
0-5基準線
6
CENTER2
62
7
100
AcDbLine
10
1058.662000000000
20
640.188000000000
30
0.0
11
1058.662000000000
21
670.187000000000
31
0.0
0
LINE
5
643
100
AcDbEntity
8
0-5基準線
6
CENTER2
62
7
100
AcDbLine
10
1073.662000000000
20
655.188000000000
30
0.0
11
1043.662000000000
21
655.188000000000
31
0.0
0
LINE
5
644
100
AcDbEntity
8
0-6戸当り
6
CONTINUOUS
62
3
100
AcDbLine
10
1248.662000000000
20
664.987000000000
30
0.0
11
1257.149000000000
21
660.088000000000
31
0.0
0
LINE
5
645
100
AcDbEntity
8
0-6戸当り
6
CONTINUOUS
62
3
100
AcDbLine
10
1248.662000000000
20
645.388000000000
30
0.0
11
1257.149000000000
21
650.288000000000
31
0.0
0
LINE
5
646
100
AcDbEntity
8
0-6戸当り
6
CONTINUOUS
62
3
100
AcDbLine
10
1257.149000000000
20
660.088000000000
30
0.0
11
1257.149000000000
21
650.288000000000
31
0.0
0
LINE
5
647
100
AcDbEntity
8
0-6戸当り
6
CONTINUOUS
62
3
100
AcDbLine
10
1248.662000000000
20
645.388000000000
30
0.0
11
1240.175000000000
21
650.288000000000
31
0.0
0
LINE
5
648
100
AcDbEntity
8
0-6戸当り
6
CONTINUOUS
62
3
100
AcDbLine
10
1248.662000000000
20
664.987000000000
30
0.0
11
1240.175000000000
21
660.088000000000
31
0.0
0
LINE
5
649
100
AcDbEntity
8
0-6戸当り
6
CONTINUOUS
62
3
100
AcDbLine
10
1240.175000000000
20
650.288000000000
30
0.0
11
1240.175000000000
21
660.088000000000
31
0.0
0
LINE
5
64a
100
AcDbEntity
8
0-5基準線
6
CENTER2
62
7
100
AcDbLine
10
1248.662000000000
20
640.188000000000
30
0.0
11
1248.662000000000
21
670.187000000000
31
0.0
0
LINE
5
64b
100
AcDbEntity
8
0-5基準線
6
CENTER2
62
7
100
AcDbLine
10
1263.662000000000
20
655.188000000000
30
0.0
11
1233.662000000000
21
655.188000000000
31
0.0
0
LINE
5
64c
100
AcDbEntity
8
0-6戸当り
6
CONTINUOUS
62
3
100
AcDbLine
10
1438.662000000000
20
664.987000000000
30
0.0
11
1447.149000000000
21
660.088000000000
31
0.0
0
LINE
5
64d
100
AcDbEntity
8
0-6戸当り
6
CONTINUOUS
62
3
100
AcDbLine
10
1438.662000000000
20
645.388000000000
30
0.0
11
1447.149000000000
21
650.288000000000
31
0.0
0
LINE
5
64e
100
AcDbEntity
8
0-6戸当り
6
CONTINUOUS
62
3
100
AcDbLine
10
1447.149000000000
20
660.088000000000
30
0.0
11
1447.149000000000
21
650.288000000000
31
0.0
0
LINE
5
64f
100
AcDbEntity
8
0-6戸当り
6
CONTINUOUS
62
3
100
AcDbLine
10
1438.662000000000
20
645.388000000000
30
0.0
11
1430.175000000000
21
650.288000000000
31
0.0
0
LINE
5
650
100
AcDbEntity
8
0-6戸当り
6
CONTINUOUS
62
3
100
AcDbLine
10
1438.662000000000
20
664.987000000000
30
0.0
11
1430.175000000000
21
660.088000000000
31
0.0
0
LINE
5
651
100
AcDbEntity
8
0-6戸当り
6
CONTINUOUS
62
3
100
AcDbLine
10
1430.175000000000
20
650.288000000000
30
0.0
11
1430.175000000000
21
660.088000000000
31
0.0
0
LINE
5
652
100
AcDbEntity
8
0-5基準線
6
CENTER2
62
7
100
AcDbLine
10
1438.662000000000
20
640.188000000000
30
0.0
11
1438.662000000000
21
670.187000000000
31
0.0
0
LINE
5
653
100
AcDbEntity
8
0-5基準線
6
CENTER2
62
7
100
AcDbLine
10
1453.662000000000
20
655.188000000000
30
0.0
11
1423.662000000000
21
655.188000000000
31
0.0
0
LINE
5
654
100
AcDbEntity
8
0-6戸当り
6
CONTINUOUS
62
3
100
AcDbLine
10
1628.662000000000
20
664.987000000000
30
0.0
11
1637.149000000000
21
660.088000000000
31
0.0
0
LINE
5
655
100
AcDbEntity
8
0-6戸当り
6
CONTINUOUS
62
3
100
AcDbLine
10
1628.662000000000
20
645.388000000000
30
0.0
11
1637.149000000000
21
650.288000000000
31
0.0
0
LINE
5
656
100
AcDbEntity
8
0-6戸当り
6
CONTINUOUS
62
3
100
AcDbLine
10
1637.149000000000
20
660.088000000000
30
0.0
11
1637.149000000000
21
650.288000000000
31
0.0
0
LINE
5
657
100
AcDbEntity
8
0-6戸当り
6
CONTINUOUS
62
3
100
AcDbLine
10
1628.662000000000
20
645.388000000000
30
0.0
11
1620.175000000000
21
650.288000000000
31
0.0
0
LINE
5
658
100
AcDbEntity
8
0-6戸当り
6
CONTINUOUS
62
3
100
AcDbLine
10
1628.662000000000
20
664.987000000000
30
0.0
11
1620.175000000000
21
660.088000000000
31
0.0
0
LINE
5
659
100
AcDbEntity
8
0-6戸当り
6
CONTINUOUS
62
3
100
AcDbLine
10
1620.175000000000
20
650.288000000000
30
0.0
11
1620.175000000000
21
660.088000000000
31
0.0
0
LINE
5
65a
100
AcDbEntity
8
0-5基準線
6
CENTER2
62
7
100
AcDbLine
10
1628.662000000000
20
640.188000000000
30
0.0
11
1628.662000000000
21
670.187000000000
31
0.0
0
LINE
5
65b
100
AcDbEntity
8
0-5基準線
6
CENTER2
62
7
100
AcDbLine
10
1643.662000000000
20
655.188000000000
30
0.0
11
1613.662000000000
21
655.188000000000
31
0.0
0
LINE
5
65c
100
AcDbEntity
8
0-8寸法
6
CONTINUOUS
62
4
100
AcDbLine
10
863.662000000000
20
385.188000000000
30
0.0
11
1058.662000000000
21
385.188000000000
31
0.0
0
LINE
5
65d
100
AcDbEntity
8
0-8寸法
6
CONTINUOUS
62
4
100
AcDbLine
10
863.662000000000
20
385.188000000000
30
0.0
11
882.981000000000
21
390.364000000000
31
0.0
0
LINE
5
65e
100
AcDbEntity
8
0-8寸法
6
CONTINUOUS
62
4
100
AcDbLine
10
863.662000000000
20
385.188000000000
30
0.0
11
882.981000000000
21
380.011000000000
31
0.0
0
LINE
5
65f
100
AcDbEntity
8
0-8寸法
6
CONTINUOUS
62
4
100
AcDbLine
10
1058.662000000000
20
385.188000000000
30
0.0
11
1039.344000000000
21
390.364000000000
31
0.0
0
LINE
5
660
100
AcDbEntity
8
0-8寸法
6
CONTINUOUS
62
4
100
AcDbLine
10
1058.662000000000
20
385.188000000000
30
0.0
11
1039.344000000000
21
380.011000000000
31
0.0
0
LINE
5
661
100
AcDbEntity
8
0-8寸法
6
CONTINUOUS
62
4
100
AcDbLine
10
1058.662000000000
20
385.188000000000
30
0.0
11
1628.662000000000
21
385.188000000000
31
0.0
0
LINE
5
662
100
AcDbEntity
8
0-8寸法
6
CONTINUOUS
62
4
100
AcDbLine
10
1058.662000000000
20
385.188000000000
30
0.0
11
1077.981000000000
21
390.364000000000
31
0.0
0
LINE
5
663
100
AcDbEntity
8
0-8寸法
6
CONTINUOUS
62
4
100
AcDbLine
10
1058.662000000000
20
385.188000000000
30
0.0
11
1077.981000000000
21
380.011000000000
31
0.0
0
LINE
5
664
100
AcDbEntity
8
0-8寸法
6
CONTINUOUS
62
4
100
AcDbLine
10
1628.662000000000
20
385.188000000000
30
0.0
11
1609.344000000000
21
390.364000000000
31
0.0
0
LINE
5
665
100
AcDbEntity
8
0-8寸法
6
CONTINUOUS
62
4
100
AcDbLine
10
1628.662000000000
20
385.188000000000
30
0.0
11
1609.344000000000
21
380.011000000000
31
0.0
0
LINE
5
666
100
AcDbEntity
8
0-8寸法
6
CONTINUOUS
62
4
100
AcDbLine
10
1628.662000000000
20
385.188000000000
30
0.0
11
1823.662000000000
21
385.188000000000
31
0.0
0
LINE
5
667
100
AcDbEntity
8
0-8寸法
6
CONTINUOUS
62
4
100
AcDbLine
10
1628.662000000000
20
385.188000000000
30
0.0
11
1647.981000000000
21
390.364000000000
31
0.0
0
LINE
5
668
100
AcDbEntity
8
0-8寸法
6
CONTINUOUS
62
4
100
AcDbLine
10
1628.662000000000
20
385.188000000000
30
0.0
11
1647.981000000000
21
380.011000000000
31
0.0
0
LINE
5
669
100
AcDbEntity
8
0-8寸法
6
CONTINUOUS
62
4
100
AcDbLine
10
1823.662000000000
20
385.188000000000
30
0.0
11
1804.344000000000
21
390.364000000000
31
0.0
0
LINE
5
66a
100
AcDbEntity
8
0-8寸法
6
CONTINUOUS
62
4
100
AcDbLine
10
1823.662000000000
20
385.188000000000
30
0.0
11
1804.344000000000
21
380.011000000000
31
0.0
0
LINE
5
66b
100
AcDbEntity
8
0-8寸法
6
CONTINUOUS
62
4
100
AcDbLine
10
1058.662000000000
20
623.958000000000
30
0.0
11
1058.662000000000
21
375.188000000000
31
0.0
0
LINE
5
66c
100
AcDbEntity
8
0-8寸法
6
CONTINUOUS
62
4
100
AcDbLine
10
1628.662000000000
20
623.958000000000
30
0.0
11
1628.662000000000
21
375.188000000000
31
0.0
0
LINE
5
66d
100
AcDbEntity
8
0-9扉体
6
DOT
62
6
100
AcDbLine
10
1787.662000000000
20
691.188000000000
30
0.0
11
899.662000000000
21
691.188000000000
31
0.0
0
LINE
5
66e
100
AcDbEntity
8
0-9扉体
6
CONTINUOUS
62
4
100
AcDbLine
10
888.662000000000
20
680.188000000000
30
0.0
11
888.662000000000
21
1590.188000000000
31
0.0
0
LINE
5
66f
100
AcDbEntity
8
0-9扉体
6
CONTINUOUS
62
4
100
AcDbLine
10
893.662000000000
20
685.188000000000
30
0.0
11
893.662000000000
21
1585.188000000000
31
0.0
0
LINE
5
670
100
AcDbEntity
8
0-9扉体
6
CONTINUOUS
62
4
100
AcDbLine
10
1793.662000000000
20
685.188000000000
30
0.0
11
893.662000000000
21
685.188000000000
31
0.0
0
LINE
5
671
100
AcDbEntity
8
0-9扉体
6
CONTINUOUS
62
4
100
AcDbLine
10
1793.662000000000
20
1585.188000000000
30
0.0
11
1793.662000000000
21
685.188000000000
31
0.0
0
LINE
5
672
100
AcDbEntity
8
0-9扉体
6
CONTINUOUS
62
4
100
AcDbLine
10
1798.662000000000
20
680.188000000000
30
0.0
11
888.662000000000
21
680.188000000000
31
0.0
0
LINE
5
673
100
AcDbEntity
8
0-9扉体
6
CONTINUOUS
62
4
100
AcDbLine
10
1798.662000000000
20
1590.188000000000
30
0.0
11
1798.662000000000
21
680.188000000000
31
0.0
0
LINE
5
674
100
AcDbEntity
8
0-9扉体
6
CONTINUOUS
62
6
100
AcDbLine
10
2597.594000000000
20
747.188000000000
30
0.0
11
2597.594000000000
21
697.188000000000
31
0.0
0
LINE
5
675
100
AcDbEntity
8
0-9扉体
6
CONTINUOUS
62
6
100
AcDbLine
10
2649.094000000000
20
691.188000000000
30
0.0
11
2603.594000000000
21
691.188000000000
31
0.0
0
LINE
5
676
100
AcDbEntity
8
0-9扉体
6
CONTINUOUS
62
6
100
AcDbLine
10
2588.594000000000
20
685.188000000000
30
0.0
11
2649.094000000000
21
685.188000000000
31
0.0
0
LINE
5
677
100
AcDbEntity
8
0-9扉体
6
CONTINUOUS
62
4
100
AcDbLine
10
2649.094000000000
20
1176.115000000000
30
0.0
11
2649.094000000000
21
680.188000000000
31
0.0
0
LINE
5
678
100
AcDbEntity
8
0-9扉体
6
CONTINUOUS
62
4
100
AcDbLine
10
2655.094000000000
20
680.188000000000
30
0.0
11
2649.094000000000
21
680.188000000000
31
0.0
0
LINE
5
679
100
AcDbEntity
8
0-9扉体
6
CONTINUOUS
62
4
100
AcDbLine
10
2655.094000000000
20
1590.188000000000
30
0.0
11
2655.094000000000
21
680.188000000000
31
0.0
0
LINE
5
67a
100
AcDbEntity
8
0-9扉体
6
CONTINUOUS
62
6
100
AcDbLine
10
2594.594000000000
20
750.188000000000
30
0.0
11
2588.594000000000
21
750.188000000000
31
0.0
0
LINE
5
67b
100
AcDbEntity
8
0-6戸当り
6
CONTINUOUS
62
6
100
AcDbLine
10
2658.594000000000
20
1624.688000000000
30
0.0
11
2675.094000000000
21
1624.688000000000
31
0.0
0
LINE
5
67c
100
AcDbEntity
8
0-6戸当り
6
CONTINUOUS
62
6
100
AcDbLine
10
2658.594000000000
20
1614.688000000000
30
0.0
11
2675.094000000000
21
1614.688000000000
31
0.0
0
LINE
5
67d
100
AcDbEntity
8
0-6戸当り
6
CONTINUOUS
62
6
100
AcDbLine
10
2658.594000000000
20
1647.688000000000
30
0.0
11
2675.094000000000
21
1647.688000000000
31
0.0
0
LINE
5
67e
100
AcDbEntity
8
0-9扉体
6
CONTINUOUS
62
6
100
AcDbLine
10
1169.629000000000
20
2372.647000000000
30
0.0
11
1189.629000000000
21
2392.647000000000
31
0.0
0
LINE
5
67f
100
AcDbEntity
8
0-9扉体
6
CONTINUOUS
62
6
100
AcDbLine
10
1168.215000000000
20
2372.647000000000
30
0.0
11
1188.215000000000
21
2392.647000000000
31
0.0
0
LINE
5
680
100
AcDbEntity
8
0-9扉体
6
CONTINUOUS
62
6
100
AcDbLine
10
1183.771000000000
20
2372.647000000000
30
0.0
11
1203.771000000000
21
2392.647000000000
31
0.0
0
LINE
5
681
100
AcDbEntity
8
0-9扉体
6
CONTINUOUS
62
6
100
AcDbLine
10
1182.357000000000
20
2372.647000000000
30
0.0
11
1202.357000000000
21
2392.647000000000
31
0.0
0
LINE
5
682
100
AcDbEntity
8
0-9扉体
6
CONTINUOUS
62
6
100
AcDbLine
10
1197.913000000000
20
2372.647000000000
30
0.0
11
1217.913000000000
21
2392.647000000000
31
0.0
0
LINE
5
683
100
AcDbEntity
8
0-9扉体
6
CONTINUOUS
62
6
100
AcDbLine
10
1196.499000000000
20
2372.647000000000
30
0.0
11
1216.499000000000
21
2392.647000000000
31
0.0
0
LINE
5
684
100
AcDbEntity
8
0-9扉体
6
CONTINUOUS
62
6
100
AcDbLine
10
1212.056000000000
20
2372.647000000000
30
0.0
11
1232.056000000000
21
2392.647000000000
31
0.0
0
LINE
5
685
100
AcDbEntity
8
0-9扉体
6
CONTINUOUS
62
6
100
AcDbLine
10
1210.641000000000
20
2372.647000000000
30
0.0
11
1230.641000000000
21
2392.647000000000
31
0.0
0
LINE
5
686
100
AcDbEntity
8
0-9扉体
6
CONTINUOUS
62
6
100
AcDbLine
10
1226.198000000000
20
2372.647000000000
30
0.0
11
1246.198000000000
21
2392.647000000000
31
0.0
0
LINE
5
687
100
AcDbEntity
8
0-9扉体
6
CONTINUOUS
62
6
100
AcDbLine
10
1224.784000000000
20
2372.647000000000
30
0.0
11
1244.784000000000
21
2392.647000000000
31
0.0
0
LINE
5
688
100
AcDbEntity
8
0-9扉体
6
CONTINUOUS
62
6
100
AcDbLine
10
1240.340000000000
20
2372.647000000000
30
0.0
11
1260.340000000000
21
2392.647000000000
31
0.0
0
LINE
5
689
100
AcDbEntity
8
0-9扉体
6
CONTINUOUS
62
6
100
AcDbLine
10
1238.926000000000
20
2372.647000000000
30
0.0
11
1258.926000000000
21
2392.647000000000
31
0.0
0
LINE
5
68a
100
AcDbEntity
8
0-9扉体
6
CONTINUOUS
62
6
100
AcDbLine
10
1254.483000000000
20
2372.647000000000
30
0.0
11
1274.483000000000
21
2392.647000000000
31
0.0
0
LINE
5
68b
100
AcDbEntity
8
0-9扉体
6
CONTINUOUS
62
6
100
AcDbLine
10
1253.068000000000
20
2372.647000000000
30
0.0
11
1273.068000000000
21
2392.647000000000
31
0.0
0
LINE
5
68c
100
AcDbEntity
8
0-9扉体
6
CONTINUOUS
62
6
100
AcDbLine
10
1268.625000000000
20
2372.647000000000
30
0.0
11
1288.625000000000
21
2392.647000000000
31
0.0
0
LINE
5
68d
100
AcDbEntity
8
0-9扉体
6
CONTINUOUS
62
6
100
AcDbLine
10
1267.211000000000
20
2372.647000000000
30
0.0
11
1287.211000000000
21
2392.647000000000
31
0.0
0
LINE
5
68e
100
AcDbEntity
8
0-9扉体
6
CONTINUOUS
62
6
100
AcDbLine
10
1282.767000000000
20
2372.647000000000
30
0.0
11
1302.767000000000
21
2392.647000000000
31
0.0
0
LINE
5
68f
100
AcDbEntity
8
0-9扉体
6
CONTINUOUS
62
6
100
AcDbLine
10
1281.353000000000
20
2372.647000000000
30
0.0
11
1301.353000000000
21
2392.647000000000
31
0.0
0
LINE
5
690
100
AcDbEntity
8
0-9扉体
6
CONTINUOUS
62
6
100
AcDbLine
10
1296.909000000000
20
2372.647000000000
30
0.0
11
1316.910000000000
21
2392.647000000000
31
0.0
0
LINE
5
691
100
AcDbEntity
8
0-9扉体
6
CONTINUOUS
62
6
100
AcDbLine
10
1295.495000000000
20
2372.647000000000
30
0.0
11
1315.495000000000
21
2392.647000000000
31
0.0
0
LINE
5
692
100
AcDbEntity
8
0-9扉体
6
CONTINUOUS
62
6
100
AcDbLine
10
1311.052000000000
20
2372.647000000000
30
0.0
11
1331.052000000000
21
2392.647000000000
31
0.0
0
LINE
5
693
100
AcDbEntity
8
0-9扉体
6
CONTINUOUS
62
6
100
AcDbLine
10
1309.638000000000
20
2372.647000000000
30
0.0
11
1329.638000000000
21
2392.647000000000
31
0.0
0
LINE
5
694
100
AcDbEntity
8
0-9扉体
6
CONTINUOUS
62
6
100
AcDbLine
10
1323.780000000000
20
2372.647000000000
30
0.0
11
1343.780000000000
21
2392.647000000000
31
0.0
0
LINE
5
695
100
AcDbEntity
8
0-9扉体
6
CONTINUOUS
62
6
100
AcDbLine
10
1337.922000000000
20
2372.647000000000
30
0.0
11
1343.662000000000
21
2378.387000000000
31
0.0
0
LINE
5
696
100
AcDbEntity
8
0-9扉体
6
CONTINUOUS
62
6
100
AcDbLine
10
1339.336000000000
20
2372.647000000000
30
0.0
11
1343.662000000000
21
2376.973000000000
31
0.0
0
LINE
5
697
100
AcDbEntity
8
0-9扉体
6
CONTINUOUS
62
6
100
AcDbLine
10
1325.194000000000
20
2372.647000000000
30
0.0
11
1343.662000000000
21
2391.115000000000
31
0.0
0
LINE
5
698
100
AcDbEntity
8
0-8寸法
6
CONTINUOUS
62
4
100
AcDbLine
10
1073.662000000000
20
1910.188000000000
30
0.0
11
1092.980000000000
21
1915.364000000000
31
0.0
0
LINE
5
699
100
AcDbEntity
8
0-8寸法
6
CONTINUOUS
62
4
100
AcDbLine
10
1073.662000000000
20
1910.188000000000
30
0.0
11
1092.980000000000
21
1905.011000000000
31
0.0
0
LINE
5
69a
100
AcDbEntity
8
0-5基準線
6
CENTER2
62
7
100
AcDbLine
10
1073.662000000000
20
1678.137000000000
30
0.0
11
1073.662000000000
21
1573.724000000000
31
0.0
0
LINE
5
69b
100
AcDbEntity
8
0-8寸法
6
CONTINUOUS
62
4
100
AcDbLine
10
1073.662000000000
20
1694.457000000000
30
0.0
11
1073.662000000000
21
1797.984000000000
31
0.0
0
LINE
5
69c
100
AcDbEntity
8
0-8寸法
6
CONTINUOUS
62
4
100
AcDbLine
10
1073.662000000000
20
1870.339000000000
30
0.0
11
1073.662000000000
21
1920.188000000000
31
0.0
0
LINE
5
69d
100
AcDbEntity
8
0-6戸当り
6
CONTINUOUS
62
7
100
AcDbLine
10
1139.162000000000
20
1670.672000000000
30
0.0
11
1148.662000000000
21
1676.157000000000
31
0.0
0
LINE
5
69e
100
AcDbEntity
8
0-6戸当り
6
CONTINUOUS
62
7
100
AcDbLine
10
1139.162000000000
20
1670.672000000000
30
0.0
11
1139.162000000000
21
1659.703000000000
31
0.0
0
LINE
5
69f
100
AcDbEntity
8
0-6戸当り
6
CONTINUOUS
62
7
100
AcDbLine
10
1148.662000000000
20
1654.218000000000
30
0.0
11
1139.162000000000
21
1659.703000000000
31
0.0
0
POLYLINE
5
6a0
100
AcDbEntity
8
0-6戸当り
6
CONTINUOUS
62
  7
100
AcDb2dPolyline
66
1
10
0.0
20
0.0
30
0.0
70
0
0
VERTEX
5
6a1
100
AcDbEntity
8
0-6戸当り
6
CONTINUOUS
62
  7
100
AcDbVertex
100
AcDb2dVertex
10
1148.662000000000
20
1654.218000000000
30
0.0
0
VERTEX
5
6a2
100
AcDbEntity
8
0-6戸当り
6
CONTINUOUS
62
  7
100
AcDbVertex
100
AcDb2dVertex
10
1158.162000000000
20
1659.703000000000
30
0.0
0
VERTEX
5
6a3
100
AcDbEntity
8
0-6戸当り
6
CONTINUOUS
62
  7
100
AcDbVertex
100
AcDb2dVertex
10
1158.162000000000
20
1670.672000000000
30
0.0
0
VERTEX
5
6a4
100
AcDbEntity
8
0-6戸当り
6
CONTINUOUS
62
  7
100
AcDbVertex
100
AcDb2dVertex
10
1148.662000000000
20
1676.157000000000
30
0.0
0
SEQEND
5
6a5
100
AcDbEntity
8
0-6戸当り
0
LINE
5
6a6
100
AcDbEntity
8
0-5基準線
6
CENTER2
62
7
100
AcDbLine
10
1148.662000000000
20
1682.188000000000
30
0.0
11
1148.662000000000
21
1648.188000000000
31
0.0
0
LINE
5
6a7
100
AcDbEntity
8
0-5基準線
6
CENTER2
62
7
100
AcDbLine
10
1131.662000000000
20
1665.188000000000
30
0.0
11
1165.662000000000
21
1665.188000000000
31
0.0
0
LINE
5
6a8
100
AcDbEntity
8
0-8寸法
6
CONTINUOUS
62
4
100
AcDbLine
10
1148.662000000000
20
1694.457000000000
30
0.0
11
1148.662000000000
21
1820.188000000000
31
0.0
0
LINE
5
6a9
100
AcDbEntity
8
0-8寸法
6
CONTINUOUS
62
4
100
AcDbLine
10
1148.662000000000
20
1810.188000000000
30
0.0
11
1129.343000000000
21
1815.364000000000
31
0.0
0
LINE
5
6aa
100
AcDbEntity
8
0-8寸法
6
CONTINUOUS
62
4
100
AcDbLine
10
1148.662000000000
20
1810.188000000000
30
0.0
11
1129.343000000000
21
1805.011000000000
31
0.0
0
LINE
5
6ab
100
AcDbEntity
8
0-6戸当り
6
CONTINUOUS
62
7
100
AcDbLine
10
1008.162000000000
20
1670.672000000000
30
0.0
11
998.662000000000
21
1676.157000000000
31
0.0
0
LINE
5
6ac
100
AcDbEntity
8
0-6戸当り
6
CONTINUOUS
62
7
100
AcDbLine
10
1008.162000000000
20
1670.672000000000
30
0.0
11
1008.162000000000
21
1659.703000000000
31
0.0
0
LINE
5
6ad
100
AcDbEntity
8
0-6戸当り
6
CONTINUOUS
62
7
100
AcDbLine
10
998.662000000000
20
1654.218000000000
30
0.0
11
1008.162000000000
21
1659.703000000000
31
0.0
0
POLYLINE
5
6ae
100
AcDbEntity
8
0-6戸当り
6
CONTINUOUS
62
  7
100
AcDb2dPolyline
66
1
10
0.0
20
0.0
30
0.0
70
0
0
VERTEX
5
6af
100
AcDbEntity
8
0-6戸当り
6
CONTINUOUS
62
  7
100
AcDbVertex
100
AcDb2dVertex
10
998.662000000000
20
1654.218000000000
30
0.0
0
VERTEX
5
6b0
100
AcDbEntity
8
0-6戸当り
6
CONTINUOUS
62
  7
100
AcDbVertex
100
AcDb2dVertex
10
989.162000000000
20
1659.703000000000
30
0.0
0
VERTEX
5
6b1
100
AcDbEntity
8
0-6戸当り
6
CONTINUOUS
62
  7
100
AcDbVertex
100
AcDb2dVertex
10
989.162000000000
20
1670.672000000000
30
0.0
0
VERTEX
5
6b2
100
AcDbEntity
8
0-6戸当り
6
CONTINUOUS
62
  7
100
AcDbVertex
100
AcDb2dVertex
10
998.662000000000
20
1676.157000000000
30
0.0
0
SEQEND
5
6b3
100
AcDbEntity
8
0-6戸当り
0
LINE
5
6b4
100
AcDbEntity
8
0-5基準線
6
CENTER2
62
7
100
AcDbLine
10
998.662000000000
20
1682.188000000000
30
0.0
11
998.662000000000
21
1648.188000000000
31
0.0
0
LINE
5
6b5
100
AcDbEntity
8
0-5基準線
6
CENTER2
62
7
100
AcDbLine
10
1015.662000000000
20
1665.188000000000
30
0.0
11
981.662000000000
21
1665.188000000000
31
0.0
0
LINE
5
6b6
100
AcDbEntity
8
0-8寸法
6
CONTINUOUS
62
4
100
AcDbLine
10
998.662000000000
20
1694.457000000000
30
0.0
11
998.662000000000
21
1820.188000000000
31
0.0
0
LINE
5
6b7
100
AcDbEntity
8
0-8寸法
6
CONTINUOUS
62
4
100
AcDbLine
10
998.662000000000
20
1810.188000000000
30
0.0
11
1017.981000000000
21
1815.364000000000
31
0.0
0
LINE
5
6b8
100
AcDbEntity
8
0-8寸法
6
CONTINUOUS
62
4
100
AcDbLine
10
998.662000000000
20
1810.188000000000
30
0.0
11
1017.981000000000
21
1805.011000000000
31
0.0
0
LINE
5
6b9
100
AcDbEntity
8
0-8寸法
6
CONTINUOUS
62
4
100
AcDbLine
10
998.662000000000
20
1810.188000000000
30
0.0
11
1148.662000000000
21
1810.188000000000
31
0.0
0
LINE
5
6ba
100
AcDbEntity
8
0-9扉体
6
CONTINUOUS
62
7
100
AcDbLine
10
1009.162000000000
20
1609.488000000000
30
0.0
11
1009.162000000000
21
1599.487000000000
31
0.0
0
LINE
5
6bb
100
AcDbEntity
8
0-9扉体
6
CONTINUOUS
62
7
100
AcDbLine
10
1028.162000000000
20
1609.488000000000
30
0.0
11
1028.162000000000
21
1599.487000000000
31
0.0
0
LINE
5
6bc
100
AcDbEntity
8
0-9扉体
6
CONTINUOUS
62
7
100
AcDbLine
10
1028.162000000000
20
1609.488000000000
30
0.0
11
1009.162000000000
21
1609.488000000000
31
0.0
0
LINE
5
6bd
100
AcDbEntity
8
0-9扉体
6
CONTINUOUS
62
7
100
AcDbLine
10
1018.662000000000
20
1608.639000000000
30
0.0
11
1018.662000000000
21
1599.487000000000
31
0.0
0
LINE
5
6be
100
AcDbEntity
8
0-9扉体
6
CONTINUOUS
62
3
100
AcDbLine
10
998.662000000000
20
1594.188000000000
30
0.0
11
998.662000000000
21
1585.188000000000
31
0.0
0
LINE
5
6bf
100
AcDbEntity
8
0-9扉体
6
CONTINUOUS
62
4
100
AcDbLine
10
1005.662000000000
20
1596.488000000000
30
0.0
11
1031.662000000000
21
1596.488000000000
31
0.0
0
LINE
5
6c0
100
AcDbEntity
8
0-9扉体
6
CONTINUOUS
62
4
100
AcDbLine
10
1005.662000000000
20
1596.488000000000
30
0.0
11
1005.662000000000
21
1594.188000000000
31
0.0
0
LINE
5
6c1
100
AcDbEntity
8
0-9扉体
6
CONTINUOUS
62
4
100
AcDbLine
10
1031.662000000000
20
1596.488000000000
30
0.0
11
1031.662000000000
21
1594.188000000000
31
0.0
0
LINE
5
6c2
100
AcDbEntity
8
0-9扉体
6
CONTINUOUS
62
4
100
AcDbLine
10
1012.662000000000
20
1619.188000000000
30
0.0
11
1024.662000000000
21
1619.188000000000
31
0.0
0
LINE
5
6c3
100
AcDbEntity
8
0-9扉体
6
CONTINUOUS
62
4
100
AcDbLine
10
1012.662000000000
20
1619.188000000000
30
0.0
11
1012.662000000000
21
1609.488000000000
31
0.0
0
LINE
5
6c4
100
AcDbEntity
8
0-9扉体
6
CONTINUOUS
62
4
100
AcDbLine
10
1024.662000000000
20
1619.188000000000
30
0.0
11
1024.662000000000
21
1609.488000000000
31
0.0
0
LINE
5
6c5
100
AcDbEntity
8
0-9扉体
6
CONTINUOUS
62
4
100
AcDbLine
10
1013.662000000000
20
1619.188000000000
30
0.0
11
1013.662000000000
21
1609.488000000000
31
0.0
0
LINE
5
6c6
100
AcDbEntity
8
0-9扉体
6
CONTINUOUS
62
4
100
AcDbLine
10
1023.662000000000
20
1619.188000000000
30
0.0
11
1023.662000000000
21
1609.488000000000
31
0.0
0
LINE
5
6c7
100
AcDbEntity
8
0-9扉体
6
CONTINUOUS
62
4
100
AcDbLine
10
1018.662000000000
20
1599.487000000000
30
0.0
11
1015.662000000000
21
1596.488000000000
31
0.0
0
LINE
5
6c8
100
AcDbEntity
8
0-9扉体
6
CONTINUOUS
62
4
100
AcDbLine
10
1018.662000000000
20
1596.488000000000
30
0.0
11
1021.662000000000
21
1599.487000000000
31
0.0
0
LINE
5
6c9
100
AcDbEntity
8
0-9扉体
6
CONTINUOUS
62
4
100
AcDbLine
10
1007.912000000000
20
1599.487000000000
30
0.0
11
1007.912000000000
21
1596.488000000000
31
0.0
0
LINE
5
6ca
100
AcDbEntity
8
0-9扉体
6
CONTINUOUS
62
4
100
AcDbLine
10
1029.412000000000
20
1599.487000000000
30
0.0
11
1029.412000000000
21
1596.488000000000
31
0.0
0
LINE
5
6cb
100
AcDbEntity
8
0-5基準線
6
CENTER2
62
7
100
AcDbLine
10
1018.662000000000
20
1622.142000000000
30
0.0
11
1018.662000000000
21
1608.639000000000
31
0.0
0
LINE
5
6cc
100
AcDbEntity
8
0-9扉体
6
CONTINUOUS
62
4
100
AcDbLine
10
1007.912000000000
20
1599.487000000000
30
0.0
11
1029.412000000000
21
1599.487000000000
31
0.0
0
LINE
5
6cd
100
AcDbEntity
8
0-5基準線
6
CENTER2
62
7
100
AcDbLine
10
1018.662000000000
20
1599.487000000000
30
0.0
11
1018.662000000000
21
1585.188000000000
31
0.0
0
LINE
5
6ce
100
AcDbEntity
8
0-9扉体
6
CONTINUOUS
62
3
100
AcDbLine
10
1148.662000000000
20
1594.188000000000
30
0.0
11
1148.662000000000
21
1585.188000000000
31
0.0
0
LINE
5
6cf
100
AcDbEntity
8
0-9扉体
6
CONTINUOUS
62
7
100
AcDbLine
10
1138.162000000000
20
1609.488000000000
30
0.0
11
1138.162000000000
21
1599.487000000000
31
0.0
0
LINE
5
6d0
100
AcDbEntity
8
0-9扉体
6
CONTINUOUS
62
7
100
AcDbLine
10
1119.162000000000
20
1609.488000000000
30
0.0
11
1119.162000000000
21
1599.487000000000
31
0.0
0
LINE
5
6d1
100
AcDbEntity
8
0-9扉体
6
CONTINUOUS
62
7
100
AcDbLine
10
1119.162000000000
20
1609.488000000000
30
0.0
11
1138.162000000000
21
1609.488000000000
31
0.0
0
LINE
5
6d2
100
AcDbEntity
8
0-9扉体
6
CONTINUOUS
62
7
100
AcDbLine
10
1128.662000000000
20
1608.639000000000
30
0.0
11
1128.662000000000
21
1599.487000000000
31
0.0
0
LINE
5
6d3
100
AcDbEntity
8
0-9扉体
6
CONTINUOUS
62
4
100
AcDbLine
10
1141.662000000000
20
1596.488000000000
30
0.0
11
1115.662000000000
21
1596.488000000000
31
0.0
0
LINE
5
6d4
100
AcDbEntity
8
0-9扉体
6
CONTINUOUS
62
4
100
AcDbLine
10
1141.662000000000
20
1596.488000000000
30
0.0
11
1141.662000000000
21
1594.188000000000
31
0.0
0
LINE
5
6d5
100
AcDbEntity
8
0-9扉体
6
CONTINUOUS
62
4
100
AcDbLine
10
1115.662000000000
20
1596.488000000000
30
0.0
11
1115.662000000000
21
1594.188000000000
31
0.0
0
LINE
5
6d6
100
AcDbEntity
8
0-9扉体
6
CONTINUOUS
62
4
100
AcDbLine
10
1134.662000000000
20
1619.188000000000
30
0.0
11
1122.662000000000
21
1619.188000000000
31
0.0
0
LINE
5
6d7
100
AcDbEntity
8
0-9扉体
6
CONTINUOUS
62
4
100
AcDbLine
10
1134.662000000000
20
1619.188000000000
30
0.0
11
1134.662000000000
21
1609.488000000000
31
0.0
0
LINE
5
6d8
100
AcDbEntity
8
0-9扉体
6
CONTINUOUS
62
4
100
AcDbLine
10
1122.662000000000
20
1619.188000000000
30
0.0
11
1122.662000000000
21
1609.488000000000
31
0.0
0
LINE
5
6d9
100
AcDbEntity
8
0-9扉体
6
CONTINUOUS
62
4
100
AcDbLine
10
1133.662000000000
20
1619.188000000000
30
0.0
11
1133.662000000000
21
1609.488000000000
31
0.0
0
LINE
5
6da
100
AcDbEntity
8
0-9扉体
6
CONTINUOUS
62
4
100
AcDbLine
10
1123.662000000000
20
1619.188000000000
30
0.0
11
1123.662000000000
21
1609.488000000000
31
0.0
0
LINE
5
6db
100
AcDbEntity
8
0-9扉体
6
CONTINUOUS
62
4
100
AcDbLine
10
1128.662000000000
20
1599.487000000000
30
0.0
11
1131.662000000000
21
1596.488000000000
31
0.0
0
LINE
5
6dc
100
AcDbEntity
8
0-9扉体
6
CONTINUOUS
62
4
100
AcDbLine
10
1128.662000000000
20
1596.488000000000
30
0.0
11
1125.662000000000
21
1599.487000000000
31
0.0
0
LINE
5
6dd
100
AcDbEntity
8
0-9扉体
6
CONTINUOUS
62
4
100
AcDbLine
10
1139.412000000000
20
1599.487000000000
30
0.0
11
1139.412000000000
21
1596.488000000000
31
0.0
0
POLYLINE
5
6de
100
AcDbEntity
8
0-9扉体
6
CONTINUOUS
62
  4
100
AcDb2dPolyline
66
1
10
0.0
20
0.0
30
0.0
70
0
0
VERTEX
5
6df
100
AcDbEntity
8
0-9扉体
6
CONTINUOUS
62
  4
100
AcDbVertex
100
AcDb2dVertex
10
1139.412000000000
20
1599.487000000000
30
0.0
0
VERTEX
5
6e0
100
AcDbEntity
8
0-9扉体
6
CONTINUOUS
62
  4
100
AcDbVertex
100
AcDb2dVertex
10
1117.912000000000
20
1599.487000000000
30
0.0
0
VERTEX
5
6e1
100
AcDbEntity
8
0-9扉体
6
CONTINUOUS
62
  4
100
AcDbVertex
100
AcDb2dVertex
10
1117.912000000000
20
1596.488000000000
30
0.0
0
SEQEND
5
6e2
100
AcDbEntity
8
0-9扉体
0
LINE
5
6e3
100
AcDbEntity
8
0-5基準線
6
CENTER2
62
7
100
AcDbLine
10
1128.662000000000
20
1599.487000000000
30
0.0
11
1128.662000000000
21
1583.724000000000
31
0.0
0
LINE
5
6e4
100
AcDbEntity
8
0-5基準線
6
CENTER2
62
7
100
AcDbLine
10
1128.662000000000
20
1622.142000000000
30
0.0
11
1128.662000000000
21
1608.639000000000
31
0.0
0
LINE
5
6e5
100
AcDbEntity
8
0-9扉体
6
CONTINUOUS
62
3
100
AcDbLine
10
1148.662000000000
20
1594.188000000000
30
0.0
11
998.662000000000
21
1594.188000000000
31
0.0
0
POLYLINE
5
6e6
100
AcDbEntity
8
0-9扉体
6
CONTINUOUS
62
  3
100
AcDb2dPolyline
66
1
10
0.0
20
0.0
30
0.0
70
0
0
VERTEX
5
6e7
100
AcDbEntity
8
0-9扉体
6
CONTINUOUS
62
  3
100
AcDbVertex
100
AcDb2dVertex
10
1038.662000000000
20
1659.188000000000
30
0.0
0
VERTEX
5
6e8
100
AcDbEntity
8
0-9扉体
6
CONTINUOUS
62
  3
100
AcDbVertex
100
AcDb2dVertex
10
1047.662000000000
20
1659.188000000000
30
0.0
0
VERTEX
5
6e9
100
AcDbEntity
8
0-9扉体
6
CONTINUOUS
62
  3
100
AcDbVertex
100
AcDb2dVertex
10
1047.662000000000
20
1594.188000000000
30
0.0
0
SEQEND
5
6ea
100
AcDbEntity
8
0-9扉体
0
LINE
5
6eb
100
AcDbEntity
8
0-9扉体
6
CONTINUOUS
62
3
100
AcDbLine
10
1038.662000000000
20
1659.188000000000
30
0.0
11
1038.662000000000
21
1594.188000000000
31
0.0
0
LINE
5
6ec
100
AcDbEntity
8
0-9扉体
6
CONTINUOUS
62
6
100
AcDbLine
10
1036.062000000000
20
1651.188000000000
30
0.0
11
1036.062000000000
21
1619.188000000000
31
0.0
0
LINE
5
6ed
100
AcDbEntity
8
0-9扉体
6
CONTINUOUS
62
6
100
AcDbLine
10
1036.062000000000
20
1651.188000000000
30
0.0
11
1038.662000000000
21
1651.188000000000
31
0.0
0
LINE
5
6ee
100
AcDbEntity
8
0-9扉体
6
CONTINUOUS
62
6
100
AcDbLine
10
1036.062000000000
20
1619.188000000000
30
0.0
11
1038.662000000000
21
1619.188000000000
31
0.0
0
LINE
5
6ef
100
AcDbEntity
8
0-6戸当り
6
CONTINUOUS
62
6
100
AcDbLine
10
1049.662000000000
20
1656.688000000000
30
0.0
11
1049.662000000000
21
1613.688000000000
31
0.0
0
LINE
5
6f0
100
AcDbEntity
8
0-9扉体
6
CONTINUOUS
62
6
100
AcDbLine
10
1025.162000000000
20
1645.188000000000
30
0.0
11
1036.062000000000
21
1645.188000000000
31
0.0
0
LINE
5
6f1
100
AcDbEntity
8
0-9扉体
6
CONTINUOUS
62
6
100
AcDbLine
10
1047.662000000000
20
1645.188000000000
30
0.0
11
1049.662000000000
21
1645.188000000000
31
0.0
0
LINE
5
6f2
100
AcDbEntity
8
0-9扉体
6
CONTINUOUS
62
6
100
AcDbLine
10
1025.162000000000
20
1625.188000000000
30
0.0
11
1036.062000000000
21
1625.188000000000
31
0.0
0
LINE
5
6f3
100
AcDbEntity
8
0-9扉体
6
CONTINUOUS
62
6
100
AcDbLine
10
1047.662000000000
20
1625.188000000000
30
0.0
11
1049.662000000000
21
1625.188000000000
31
0.0
0
LINE
5
6f4
100
AcDbEntity
8
0-9扉体
6
CONTINUOUS
62
6
100
AcDbLine
10
1025.162000000000
20
1645.188000000000
30
0.0
11
1025.162000000000
21
1625.188000000000
31
0.0
0
LINE
5
6f5
100
AcDbEntity
8
0-9扉体
6
CONTINUOUS
62
6
100
AcDbLine
10
1111.262000000000
20
1651.188000000000
30
0.0
11
1111.262000000000
21
1619.188000000000
31
0.0
0
LINE
5
6f6
100
AcDbEntity
8
0-9扉体
6
CONTINUOUS
62
6
100
AcDbLine
10
1111.262000000000
20
1651.188000000000
30
0.0
11
1108.662000000000
21
1651.188000000000
31
0.0
0
LINE
5
6f7
100
AcDbEntity
8
0-9扉体
6
CONTINUOUS
62
6
100
AcDbLine
10
1111.262000000000
20
1619.188000000000
30
0.0
11
1108.662000000000
21
1619.188000000000
31
0.0
0
POLYLINE
5
6f8
100
AcDbEntity
8
0-9扉体
6
CONTINUOUS
62
  3
100
AcDb2dPolyline
66
1
10
0.0
20
0.0
30
0.0
70
0
0
VERTEX
5
6f9
100
AcDbEntity
8
0-9扉体
6
CONTINUOUS
62
  3
100
AcDbVertex
100
AcDb2dVertex
10
1108.662000000000
20
1659.188000000000
30
0.0
0
VERTEX
5
6fa
100
AcDbEntity
8
0-9扉体
6
CONTINUOUS
62
  3
100
AcDbVertex
100
AcDb2dVertex
10
1099.662000000000
20
1659.188000000000
30
0.0
0
VERTEX
5
6fb
100
AcDbEntity
8
0-9扉体
6
CONTINUOUS
62
  3
100
AcDbVertex
100
AcDb2dVertex
10
1099.662000000000
20
1594.188000000000
30
0.0
0
SEQEND
5
6fc
100
AcDbEntity
8
0-9扉体
0
LINE
5
6fd
100
AcDbEntity
8
0-9扉体
6
CONTINUOUS
62
3
100
AcDbLine
10
1108.662000000000
20
1659.188000000000
30
0.0
11
1108.662000000000
21
1594.188000000000
31
0.0
0
LINE
5
6fe
100
AcDbEntity
8
0-6戸当り
6
CONTINUOUS
62
6
100
AcDbLine
10
1097.662000000000
20
1656.688000000000
30
0.0
11
1097.662000000000
21
1613.688000000000
31
0.0
0
LINE
5
6ff
100
AcDbEntity
8
0-9扉体
6
CONTINUOUS
62
6
100
AcDbLine
10
1122.162000000000
20
1645.188000000000
30
0.0
11
1111.262000000000
21
1645.188000000000
31
0.0
0
LINE
5
700
100
AcDbEntity
8
0-9扉体
6
CONTINUOUS
62
6
100
AcDbLine
10
1099.662000000000
20
1645.188000000000
30
0.0
11
1097.662000000000
21
1645.188000000000
31
0.0
0
LINE
5
701
100
AcDbEntity
8
0-9扉体
6
CONTINUOUS
62
6
100
AcDbLine
10
1122.162000000000
20
1625.188000000000
30
0.0
11
1111.262000000000
21
1625.188000000000
31
0.0
0
LINE
5
702
100
AcDbEntity
8
0-9扉体
6
CONTINUOUS
62
6
100
AcDbLine
10
1099.662000000000
20
1625.188000000000
30
0.0
11
1097.662000000000
21
1625.188000000000
31
0.0
0
LINE
5
703
100
AcDbEntity
8
0-9扉体
6
CONTINUOUS
62
6
100
AcDbLine
10
1122.162000000000
20
1645.188000000000
30
0.0
11
1122.162000000000
21
1625.188000000000
31
0.0
0
LINE
5
704
100
AcDbEntity
8
0-5基準線
6
CENTER2
62
7
100
AcDbLine
10
1018.662000000000
20
1635.188000000000
30
0.0
11
1128.662000000000
21
1635.188000000000
31
0.0
0
LINE
5
705
100
AcDbEntity
8
0-6戸当り
6
DOT
62
6
100
AcDbLine
10
1049.662000000000
20
1646.688000000000
30
0.0
11
1097.662000000000
21
1646.688000000000
31
0.0
0
LINE
5
706
100
AcDbEntity
8
0-6戸当り
6
DOT
62
6
100
AcDbLine
10
1049.662000000000
20
1623.688000000000
30
0.0
11
1097.662000000000
21
1623.688000000000
31
0.0
0
LINE
5
707
100
AcDbEntity
8
0-6戸当り
6
CONTINUOUS
62
6
100
AcDbLine
10
1049.662000000000
20
1613.688000000000
30
0.0
11
1097.662000000000
21
1613.688000000000
31
0.0
0
LINE
5
708
100
AcDbEntity
8
0-6戸当り
6
CONTINUOUS
62
6
100
AcDbLine
10
1049.662000000000
20
1656.688000000000
30
0.0
11
1097.662000000000
21
1656.688000000000
31
0.0
0
LINE
5
709
100
AcDbEntity
8
0-9扉体
6
CONTINUOUS
62
4
100
AcDbLine
10
888.662000000000
20
1590.188000000000
30
0.0
11
998.662000000000
21
1590.188000000000
31
0.0
0
LINE
5
70a
100
AcDbEntity
8
0-8寸法
6
CONTINUOUS
62
4
100
AcDbLine
10
1613.662000000000
20
1910.188000000000
30
0.0
11
1594.344000000000
21
1915.364000000000
31
0.0
0
LINE
5
70b
100
AcDbEntity
8
0-8寸法
6
CONTINUOUS
62
4
100
AcDbLine
10
1613.662000000000
20
1910.188000000000
30
0.0
11
1594.344000000000
21
1905.011000000000
31
0.0
0
LINE
5
70c
100
AcDbEntity
8
0-8寸法
6
CONTINUOUS
62
4
100
AcDbLine
10
1613.662000000000
20
1694.457000000000
30
0.0
11
1613.662000000000
21
1797.984000000000
31
0.0
0
LINE
5
70d
100
AcDbEntity
8
0-8寸法
6
CONTINUOUS
62
4
100
AcDbLine
10
1613.662000000000
20
1870.339000000000
30
0.0
11
1613.662000000000
21
1920.188000000000
31
0.0
0
LINE
5
70e
100
AcDbEntity
8
0-6戸当り
6
CONTINUOUS
62
7
100
AcDbLine
10
1548.162000000000
20
1670.672000000000
30
0.0
11
1538.662000000000
21
1676.157000000000
31
0.0
0
LINE
5
70f
100
AcDbEntity
8
0-6戸当り
6
CONTINUOUS
62
7
100
AcDbLine
10
1548.162000000000
20
1670.672000000000
30
0.0
11
1548.162000000000
21
1659.703000000000
31
0.0
0
LINE
5
710
100
AcDbEntity
8
0-6戸当り
6
CONTINUOUS
62
7
100
AcDbLine
10
1538.662000000000
20
1654.218000000000
30
0.0
11
1548.162000000000
21
1659.703000000000
31
0.0
0
POLYLINE
5
711
100
AcDbEntity
8
0-6戸当り
6
CONTINUOUS
62
  7
100
AcDb2dPolyline
66
1
10
0.0
20
0.0
30
0.0
70
0
0
VERTEX
5
712
100
AcDbEntity
8
0-6戸当り
6
CONTINUOUS
62
  7
100
AcDbVertex
100
AcDb2dVertex
10
1538.662000000000
20
1654.218000000000
30
0.0
0
VERTEX
5
713
100
AcDbEntity
8
0-6戸当り
6
CONTINUOUS
62
  7
100
AcDbVertex
100
AcDb2dVertex
10
1529.163000000000
20
1659.703000000000
30
0.0
0
VERTEX
5
714
100
AcDbEntity
8
0-6戸当り
6
CONTINUOUS
62
  7
100
AcDbVertex
100
AcDb2dVertex
10
1529.163000000000
20
1670.672000000000
30
0.0
0
VERTEX
5
715
100
AcDbEntity
8
0-6戸当り
6
CONTINUOUS
62
  7
100
AcDbVertex
100
AcDb2dVertex
10
1538.662000000000
20
1676.157000000000
30
0.0
0
SEQEND
5
716
100
AcDbEntity
8
0-6戸当り
0
LINE
5
717
100
AcDbEntity
8
0-5基準線
6
CENTER2
62
7
100
AcDbLine
10
1538.662000000000
20
1682.188000000000
30
0.0
11
1538.662000000000
21
1648.188000000000
31
0.0
0
LINE
5
718
100
AcDbEntity
8
0-5基準線
6
CENTER2
62
7
100
AcDbLine
10
1555.662000000000
20
1665.188000000000
30
0.0
11
1521.662000000000
21
1665.188000000000
31
0.0
0
LINE
5
719
100
AcDbEntity
8
0-8寸法
6
CONTINUOUS
62
4
100
AcDbLine
10
1538.662000000000
20
1810.188000000000
30
0.0
11
1557.981000000000
21
1815.364000000000
31
0.0
0
LINE
5
71a
100
AcDbEntity
8
0-8寸法
6
CONTINUOUS
62
4
100
AcDbLine
10
1538.662000000000
20
1810.188000000000
30
0.0
11
1557.981000000000
21
1805.011000000000
31
0.0
0
LINE
5
71b
100
AcDbEntity
8
0-8寸法
6
CONTINUOUS
62
4
100
AcDbLine
10
1538.662000000000
20
1694.457000000000
30
0.0
11
1538.662000000000
21
1820.188000000000
31
0.0
0
LINE
5
71c
100
AcDbEntity
8
0-6戸当り
6
CONTINUOUS
62
7
100
AcDbLine
10
1679.162000000000
20
1670.672000000000
30
0.0
11
1688.662000000000
21
1676.157000000000
31
0.0
0
LINE
5
71d
100
AcDbEntity
8
0-6戸当り
6
CONTINUOUS
62
7
100
AcDbLine
10
1679.162000000000
20
1670.672000000000
30
0.0
11
1679.162000000000
21
1659.703000000000
31
0.0
0
LINE
5
71e
100
AcDbEntity
8
0-6戸当り
6
CONTINUOUS
62
7
100
AcDbLine
10
1688.662000000000
20
1654.218000000000
30
0.0
11
1679.162000000000
21
1659.703000000000
31
0.0
0
POLYLINE
5
71f
100
AcDbEntity
8
0-6戸当り
6
CONTINUOUS
62
  7
100
AcDb2dPolyline
66
1
10
0.0
20
0.0
30
0.0
70
0
0
VERTEX
5
720
100
AcDbEntity
8
0-6戸当り
6
CONTINUOUS
62
  7
100
AcDbVertex
100
AcDb2dVertex
10
1688.662000000000
20
1654.218000000000
30
0.0
0
VERTEX
5
721
100
AcDbEntity
8
0-6戸当り
6
CONTINUOUS
62
  7
100
AcDbVertex
100
AcDb2dVertex
10
1698.162000000000
20
1659.703000000000
30
0.0
0
VERTEX
5
722
100
AcDbEntity
8
0-6戸当り
6
CONTINUOUS
62
  7
100
AcDbVertex
100
AcDb2dVertex
10
1698.162000000000
20
1670.672000000000
30
0.0
0
VERTEX
5
723
100
AcDbEntity
8
0-6戸当り
6
CONTINUOUS
62
  7
100
AcDbVertex
100
AcDb2dVertex
10
1688.662000000000
20
1676.157000000000
30
0.0
0
SEQEND
5
724
100
AcDbEntity
8
0-6戸当り
0
LINE
5
725
100
AcDbEntity
8
0-5基準線
6
CENTER2
62
7
100
AcDbLine
10
1688.662000000000
20
1682.188000000000
30
0.0
11
1688.662000000000
21
1648.188000000000
31
0.0
0
LINE
5
726
100
AcDbEntity
8
0-5基準線
6
CENTER2
62
7
100
AcDbLine
10
1671.662000000000
20
1665.188000000000
30
0.0
11
1705.662000000000
21
1665.188000000000
31
0.0
0
LINE
5
727
100
AcDbEntity
8
0-8寸法
6
CONTINUOUS
62
4
100
AcDbLine
10
1688.662000000000
20
1694.457000000000
30
0.0
11
1688.662000000000
21
1820.188000000000
31
0.0
0
LINE
5
728
100
AcDbEntity
8
0-8寸法
6
CONTINUOUS
62
4
100
AcDbLine
10
1688.662000000000
20
1810.188000000000
30
0.0
11
1669.344000000000
21
1815.364000000000
31
0.0
0
LINE
5
729
100
AcDbEntity
8
0-8寸法
6
CONTINUOUS
62
4
100
AcDbLine
10
1688.662000000000
20
1810.188000000000
30
0.0
11
1669.344000000000
21
1805.011000000000
31
0.0
0
LINE
5
72a
100
AcDbEntity
8
0-8寸法
6
CONTINUOUS
62
4
100
AcDbLine
10
1688.662000000000
20
1810.188000000000
30
0.0
11
1538.662000000000
21
1810.188000000000
31
0.0
0
LINE
5
72b
100
AcDbEntity
8
0-5基準線
6
CENTER2
62
7
100
AcDbLine
10
1613.662000000000
20
1678.137000000000
30
0.0
11
1613.662000000000
21
1573.724000000000
31
0.0
0
LINE
5
72c
100
AcDbEntity
8
0-9扉体
6
CONTINUOUS
62
7
100
AcDbLine
10
1549.163000000000
20
1609.488000000000
30
0.0
11
1549.163000000000
21
1599.487000000000
31
0.0
0
LINE
5
72d
100
AcDbEntity
8
0-9扉体
6
CONTINUOUS
62
7
100
AcDbLine
10
1568.162000000000
20
1609.488000000000
30
0.0
11
1568.162000000000
21
1599.487000000000
31
0.0
0
LINE
5
72e
100
AcDbEntity
8
0-9扉体
6
CONTINUOUS
62
7
100
AcDbLine
10
1568.162000000000
20
1609.488000000000
30
0.0
11
1549.163000000000
21
1609.488000000000
31
0.0
0
LINE
5
72f
100
AcDbEntity
8
0-9扉体
6
CONTINUOUS
62
7
100
AcDbLine
10
1558.663000000000
20
1608.639000000000
30
0.0
11
1558.663000000000
21
1599.487000000000
31
0.0
0
LINE
5
730
100
AcDbEntity
8
0-9扉体
6
CONTINUOUS
62
3
100
AcDbLine
10
1538.662000000000
20
1594.188000000000
30
0.0
11
1538.662000000000
21
1585.188000000000
31
0.0
0
LINE
5
731
100
AcDbEntity
8
0-9扉体
6
CONTINUOUS
62
4
100
AcDbLine
10
1545.663000000000
20
1596.488000000000
30
0.0
11
1571.663000000000
21
1596.488000000000
31
0.0
0
LINE
5
732
100
AcDbEntity
8
0-9扉体
6
CONTINUOUS
62
4
100
AcDbLine
10
1545.663000000000
20
1596.488000000000
30
0.0
11
1545.663000000000
21
1594.188000000000
31
0.0
0
LINE
5
733
100
AcDbEntity
8
0-9扉体
6
CONTINUOUS
62
4
100
AcDbLine
10
1571.663000000000
20
1596.488000000000
30
0.0
11
1571.663000000000
21
1594.188000000000
31
0.0
0
LINE
5
734
100
AcDbEntity
8
0-9扉体
6
CONTINUOUS
62
4
100
AcDbLine
10
1552.663000000000
20
1619.188000000000
30
0.0
11
1564.662000000000
21
1619.188000000000
31
0.0
0
LINE
5
735
100
AcDbEntity
8
0-9扉体
6
CONTINUOUS
62
4
100
AcDbLine
10
1552.663000000000
20
1619.188000000000
30
0.0
11
1552.663000000000
21
1609.488000000000
31
0.0
0
LINE
5
736
100
AcDbEntity
8
0-9扉体
6
CONTINUOUS
62
4
100
AcDbLine
10
1564.662000000000
20
1619.188000000000
30
0.0
11
1564.662000000000
21
1609.488000000000
31
0.0
0
LINE
5
737
100
AcDbEntity
8
0-9扉体
6
CONTINUOUS
62
4
100
AcDbLine
10
1553.662000000000
20
1619.188000000000
30
0.0
11
1553.662000000000
21
1609.488000000000
31
0.0
0
LINE
5
738
100
AcDbEntity
8
0-9扉体
6
CONTINUOUS
62
4
100
AcDbLine
10
1563.663000000000
20
1619.188000000000
30
0.0
11
1563.663000000000
21
1609.488000000000
31
0.0
0
LINE
5
739
100
AcDbEntity
8
0-9扉体
6
CONTINUOUS
62
4
100
AcDbLine
10
1558.663000000000
20
1599.487000000000
30
0.0
11
1555.663000000000
21
1596.488000000000
31
0.0
0
LINE
5
73a
100
AcDbEntity
8
0-9扉体
6
CONTINUOUS
62
4
100
AcDbLine
10
1558.663000000000
20
1596.488000000000
30
0.0
11
1561.662000000000
21
1599.487000000000
31
0.0
0
LINE
5
73b
100
AcDbEntity
8
0-9扉体
6
CONTINUOUS
62
4
100
AcDbLine
10
1547.912000000000
20
1599.487000000000
30
0.0
11
1547.912000000000
21
1596.488000000000
31
0.0
0
LINE
5
73c
100
AcDbEntity
8
0-9扉体
6
CONTINUOUS
62
4
100
AcDbLine
10
1569.413000000000
20
1599.487000000000
30
0.0
11
1569.413000000000
21
1596.488000000000
31
0.0
0
LINE
5
73d
100
AcDbEntity
8
0-5基準線
6
CENTER2
62
7
100
AcDbLine
10
1558.663000000000
20
1622.142000000000
30
0.0
11
1558.663000000000
21
1608.639000000000
31
0.0
0
LINE
5
73e
100
AcDbEntity
8
0-9扉体
6
CONTINUOUS
62
4
100
AcDbLine
10
1547.912000000000
20
1599.487000000000
30
0.0
11
1569.413000000000
21
1599.487000000000
31
0.0
0
LINE
5
73f
100
AcDbEntity
8
0-5基準線
6
CENTER2
62
7
100
AcDbLine
10
1558.663000000000
20
1599.487000000000
30
0.0
11
1558.663000000000
21
1585.188000000000
31
0.0
0
LINE
5
740
100
AcDbEntity
8
0-9扉体
6
CONTINUOUS
62
3
100
AcDbLine
10
1688.662000000000
20
1594.188000000000
30
0.0
11
1688.662000000000
21
1585.188000000000
31
0.0
0
LINE
5
741
100
AcDbEntity
8
0-9扉体
6
CONTINUOUS
62
7
100
AcDbLine
10
1678.162000000000
20
1609.488000000000
30
0.0
11
1678.162000000000
21
1599.487000000000
31
0.0
0
LINE
5
742
100
AcDbEntity
8
0-9扉体
6
CONTINUOUS
62
7
100
AcDbLine
10
1659.162000000000
20
1609.488000000000
30
0.0
11
1659.162000000000
21
1599.487000000000
31
0.0
0
LINE
5
743
100
AcDbEntity
8
0-9扉体
6
CONTINUOUS
62
7
100
AcDbLine
10
1659.162000000000
20
1609.488000000000
30
0.0
11
1678.162000000000
21
1609.488000000000
31
0.0
0
LINE
5
744
100
AcDbEntity
8
0-9扉体
6
CONTINUOUS
62
7
100
AcDbLine
10
1668.662000000000
20
1608.639000000000
30
0.0
11
1668.662000000000
21
1599.487000000000
31
0.0
0
LINE
5
745
100
AcDbEntity
8
0-9扉体
6
CONTINUOUS
62
4
100
AcDbLine
10
1681.662000000000
20
1596.488000000000
30
0.0
11
1655.662000000000
21
1596.488000000000
31
0.0
0
LINE
5
746
100
AcDbEntity
8
0-9扉体
6
CONTINUOUS
62
4
100
AcDbLine
10
1681.662000000000
20
1596.488000000000
30
0.0
11
1681.662000000000
21
1594.188000000000
31
0.0
0
LINE
5
747
100
AcDbEntity
8
0-9扉体
6
CONTINUOUS
62
4
100
AcDbLine
10
1655.662000000000
20
1596.488000000000
30
0.0
11
1655.662000000000
21
1594.188000000000
31
0.0
0
LINE
5
748
100
AcDbEntity
8
0-9扉体
6
CONTINUOUS
62
4
100
AcDbLine
10
1674.662000000000
20
1619.188000000000
30
0.0
11
1662.662000000000
21
1619.188000000000
31
0.0
0
LINE
5
749
100
AcDbEntity
8
0-9扉体
6
CONTINUOUS
62
4
100
AcDbLine
10
1674.662000000000
20
1619.188000000000
30
0.0
11
1674.662000000000
21
1609.488000000000
31
0.0
0
LINE
5
74a
100
AcDbEntity
8
0-9扉体
6
CONTINUOUS
62
4
100
AcDbLine
10
1662.662000000000
20
1619.188000000000
30
0.0
11
1662.662000000000
21
1609.488000000000
31
0.0
0
LINE
5
74b
100
AcDbEntity
8
0-9扉体
6
CONTINUOUS
62
4
100
AcDbLine
10
1673.662000000000
20
1619.188000000000
30
0.0
11
1673.662000000000
21
1609.488000000000
31
0.0
0
LINE
5
74c
100
AcDbEntity
8
0-9扉体
6
CONTINUOUS
62
4
100
AcDbLine
10
1663.662000000000
20
1619.188000000000
30
0.0
11
1663.662000000000
21
1609.488000000000
31
0.0
0
LINE
5
74d
100
AcDbEntity
8
0-9扉体
6
CONTINUOUS
62
4
100
AcDbLine
10
1668.662000000000
20
1599.487000000000
30
0.0
11
1671.662000000000
21
1596.488000000000
31
0.0
0
LINE
5
74e
100
AcDbEntity
8
0-9扉体
6
CONTINUOUS
62
4
100
AcDbLine
10
1668.662000000000
20
1596.488000000000
30
0.0
11
1665.662000000000
21
1599.487000000000
31
0.0
0
LINE
5
74f
100
AcDbEntity
8
0-9扉体
6
CONTINUOUS
62
4
100
AcDbLine
10
1679.412000000000
20
1599.487000000000
30
0.0
11
1679.412000000000
21
1596.488000000000
31
0.0
0
POLYLINE
5
750
100
AcDbEntity
8
0-9扉体
6
CONTINUOUS
62
  4
100
AcDb2dPolyline
66
1
10
0.0
20
0.0
30
0.0
70
0
0
VERTEX
5
751
100
AcDbEntity
8
0-9扉体
6
CONTINUOUS
62
  4
100
AcDbVertex
100
AcDb2dVertex
10
1679.412000000000
20
1599.487000000000
30
0.0
0
VERTEX
5
752
100
AcDbEntity
8
0-9扉体
6
CONTINUOUS
62
  4
100
AcDbVertex
100
AcDb2dVertex
10
1657.912000000000
20
1599.487000000000
30
0.0
0
VERTEX
5
753
100
AcDbEntity
8
0-9扉体
6
CONTINUOUS
62
  4
100
AcDbVertex
100
AcDb2dVertex
10
1657.912000000000
20
1596.488000000000
30
0.0
0
SEQEND
5
754
100
AcDbEntity
8
0-9扉体
0
LINE
5
755
100
AcDbEntity
8
0-5基準線
6
CENTER2
62
7
100
AcDbLine
10
1668.662000000000
20
1599.487000000000
30
0.0
11
1668.662000000000
21
1583.724000000000
31
0.0
0
LINE
5
756
100
AcDbEntity
8
0-5基準線
6
CENTER2
62
7
100
AcDbLine
10
1668.662000000000
20
1622.142000000000
30
0.0
11
1668.662000000000
21
1608.639000000000
31
0.0
0
LINE
5
757
100
AcDbEntity
8
0-9扉体
6
CONTINUOUS
62
3
100
AcDbLine
10
1688.662000000000
20
1594.188000000000
30
0.0
11
1538.662000000000
21
1594.188000000000
31
0.0
0
POLYLINE
5
758
100
AcDbEntity
8
0-9扉体
6
CONTINUOUS
62
  3
100
AcDb2dPolyline
66
1
10
0.0
20
0.0
30
0.0
70
0
0
VERTEX
5
759
100
AcDbEntity
8
0-9扉体
6
CONTINUOUS
62
  3
100
AcDbVertex
100
AcDb2dVertex
10
1578.663000000000
20
1659.188000000000
30
0.0
0
VERTEX
5
75a
100
AcDbEntity
8
0-9扉体
6
CONTINUOUS
62
  3
100
AcDbVertex
100
AcDb2dVertex
10
1587.662000000000
20
1659.188000000000
30
0.0
0
VERTEX
5
75b
100
AcDbEntity
8
0-9扉体
6
CONTINUOUS
62
  3
100
AcDbVertex
100
AcDb2dVertex
10
1587.662000000000
20
1594.188000000000
30
0.0
0
SEQEND
5
75c
100
AcDbEntity
8
0-9扉体
0
LINE
5
75d
100
AcDbEntity
8
0-9扉体
6
CONTINUOUS
62
3
100
AcDbLine
10
1578.663000000000
20
1659.188000000000
30
0.0
11
1578.663000000000
21
1594.188000000000
31
0.0
0
LINE
5
75e
100
AcDbEntity
8
0-9扉体
6
CONTINUOUS
62
6
100
AcDbLine
10
1576.063000000000
20
1651.188000000000
30
0.0
11
1576.063000000000
21
1619.188000000000
31
0.0
0
LINE
5
75f
100
AcDbEntity
8
0-9扉体
6
CONTINUOUS
62
6
100
AcDbLine
10
1576.063000000000
20
1651.188000000000
30
0.0
11
1578.663000000000
21
1651.188000000000
31
0.0
0
LINE
5
760
100
AcDbEntity
8
0-9扉体
6
CONTINUOUS
62
6
100
AcDbLine
10
1576.063000000000
20
1619.188000000000
30
0.0
11
1578.663000000000
21
1619.188000000000
31
0.0
0
LINE
5
761
100
AcDbEntity
8
0-6戸当り
6
CONTINUOUS
62
6
100
AcDbLine
10
1589.662000000000
20
1656.688000000000
30
0.0
11
1589.662000000000
21
1613.688000000000
31
0.0
0
LINE
5
762
100
AcDbEntity
8
0-9扉体
6
CONTINUOUS
62
6
100
AcDbLine
10
1565.163000000000
20
1645.188000000000
30
0.0
11
1576.063000000000
21
1645.188000000000
31
0.0
0
LINE
5
763
100
AcDbEntity
8
0-9扉体
6
CONTINUOUS
62
6
100
AcDbLine
10
1587.662000000000
20
1645.188000000000
30
0.0
11
1589.662000000000
21
1645.188000000000
31
0.0
0
LINE
5
764
100
AcDbEntity
8
0-9扉体
6
CONTINUOUS
62
6
100
AcDbLine
10
1565.163000000000
20
1625.188000000000
30
0.0
11
1576.063000000000
21
1625.188000000000
31
0.0
0
LINE
5
765
100
AcDbEntity
8
0-9扉体
6
CONTINUOUS
62
6
100
AcDbLine
10
1587.662000000000
20
1625.188000000000
30
0.0
11
1589.662000000000
21
1625.188000000000
31
0.0
0
LINE
5
766
100
AcDbEntity
8
0-9扉体
6
CONTINUOUS
62
6
100
AcDbLine
10
1565.163000000000
20
1645.188000000000
30
0.0
11
1565.163000000000
21
1625.188000000000
31
0.0
0
LINE
5
767
100
AcDbEntity
8
0-9扉体
6
CONTINUOUS
62
6
100
AcDbLine
10
1651.262000000000
20
1651.188000000000
30
0.0
11
1651.262000000000
21
1619.188000000000
31
0.0
0
LINE
5
768
100
AcDbEntity
8
0-9扉体
6
CONTINUOUS
62
6
100
AcDbLine
10
1651.262000000000
20
1651.188000000000
30
0.0
11
1648.662000000000
21
1651.188000000000
31
0.0
0
LINE
5
769
100
AcDbEntity
8
0-9扉体
6
CONTINUOUS
62
6
100
AcDbLine
10
1651.262000000000
20
1619.188000000000
30
0.0
11
1648.662000000000
21
1619.188000000000
31
0.0
0
POLYLINE
5
76a
100
AcDbEntity
8
0-9扉体
6
CONTINUOUS
62
  3
100
AcDb2dPolyline
66
1
10
0.0
20
0.0
30
0.0
70
0
0
VERTEX
5
76b
100
AcDbEntity
8
0-9扉体
6
CONTINUOUS
62
  3
100
AcDbVertex
100
AcDb2dVertex
10
1648.662000000000
20
1659.188000000000
30
0.0
0
VERTEX
5
76c
100
AcDbEntity
8
0-9扉体
6
CONTINUOUS
62
  3
100
AcDbVertex
100
AcDb2dVertex
10
1639.662000000000
20
1659.188000000000
30
0.0
0
VERTEX
5
76d
100
AcDbEntity
8
0-9扉体
6
CONTINUOUS
62
  3
100
AcDbVertex
100
AcDb2dVertex
10
1639.662000000000
20
1594.188000000000
30
0.0
0
SEQEND
5
76e
100
AcDbEntity
8
0-9扉体
0
LINE
5
76f
100
AcDbEntity
8
0-9扉体
6
CONTINUOUS
62
3
100
AcDbLine
10
1648.662000000000
20
1659.188000000000
30
0.0
11
1648.662000000000
21
1594.188000000000
31
0.0
0
LINE
5
770
100
AcDbEntity
8
0-6戸当り
6
CONTINUOUS
62
6
100
AcDbLine
10
1637.662000000000
20
1656.688000000000
30
0.0
11
1637.662000000000
21
1613.688000000000
31
0.0
0
LINE
5
771
100
AcDbEntity
8
0-9扉体
6
CONTINUOUS
62
6
100
AcDbLine
10
1662.162000000000
20
1645.188000000000
30
0.0
11
1651.262000000000
21
1645.188000000000
31
0.0
0
LINE
5
772
100
AcDbEntity
8
0-9扉体
6
CONTINUOUS
62
6
100
AcDbLine
10
1639.662000000000
20
1645.188000000000
30
0.0
11
1637.662000000000
21
1645.188000000000
31
0.0
0
LINE
5
773
100
AcDbEntity
8
0-9扉体
6
CONTINUOUS
62
6
100
AcDbLine
10
1662.162000000000
20
1625.188000000000
30
0.0
11
1651.262000000000
21
1625.188000000000
31
0.0
0
LINE
5
774
100
AcDbEntity
8
0-9扉体
6
CONTINUOUS
62
6
100
AcDbLine
10
1639.662000000000
20
1625.188000000000
30
0.0
11
1637.662000000000
21
1625.188000000000
31
0.0
0
LINE
5
775
100
AcDbEntity
8
0-9扉体
6
CONTINUOUS
62
6
100
AcDbLine
10
1662.162000000000
20
1645.188000000000
30
0.0
11
1662.162000000000
21
1625.188000000000
31
0.0
0
LINE
5
776
100
AcDbEntity
8
0-5基準線
6
CENTER2
62
7
100
AcDbLine
10
1558.663000000000
20
1635.188000000000
30
0.0
11
1668.662000000000
21
1635.188000000000
31
0.0
0
LINE
5
777
100
AcDbEntity
8
0-6戸当り
6
DOT
62
6
100
AcDbLine
10
1589.662000000000
20
1646.688000000000
30
0.0
11
1637.662000000000
21
1646.688000000000
31
0.0
0
LINE
5
778
100
AcDbEntity
8
0-6戸当り
6
DOT
62
6
100
AcDbLine
10
1589.662000000000
20
1623.688000000000
30
0.0
11
1637.662000000000
21
1623.688000000000
31
0.0
0
LINE
5
779
100
AcDbEntity
8
0-6戸当り
6
CONTINUOUS
62
6
100
AcDbLine
10
1589.662000000000
20
1613.688000000000
30
0.0
11
1637.662000000000
21
1613.688000000000
31
0.0
0
LINE
5
77a
100
AcDbEntity
8
0-6戸当り
6
CONTINUOUS
62
6
100
AcDbLine
10
1589.662000000000
20
1656.688000000000
30
0.0
11
1637.662000000000
21
1656.688000000000
31
0.0
0
LINE
5
77b
100
AcDbEntity
8
0-8寸法
6
CONTINUOUS
62
4
100
AcDbLine
10
1073.662000000000
20
1910.188000000000
30
0.0
11
1613.662000000000
21
1910.188000000000
31
0.0
0
LINE
5
77c
100
AcDbEntity
8
0-5基準線
6
CENTER2
62
7
100
AcDbLine
10
1148.662000000000
20
2392.647000000000
30
0.0
11
1148.662000000000
21
2514.980000000000
31
0.0
0
LINE
5
77d
100
AcDbEntity
8
0-6戸当り
6
CONTINUOUS
62
2
100
AcDbLine
10
1135.662000000000
20
2390.247000000000
30
0.0
11
1135.662000000000
21
2392.647000000000
31
0.0
0
LINE
5
77e
100
AcDbEntity
8
0-6戸当り
6
CONTINUOUS
62
2
100
AcDbLine
10
1161.662000000000
20
2390.247000000000
30
0.0
11
1161.662000000000
21
2392.647000000000
31
0.0
0
LINE
5
77f
100
AcDbEntity
8
0-6戸当り
6
CONTINUOUS
62
3
100
AcDbLine
10
1161.662000000000
20
2390.247000000000
30
0.0
11
1135.662000000000
21
2390.247000000000
31
0.0
0
LINE
5
780
100
AcDbEntity
8
0-5基準線
6
CENTER2
62
7
100
AcDbLine
10
1073.662000000000
20
2299.191000000000
30
0.0
11
1073.662000000000
21
2472.268000000000
31
0.0
0
LINE
5
781
100
AcDbEntity
8
0-9扉体
6
CONTINUOUS
62
6
100
AcDbLine
10
1019.922000000000
20
2372.647000000000
30
0.0
11
1039.922000000000
21
2392.647000000000
31
0.0
0
LINE
5
782
100
AcDbEntity
8
0-9扉体
6
CONTINUOUS
62
6
100
AcDbLine
10
998.662000000000
20
2311.647000000000
30
0.0
11
998.662000000000
21
2361.647000000000
31
0.0
0
LINE
5
783
100
AcDbEntity
8
0-9扉体
6
CONTINUOUS
62
7
100
AcDbLine
10
1028.162000000000
20
2342.132000000000
30
0.0
11
1018.662000000000
21
2347.616000000000
31
0.0
0
LINE
5
784
100
AcDbEntity
8
0-9扉体
6
CONTINUOUS
62
7
100
AcDbLine
10
1028.162000000000
20
2342.132000000000
30
0.0
11
1028.162000000000
21
2331.162000000000
31
0.0
0
LINE
5
785
100
AcDbEntity
8
0-9扉体
6
CONTINUOUS
62
7
100
AcDbLine
10
1018.662000000000
20
2325.677000000000
30
0.0
11
1028.162000000000
21
2331.162000000000
31
0.0
0
POLYLINE
5
786
100
AcDbEntity
8
0-9扉体
6
CONTINUOUS
62
  7
100
AcDb2dPolyline
66
1
10
0.0
20
0.0
30
0.0
70
0
0
VERTEX
5
787
100
AcDbEntity
8
0-9扉体
6
CONTINUOUS
62
  7
100
AcDbVertex
100
AcDb2dVertex
10
1018.662000000000
20
2325.677000000000
30
0.0
0
VERTEX
5
788
100
AcDbEntity
8
0-9扉体
6
CONTINUOUS
62
  7
100
AcDbVertex
100
AcDb2dVertex
10
1009.162000000000
20
2331.162000000000
30
0.0
0
VERTEX
5
789
100
AcDbEntity
8
0-9扉体
6
CONTINUOUS
62
  7
100
AcDbVertex
100
AcDb2dVertex
10
1009.162000000000
20
2342.132000000000
30
0.0
0
VERTEX
5
78a
100
AcDbEntity
8
0-9扉体
6
CONTINUOUS
62
  7
100
AcDbVertex
100
AcDb2dVertex
10
1018.662000000000
20
2347.616000000000
30
0.0
0
SEQEND
5
78b
100
AcDbEntity
8
0-9扉体
0
LINE
5
78c
100
AcDbEntity
8
0-5基準線
6
CENTER2
62
7
100
AcDbLine
10
1018.662000000000
20
2350.647000000000
30
0.0
11
1018.662000000000
21
2322.647000000000
31
0.0
0
LINE
5
78d
100
AcDbEntity
8
0-5基準線
6
CENTER2
62
7
100
AcDbLine
10
1032.662000000000
20
2336.647000000000
30
0.0
11
1004.662000000000
21
2336.647000000000
31
0.0
0
LINE
5
78e
100
AcDbEntity
8
0-9扉体
6
CONTINUOUS
62
6
100
AcDbLine
10
998.662000000000
20
2361.647000000000
30
0.0
11
1025.162000000000
21
2361.647000000000
31
0.0
0
LINE
5
78f
100
AcDbEntity
8
0-9扉体
6
CONTINUOUS
62
7
100
AcDbLine
10
1119.162000000000
20
2342.132000000000
30
0.0
11
1128.662000000000
21
2347.616000000000
31
0.0
0
LINE
5
790
100
AcDbEntity
8
0-9扉体
6
CONTINUOUS
62
7
100
AcDbLine
10
1119.162000000000
20
2342.132000000000
30
0.0
11
1119.162000000000
21
2331.162000000000
31
0.0
0
LINE
5
791
100
AcDbEntity
8
0-9扉体
6
CONTINUOUS
62
7
100
AcDbLine
10
1128.662000000000
20
2325.677000000000
30
0.0
11
1119.162000000000
21
2331.162000000000
31
0.0
0
POLYLINE
5
792
100
AcDbEntity
8
0-9扉体
6
CONTINUOUS
62
  7
100
AcDb2dPolyline
66
1
10
0.0
20
0.0
30
0.0
70
0
0
VERTEX
5
793
100
AcDbEntity
8
0-9扉体
6
CONTINUOUS
62
  7
100
AcDbVertex
100
AcDb2dVertex
10
1128.662000000000
20
2325.677000000000
30
0.0
0
VERTEX
5
794
100
AcDbEntity
8
0-9扉体
6
CONTINUOUS
62
  7
100
AcDbVertex
100
AcDb2dVertex
10
1138.162000000000
20
2331.162000000000
30
0.0
0
VERTEX
5
795
100
AcDbEntity
8
0-9扉体
6
CONTINUOUS
62
  7
100
AcDbVertex
100
AcDb2dVertex
10
1138.162000000000
20
2342.132000000000
30
0.0
0
VERTEX
5
796
100
AcDbEntity
8
0-9扉体
6
CONTINUOUS
62
  7
100
AcDbVertex
100
AcDb2dVertex
10
1128.662000000000
20
2347.616000000000
30
0.0
0
SEQEND
5
797
100
AcDbEntity
8
0-9扉体
0
LINE
5
798
100
AcDbEntity
8
0-5基準線
6
CENTER2
62
7
100
AcDbLine
10
1128.662000000000
20
2350.647000000000
30
0.0
11
1128.662000000000
21
2322.647000000000
31
0.0
0
LINE
5
799
100
AcDbEntity
8
0-5基準線
6
CENTER2
62
7
100
AcDbLine
10
1114.662000000000
20
2336.647000000000
30
0.0
11
1142.662000000000
21
2336.647000000000
31
0.0
0
POLYLINE
5
79a
100
AcDbEntity
8
0-9扉体
6
CONTINUOUS
62
  6
100
AcDb2dPolyline
66
1
10
0.0
20
0.0
30
0.0
70
0
0
VERTEX
5
79b
100
AcDbEntity
8
0-9扉体
6
CONTINUOUS
62
  6
100
AcDbVertex
100
AcDb2dVertex
10
1148.662000000000
20
2311.647000000000
30
0.0
0
VERTEX
5
79c
100
AcDbEntity
8
0-9扉体
6
CONTINUOUS
62
  6
100
AcDbVertex
100
AcDb2dVertex
10
1148.662000000000
20
2361.647000000000
30
0.0
0
VERTEX
5
79d
100
AcDbEntity
8
0-9扉体
6
CONTINUOUS
62
  6
100
AcDbVertex
100
AcDb2dVertex
10
1122.162000000000
20
2361.647000000000
30
0.0
0
SEQEND
5
79e
100
AcDbEntity
8
0-9扉体
0
LINE
5
79f
100
AcDbEntity
8
0-9扉体
6
CONTINUOUS
62
6
100
AcDbLine
10
998.662000000000
20
2311.647000000000
30
0.0
11
1148.662000000000
21
2311.647000000000
31
0.0
0
LINE
5
7a0
100
AcDbEntity
8
0-9扉体
6
CONTINUOUS
62
6
100
AcDbLine
10
1038.662000000000
20
2341.147000000000
30
0.0
11
1047.662000000000
21
2341.147000000000
31
0.0
0
POLYLINE
5
7a1
100
AcDbEntity
8
0-9扉体
6
CONTINUOUS
62
  6
100
AcDb2dPolyline
66
1
10
0.0
20
0.0
30
0.0
70
0
0
VERTEX
5
7a2
100
AcDbEntity
8
0-9扉体
6
CONTINUOUS
62
  6
100
AcDbVertex
100
AcDb2dVertex
10
1036.062000000000
20
2374.647000000000
30
0.0
0
VERTEX
5
7a3
100
AcDbEntity
8
0-9扉体
6
CONTINUOUS
62
  6
100
AcDbVertex
100
AcDb2dVertex
10
1036.062000000000
20
2342.647000000000
30
0.0
0
VERTEX
5
7a4
100
AcDbEntity
8
0-9扉体
6
CONTINUOUS
62
  6
100
AcDbVertex
100
AcDb2dVertex
10
1038.662000000000
20
2342.647000000000
30
0.0
0
SEQEND
5
7a5
100
AcDbEntity
8
0-9扉体
0
LINE
5
7a6
100
AcDbEntity
8
0-9扉体
6
CONTINUOUS
62
6
100
AcDbLine
10
1038.662000000000
20
2311.647000000000
30
0.0
11
1038.662000000000
21
2376.147000000000
31
0.0
0
LINE
5
7a7
100
AcDbEntity
8
0-9扉体
6
CONTINUOUS
62
6
100
AcDbLine
10
1047.662000000000
20
2311.647000000000
30
0.0
11
1047.662000000000
21
2376.147000000000
31
0.0
0
LINE
5
7a8
100
AcDbEntity
8
0-9扉体
6
CONTINUOUS
62
6
100
AcDbLine
10
1038.662000000000
20
2376.147000000000
30
0.0
11
1047.662000000000
21
2376.147000000000
31
0.0
0
LINE
5
7a9
100
AcDbEntity
8
0-9扉体
6
CONTINUOUS
62
6
100
AcDbLine
10
1036.062000000000
20
2374.647000000000
30
0.0
11
1038.662000000000
21
2374.647000000000
31
0.0
0
LINE
5
7aa
100
AcDbEntity
8
0-9扉体
6
CONTINUOUS
62
6
100
AcDbLine
10
1111.262000000000
20
2342.647000000000
30
0.0
11
1108.662000000000
21
2342.647000000000
31
0.0
0
LINE
5
7ab
100
AcDbEntity
8
0-9扉体
6
CONTINUOUS
62
6
100
AcDbLine
10
1108.662000000000
20
2341.147000000000
30
0.0
11
1099.662000000000
21
2341.147000000000
31
0.0
0
LINE
5
7ac
100
AcDbEntity
8
0-9扉体
6
CONTINUOUS
62
6
100
AcDbLine
10
1099.662000000000
20
2311.647000000000
30
0.0
11
1099.662000000000
21
2376.147000000000
31
0.0
0
LINE
5
7ad
100
AcDbEntity
8
0-5基準線
6
CENTER2
62
7
100
AcDbLine
10
1021.662000000000
20
2358.647000000000
30
0.0
11
1125.662000000000
21
2358.647000000000
31
0.0
0
LINE
5
7ae
100
AcDbEntity
8
0-9扉体
6
CONTINUOUS
62
6
100
AcDbLine
10
1108.662000000000
20
2376.147000000000
30
0.0
11
1099.662000000000
21
2376.147000000000
31
0.0
0
LINE
5
7af
100
AcDbEntity
8
0-9扉体
6
CONTINUOUS
62
6
100
AcDbLine
10
1111.262000000000
20
2374.647000000000
30
0.0
11
1108.662000000000
21
2374.647000000000
31
0.0
0
LINE
5
7b0
100
AcDbEntity
8
0-9扉体
6
CONTINUOUS
62
6
100
AcDbLine
10
1111.262000000000
20
2374.647000000000
30
0.0
11
1111.262000000000
21
2342.647000000000
31
0.0
0
LINE
5
7b1
100
AcDbEntity
8
0-9扉体
6
CONTINUOUS
62
6
100
AcDbLine
10
1108.662000000000
20
2311.647000000000
30
0.0
11
1108.662000000000
21
2376.147000000000
31
0.0
0
LINE
5
7b2
100
AcDbEntity
8
0-9扉体
6
CONTINUOUS
62
6
100
AcDbLine
10
1097.662000000000
20
2381.090000000000
30
0.0
11
1109.219000000000
21
2392.647000000000
31
0.0
0
LINE
5
7b3
100
AcDbEntity
8
0-9扉体
6
CONTINUOUS
62
6
100
AcDbLine
10
1097.662000000000
20
2379.676000000000
30
0.0
11
1110.633000000000
21
2392.647000000000
31
0.0
0
LINE
5
7b4
100
AcDbEntity
8
0-9扉体
6
CONTINUOUS
62
6
100
AcDbLine
10
1034.065000000000
20
2372.647000000000
30
0.0
11
1049.662000000000
21
2388.244000000000
31
0.0
0
LINE
5
7b5
100
AcDbEntity
8
0-9扉体
6
CONTINUOUS
62
6
100
AcDbLine
10
1032.650000000000
20
2372.647000000000
30
0.0
11
1049.662000000000
21
2389.659000000000
31
0.0
0
LINE
5
7b6
100
AcDbEntity
8
0-6戸当り
6
DOT
62
2
100
AcDbLine
10
1049.662000000000
20
2322.647000000000
30
0.0
11
1097.662000000000
21
2322.647000000000
31
0.0
0
LINE
5
7b7
100
AcDbEntity
8
0-6戸当り
6
CONTINUOUS
62
2
100
AcDbLine
10
1049.662000000000
20
2312.647000000000
30
0.0
11
1049.662000000000
21
2392.647000000000
31
0.0
0
LINE
5
7b8
100
AcDbEntity
8
0-6戸当り
6
CONTINUOUS
62
2
100
AcDbLine
10
1097.662000000000
20
2312.647000000000
30
0.0
11
1097.662000000000
21
2392.647000000000
31
0.0
0
LINE
5
7b9
100
AcDbEntity
8
0-6戸当り
6
CONTINUOUS
62
2
100
AcDbLine
10
1049.662000000000
20
2312.647000000000
30
0.0
11
1097.662000000000
21
2312.647000000000
31
0.0
0
LINE
5
7ba
100
AcDbEntity
8
0-9扉体
6
CONTINUOUS
62
6
100
AcDbLine
10
1025.162000000000
20
2348.647000000000
30
0.0
11
1036.062000000000
21
2348.647000000000
31
0.0
0
LINE
5
7bb
100
AcDbEntity
8
0-9扉体
6
CONTINUOUS
62
6
100
AcDbLine
10
1047.662000000000
20
2348.647000000000
30
0.0
11
1049.662000000000
21
2348.647000000000
31
0.0
0
LINE
5
7bc
100
AcDbEntity
8
0-9扉体
6
CONTINUOUS
62
6
100
AcDbLine
10
1122.162000000000
20
2348.647000000000
30
0.0
11
1111.262000000000
21
2348.647000000000
31
0.0
0
LINE
5
7bd
100
AcDbEntity
8
0-9扉体
6
CONTINUOUS
62
6
100
AcDbLine
10
1099.662000000000
20
2348.647000000000
30
0.0
11
1097.662000000000
21
2348.647000000000
31
0.0
0
LINE
5
7be
100
AcDbEntity
8
0-9扉体
6
CONTINUOUS
62
6
100
AcDbLine
10
1047.662000000000
20
2368.647000000000
30
0.0
11
1049.662000000000
21
2368.647000000000
31
0.0
0
LINE
5
7bf
100
AcDbEntity
8
0-9扉体
6
CONTINUOUS
62
6
100
AcDbLine
10
1025.162000000000
20
2368.647000000000
30
0.0
11
1036.062000000000
21
2368.647000000000
31
0.0
0
LINE
5
7c0
100
AcDbEntity
8
0-9扉体
6
CONTINUOUS
62
6
100
AcDbLine
10
1099.662000000000
20
2368.647000000000
30
0.0
11
1097.662000000000
21
2368.647000000000
31
0.0
0
LINE
5
7c1
100
AcDbEntity
8
0-9扉体
6
CONTINUOUS
62
6
100
AcDbLine
10
1122.162000000000
20
2368.647000000000
30
0.0
11
1111.262000000000
21
2368.647000000000
31
0.0
0
LINE
5
7c2
100
AcDbEntity
8
0-9扉体
6
CONTINUOUS
62
6
100
AcDbLine
10
1025.162000000000
20
2368.647000000000
30
0.0
11
1025.162000000000
21
2348.647000000000
31
0.0
0
LINE
5
7c3
100
AcDbEntity
8
0-9扉体
6
CONTINUOUS
62
6
100
AcDbLine
10
1122.162000000000
20
2368.647000000000
30
0.0
11
1122.162000000000
21
2348.647000000000
31
0.0
0
LINE
5
7c4
100
AcDbEntity
8
0-5基準線
6
CENTER2
62
7
100
AcDbLine
10
998.662000000000
20
2392.647000000000
30
0.0
11
998.662000000000
21
2514.980000000000
31
0.0
0
LINE
5
7c5
100
AcDbEntity
8
0-9扉体
6
CONTINUOUS
62
6
100
AcDbLine
10
1158.162000000000
20
2385.021000000000
30
0.0
11
1165.788000000000
21
2392.647000000000
31
0.0
0
LINE
5
7c6
100
AcDbEntity
8
0-9扉体
6
CONTINUOUS
62
6
100
AcDbLine
10
1158.162000000000
20
2383.607000000000
30
0.0
11
1167.202000000000
21
2392.647000000000
31
0.0
0
LINE
5
7c7
100
AcDbEntity
8
0-9扉体
6
CONTINUOUS
62
6
100
AcDbLine
10
1118.361000000000
20
2372.647000000000
30
0.0
11
1135.961000000000
21
2390.247000000000
31
0.0
0
LINE
5
7c8
100
AcDbEntity
8
0-9扉体
6
CONTINUOUS
62
6
100
AcDbLine
10
1108.275000000000
20
2376.147000000000
30
0.0
11
1124.775000000000
21
2392.647000000000
31
0.0
0
LINE
5
7c9
100
AcDbEntity
8
0-9扉体
6
CONTINUOUS
62
6
100
AcDbLine
10
1106.861000000000
20
2376.147000000000
30
0.0
11
1123.361000000000
21
2392.647000000000
31
0.0
0
LINE
5
7ca
100
AcDbEntity
8
0-9扉体
6
CONTINUOUS
62
6
100
AcDbLine
10
957.496000000000
20
2372.647000000000
30
0.0
11
977.496000000000
21
2392.647000000000
31
0.0
0
LINE
5
7cb
100
AcDbEntity
8
0-9扉体
6
CONTINUOUS
62
6
100
AcDbLine
10
956.082000000000
20
2372.647000000000
30
0.0
11
976.082000000000
21
2392.647000000000
31
0.0
0
LINE
5
7cc
100
AcDbEntity
8
0-9扉体
6
CONTINUOUS
62
6
100
AcDbLine
10
970.224000000000
20
2372.647000000000
30
0.0
11
987.912000000000
21
2390.335000000000
31
0.0
0
LINE
5
7cd
100
AcDbEntity
8
0-9扉体
6
CONTINUOUS
62
6
100
AcDbLine
10
971.638000000000
20
2372.647000000000
30
0.0
11
987.912000000000
21
2388.921000000000
31
0.0
0
LINE
5
7ce
100
AcDbEntity
8
0-9扉体
6
DOT
62
6
100
AcDbLine
10
1347.662000000000
20
750.188000000000
30
0.0
11
1347.662000000000
21
691.188000000000
31
0.0
0
LINE
5
7cf
100
AcDbEntity
8
0-9扉体
6
DOT
62
6
100
AcDbLine
10
1339.662000000000
20
750.188000000000
30
0.0
11
1339.662000000000
21
691.188000000000
31
0.0
0
LINE
5
7d0
100
AcDbEntity
8
0-6戸当り
6
CONTINUOUS
62
3
100
AcDbLine
10
863.662000000000
20
856.987000000000
30
0.0
11
872.149000000000
21
852.088000000000
31
0.0
0
LINE
5
7d1
100
AcDbEntity
8
0-6戸当り
6
CONTINUOUS
62
3
100
AcDbLine
10
863.662000000000
20
837.388000000000
30
0.0
11
872.149000000000
21
842.288000000000
31
0.0
0
LINE
5
7d2
100
AcDbEntity
8
0-6戸当り
6
CONTINUOUS
62
3
100
AcDbLine
10
872.149000000000
20
852.088000000000
30
0.0
11
872.149000000000
21
842.288000000000
31
0.0
0
LINE
5
7d3
100
AcDbEntity
8
0-6戸当り
6
CONTINUOUS
62
3
100
AcDbLine
10
863.662000000000
20
837.388000000000
30
0.0
11
855.175000000000
21
842.288000000000
31
0.0
0
LINE
5
7d4
100
AcDbEntity
8
0-6戸当り
6
CONTINUOUS
62
3
100
AcDbLine
10
863.662000000000
20
856.987000000000
30
0.0
11
855.175000000000
21
852.088000000000
31
0.0
0
LINE
5
7d5
100
AcDbEntity
8
0-6戸当り
6
CONTINUOUS
62
3
100
AcDbLine
10
855.175000000000
20
842.288000000000
30
0.0
11
855.175000000000
21
852.088000000000
31
0.0
0
LINE
5
7d6
100
AcDbEntity
8
0-5基準線
6
CENTER2
62
7
100
AcDbLine
10
863.662000000000
20
832.188000000000
30
0.0
11
863.662000000000
21
862.187000000000
31
0.0
0
LINE
5
7d7
100
AcDbEntity
8
0-5基準線
6
CENTER2
62
7
100
AcDbLine
10
878.662000000000
20
847.188000000000
30
0.0
11
848.662000000000
21
847.188000000000
31
0.0
0
LINE
5
7d8
100
AcDbEntity
8
0-6戸当り
6
CONTINUOUS
62
3
100
AcDbLine
10
863.662000000000
20
1048.987000000000
30
0.0
11
872.149000000000
21
1044.088000000000
31
0.0
0
LINE
5
7d9
100
AcDbEntity
8
0-6戸当り
6
CONTINUOUS
62
3
100
AcDbLine
10
863.662000000000
20
1029.388000000000
30
0.0
11
872.149000000000
21
1034.288000000000
31
0.0
0
LINE
5
7da
100
AcDbEntity
8
0-6戸当り
6
CONTINUOUS
62
3
100
AcDbLine
10
872.149000000000
20
1044.088000000000
30
0.0
11
872.149000000000
21
1034.288000000000
31
0.0
0
LINE
5
7db
100
AcDbEntity
8
0-6戸当り
6
CONTINUOUS
62
3
100
AcDbLine
10
863.662000000000
20
1029.388000000000
30
0.0
11
855.175000000000
21
1034.288000000000
31
0.0
0
LINE
5
7dc
100
AcDbEntity
8
0-6戸当り
6
CONTINUOUS
62
3
100
AcDbLine
10
863.662000000000
20
1048.987000000000
30
0.0
11
855.175000000000
21
1044.088000000000
31
0.0
0
LINE
5
7dd
100
AcDbEntity
8
0-6戸当り
6
CONTINUOUS
62
3
100
AcDbLine
10
855.175000000000
20
1034.288000000000
30
0.0
11
855.175000000000
21
1044.088000000000
31
0.0
0
LINE
5
7de
100
AcDbEntity
8
0-5基準線
6
CENTER2
62
7
100
AcDbLine
10
863.662000000000
20
1024.188000000000
30
0.0
11
863.662000000000
21
1054.187000000000
31
0.0
0
LINE
5
7df
100
AcDbEntity
8
0-5基準線
6
CENTER2
62
7
100
AcDbLine
10
878.662000000000
20
1039.188000000000
30
0.0
11
848.662000000000
21
1039.188000000000
31
0.0
0
LINE
5
7e0
100
AcDbEntity
8
0-6戸当り
6
CONTINUOUS
62
3
100
AcDbLine
10
863.662000000000
20
1240.987000000000
30
0.0
11
872.149000000000
21
1236.088000000000
31
0.0
0
LINE
5
7e1
100
AcDbEntity
8
0-6戸当り
6
CONTINUOUS
62
3
100
AcDbLine
10
863.662000000000
20
1221.388000000000
30
0.0
11
872.149000000000
21
1226.288000000000
31
0.0
0
LINE
5
7e2
100
AcDbEntity
8
0-6戸当り
6
CONTINUOUS
62
3
100
AcDbLine
10
872.149000000000
20
1236.088000000000
30
0.0
11
872.149000000000
21
1226.288000000000
31
0.0
0
LINE
5
7e3
100
AcDbEntity
8
0-6戸当り
6
CONTINUOUS
62
3
100
AcDbLine
10
863.662000000000
20
1221.388000000000
30
0.0
11
855.175000000000
21
1226.288000000000
31
0.0
0
LINE
5
7e4
100
AcDbEntity
8
0-6戸当り
6
CONTINUOUS
62
3
100
AcDbLine
10
863.662000000000
20
1240.987000000000
30
0.0
11
855.175000000000
21
1236.088000000000
31
0.0
0
LINE
5
7e5
100
AcDbEntity
8
0-6戸当り
6
CONTINUOUS
62
3
100
AcDbLine
10
855.175000000000
20
1226.288000000000
30
0.0
11
855.175000000000
21
1236.088000000000
31
0.0
0
LINE
5
7e6
100
AcDbEntity
8
0-5基準線
6
CENTER2
62
7
100
AcDbLine
10
863.662000000000
20
1216.188000000000
30
0.0
11
863.662000000000
21
1246.188000000000
31
0.0
0
LINE
5
7e7
100
AcDbEntity
8
0-5基準線
6
CENTER2
62
7
100
AcDbLine
10
878.662000000000
20
1231.188000000000
30
0.0
11
848.662000000000
21
1231.188000000000
31
0.0
0
LINE
5
7e8
100
AcDbEntity
8
0-6戸当り
6
CONTINUOUS
62
3
100
AcDbLine
10
863.662000000000
20
1432.987000000000
30
0.0
11
872.149000000000
21
1428.088000000000
31
0.0
0
LINE
5
7e9
100
AcDbEntity
8
0-6戸当り
6
CONTINUOUS
62
3
100
AcDbLine
10
863.662000000000
20
1413.388000000000
30
0.0
11
872.149000000000
21
1418.288000000000
31
0.0
0
LINE
5
7ea
100
AcDbEntity
8
0-6戸当り
6
CONTINUOUS
62
3
100
AcDbLine
10
872.149000000000
20
1428.088000000000
30
0.0
11
872.149000000000
21
1418.288000000000
31
0.0
0
LINE
5
7eb
100
AcDbEntity
8
0-6戸当り
6
CONTINUOUS
62
3
100
AcDbLine
10
863.662000000000
20
1413.388000000000
30
0.0
11
855.175000000000
21
1418.288000000000
31
0.0
0
LINE
5
7ec
100
AcDbEntity
8
0-6戸当り
6
CONTINUOUS
62
3
100
AcDbLine
10
863.662000000000
20
1432.987000000000
30
0.0
11
855.175000000000
21
1428.088000000000
31
0.0
0
LINE
5
7ed
100
AcDbEntity
8
0-6戸当り
6
CONTINUOUS
62
3
100
AcDbLine
10
855.175000000000
20
1418.288000000000
30
0.0
11
855.175000000000
21
1428.088000000000
31
0.0
0
LINE
5
7ee
100
AcDbEntity
8
0-5基準線
6
CENTER2
62
7
100
AcDbLine
10
863.662000000000
20
1408.188000000000
30
0.0
11
863.662000000000
21
1438.187000000000
31
0.0
0
LINE
5
7ef
100
AcDbEntity
8
0-5基準線
6
CENTER2
62
7
100
AcDbLine
10
878.662000000000
20
1423.188000000000
30
0.0
11
848.662000000000
21
1423.188000000000
31
0.0
0
LINE
5
7f0
100
AcDbEntity
8
0-6戸当り
6
CONTINUOUS
62
3
100
AcDbLine
10
863.662000000000
20
1624.987000000000
30
0.0
11
872.149000000000
21
1620.088000000000
31
0.0
0
LINE
5
7f1
100
AcDbEntity
8
0-6戸当り
6
CONTINUOUS
62
3
100
AcDbLine
10
863.662000000000
20
1605.388000000000
30
0.0
11
872.149000000000
21
1610.288000000000
31
0.0
0
LINE
5
7f2
100
AcDbEntity
8
0-6戸当り
6
CONTINUOUS
62
3
100
AcDbLine
10
872.149000000000
20
1620.088000000000
30
0.0
11
872.149000000000
21
1610.288000000000
31
0.0
0
LINE
5
7f3
100
AcDbEntity
8
0-6戸当り
6
CONTINUOUS
62
3
100
AcDbLine
10
863.662000000000
20
1605.388000000000
30
0.0
11
855.175000000000
21
1610.288000000000
31
0.0
0
LINE
5
7f4
100
AcDbEntity
8
0-6戸当り
6
CONTINUOUS
62
3
100
AcDbLine
10
863.662000000000
20
1624.987000000000
30
0.0
11
855.175000000000
21
1620.088000000000
31
0.0
0
LINE
5
7f5
100
AcDbEntity
8
0-6戸当り
6
CONTINUOUS
62
3
100
AcDbLine
10
855.175000000000
20
1610.288000000000
30
0.0
11
855.175000000000
21
1620.088000000000
31
0.0
0
LINE
5
7f6
100
AcDbEntity
8
0-5基準線
6
CENTER2
62
7
100
AcDbLine
10
863.662000000000
20
1600.188000000000
30
0.0
11
863.662000000000
21
1630.188000000000
31
0.0
0
LINE
5
7f7
100
AcDbEntity
8
0-5基準線
6
CENTER2
62
7
100
AcDbLine
10
878.662000000000
20
1615.188000000000
30
0.0
11
848.662000000000
21
1615.188000000000
31
0.0
0
LINE
5
7f8
100
AcDbEntity
8
0-8寸法
6
CONTINUOUS
62
4
100
AcDbLine
10
593.662000000000
20
1685.188000000000
30
0.0
11
593.662000000000
21
1615.188000000000
31
0.0
0
LINE
5
7f9
100
AcDbEntity
8
0-8寸法
6
CONTINUOUS
62
4
100
AcDbLine
10
593.662000000000
20
1685.188000000000
30
0.0
11
598.838000000000
21
1665.869000000000
31
0.0
0
LINE
5
7fa
100
AcDbEntity
8
0-8寸法
6
CONTINUOUS
62
4
100
AcDbLine
10
593.662000000000
20
1685.188000000000
30
0.0
11
588.486000000000
21
1665.869000000000
31
0.0
0
LINE
5
7fb
100
AcDbEntity
8
0-8寸法
6
CONTINUOUS
62
4
100
AcDbLine
10
593.662000000000
20
1615.188000000000
30
0.0
11
598.838000000000
21
1634.506000000000
31
0.0
0
LINE
5
7fc
100
AcDbEntity
8
0-8寸法
6
CONTINUOUS
62
4
100
AcDbLine
10
593.662000000000
20
1615.188000000000
30
0.0
11
588.486000000000
21
1634.506000000000
31
0.0
0
LINE
5
7fd
100
AcDbEntity
8
0-8寸法
6
CONTINUOUS
62
4
100
AcDbLine
10
583.662000000000
20
1685.188000000000
30
0.0
11
834.142000000000
21
1685.188000000000
31
0.0
0
LINE
5
7fe
100
AcDbEntity
8
0-8寸法
6
CONTINUOUS
62
4
100
AcDbLine
10
583.662000000000
20
1615.188000000000
30
0.0
11
834.142000000000
21
1615.188000000000
31
0.0
0
LINE
5
7ff
100
AcDbEntity
8
0-8寸法
6
CONTINUOUS
62
4
100
AcDbLine
10
593.662000000000
20
1615.188000000000
30
0.0
11
593.662000000000
21
655.188000000000
31
0.0
0
LINE
5
800
100
AcDbEntity
8
0-8寸法
6
CONTINUOUS
62
4
100
AcDbLine
10
593.662000000000
20
1615.188000000000
30
0.0
11
598.838000000000
21
1595.869000000000
31
0.0
0
LINE
5
801
100
AcDbEntity
8
0-8寸法
6
CONTINUOUS
62
4
100
AcDbLine
10
593.662000000000
20
1615.188000000000
30
0.0
11
588.486000000000
21
1595.869000000000
31
0.0
0
LINE
5
802
100
AcDbEntity
8
0-8寸法
6
CONTINUOUS
62
4
100
AcDbLine
10
593.662000000000
20
655.188000000000
30
0.0
11
598.838000000000
21
674.506000000000
31
0.0
0
LINE
5
803
100
AcDbEntity
8
0-8寸法
6
CONTINUOUS
62
4
100
AcDbLine
10
593.662000000000
20
655.188000000000
30
0.0
11
588.486000000000
21
674.506000000000
31
0.0
0
LINE
5
804
100
AcDbEntity
8
0-8寸法
6
CONTINUOUS
62
4
100
AcDbLine
10
583.662000000000
20
655.188000000000
30
0.0
11
834.142000000000
21
655.188000000000
31
0.0
0
LINE
5
805
100
AcDbEntity
8
0-6戸当り
6
CONTINUOUS
62
3
100
AcDbLine
10
1823.662000000000
20
856.987000000000
30
0.0
11
1832.149000000000
21
852.088000000000
31
0.0
0
LINE
5
806
100
AcDbEntity
8
0-6戸当り
6
CONTINUOUS
62
3
100
AcDbLine
10
1823.662000000000
20
837.388000000000
30
0.0
11
1832.149000000000
21
842.288000000000
31
0.0
0
LINE
5
807
100
AcDbEntity
8
0-6戸当り
6
CONTINUOUS
62
3
100
AcDbLine
10
1832.149000000000
20
852.088000000000
30
0.0
11
1832.149000000000
21
842.288000000000
31
0.0
0
LINE
5
808
100
AcDbEntity
8
0-6戸当り
6
CONTINUOUS
62
3
100
AcDbLine
10
1823.662000000000
20
837.388000000000
30
0.0
11
1815.175000000000
21
842.288000000000
31
0.0
0
LINE
5
809
100
AcDbEntity
8
0-6戸当り
6
CONTINUOUS
62
3
100
AcDbLine
10
1823.662000000000
20
856.987000000000
30
0.0
11
1815.175000000000
21
852.088000000000
31
0.0
0
LINE
5
80a
100
AcDbEntity
8
0-6戸当り
6
CONTINUOUS
62
3
100
AcDbLine
10
1815.175000000000
20
842.288000000000
30
0.0
11
1815.175000000000
21
852.088000000000
31
0.0
0
LINE
5
80b
100
AcDbEntity
8
0-5基準線
6
CENTER2
62
7
100
AcDbLine
10
1823.662000000000
20
832.188000000000
30
0.0
11
1823.662000000000
21
862.187000000000
31
0.0
0
LINE
5
80c
100
AcDbEntity
8
0-5基準線
6
CENTER2
62
7
100
AcDbLine
10
1838.662000000000
20
847.188000000000
30
0.0
11
1808.662000000000
21
847.188000000000
31
0.0
0
LINE
5
80d
100
AcDbEntity
8
0-6戸当り
6
CONTINUOUS
62
3
100
AcDbLine
10
1823.662000000000
20
1048.987000000000
30
0.0
11
1832.149000000000
21
1044.088000000000
31
0.0
0
LINE
5
80e
100
AcDbEntity
8
0-6戸当り
6
CONTINUOUS
62
3
100
AcDbLine
10
1823.662000000000
20
1029.388000000000
30
0.0
11
1832.149000000000
21
1034.288000000000
31
0.0
0
LINE
5
80f
100
AcDbEntity
8
0-6戸当り
6
CONTINUOUS
62
3
100
AcDbLine
10
1832.149000000000
20
1044.088000000000
30
0.0
11
1832.149000000000
21
1034.288000000000
31
0.0
0
LINE
5
810
100
AcDbEntity
8
0-6戸当り
6
CONTINUOUS
62
3
100
AcDbLine
10
1823.662000000000
20
1029.388000000000
30
0.0
11
1815.175000000000
21
1034.288000000000
31
0.0
0
LINE
5
811
100
AcDbEntity
8
0-6戸当り
6
CONTINUOUS
62
3
100
AcDbLine
10
1823.662000000000
20
1048.987000000000
30
0.0
11
1815.175000000000
21
1044.088000000000
31
0.0
0
LINE
5
812
100
AcDbEntity
8
0-6戸当り
6
CONTINUOUS
62
3
100
AcDbLine
10
1815.175000000000
20
1034.288000000000
30
0.0
11
1815.175000000000
21
1044.088000000000
31
0.0
0
LINE
5
813
100
AcDbEntity
8
0-5基準線
6
CENTER2
62
7
100
AcDbLine
10
1823.662000000000
20
1024.188000000000
30
0.0
11
1823.662000000000
21
1054.187000000000
31
0.0
0
LINE
5
814
100
AcDbEntity
8
0-5基準線
6
CENTER2
62
7
100
AcDbLine
10
1838.662000000000
20
1039.188000000000
30
0.0
11
1808.662000000000
21
1039.188000000000
31
0.0
0
LINE
5
815
100
AcDbEntity
8
0-6戸当り
6
CONTINUOUS
62
3
100
AcDbLine
10
1823.662000000000
20
1240.987000000000
30
0.0
11
1832.149000000000
21
1236.088000000000
31
0.0
0
LINE
5
816
100
AcDbEntity
8
0-6戸当り
6
CONTINUOUS
62
3
100
AcDbLine
10
1823.662000000000
20
1221.388000000000
30
0.0
11
1832.149000000000
21
1226.288000000000
31
0.0
0
LINE
5
817
100
AcDbEntity
8
0-6戸当り
6
CONTINUOUS
62
3
100
AcDbLine
10
1832.149000000000
20
1236.088000000000
30
0.0
11
1832.149000000000
21
1226.288000000000
31
0.0
0
LINE
5
818
100
AcDbEntity
8
0-6戸当り
6
CONTINUOUS
62
3
100
AcDbLine
10
1823.662000000000
20
1221.388000000000
30
0.0
11
1815.175000000000
21
1226.288000000000
31
0.0
0
LINE
5
819
100
AcDbEntity
8
0-6戸当り
6
CONTINUOUS
62
3
100
AcDbLine
10
1823.662000000000
20
1240.987000000000
30
0.0
11
1815.175000000000
21
1236.088000000000
31
0.0
0
LINE
5
81a
100
AcDbEntity
8
0-6戸当り
6
CONTINUOUS
62
3
100
AcDbLine
10
1815.175000000000
20
1226.288000000000
30
0.0
11
1815.175000000000
21
1236.088000000000
31
0.0
0
LINE
5
81b
100
AcDbEntity
8
0-5基準線
6
CENTER2
62
7
100
AcDbLine
10
1823.662000000000
20
1216.188000000000
30
0.0
11
1823.662000000000
21
1246.188000000000
31
0.0
0
LINE
5
81c
100
AcDbEntity
8
0-5基準線
6
CENTER2
62
7
100
AcDbLine
10
1838.662000000000
20
1231.188000000000
30
0.0
11
1808.662000000000
21
1231.188000000000
31
0.0
0
LINE
5
81d
100
AcDbEntity
8
0-6戸当り
6
CONTINUOUS
62
3
100
AcDbLine
10
1823.662000000000
20
1432.987000000000
30
0.0
11
1832.149000000000
21
1428.088000000000
31
0.0
0
LINE
5
81e
100
AcDbEntity
8
0-6戸当り
6
CONTINUOUS
62
3
100
AcDbLine
10
1823.662000000000
20
1413.388000000000
30
0.0
11
1832.149000000000
21
1418.288000000000
31
0.0
0
LINE
5
81f
100
AcDbEntity
8
0-6戸当り
6
CONTINUOUS
62
3
100
AcDbLine
10
1832.149000000000
20
1428.088000000000
30
0.0
11
1832.149000000000
21
1418.288000000000
31
0.0
0
LINE
5
820
100
AcDbEntity
8
0-6戸当り
6
CONTINUOUS
62
3
100
AcDbLine
10
1823.662000000000
20
1413.388000000000
30
0.0
11
1815.175000000000
21
1418.288000000000
31
0.0
0
LINE
5
821
100
AcDbEntity
8
0-6戸当り
6
CONTINUOUS
62
3
100
AcDbLine
10
1823.662000000000
20
1432.987000000000
30
0.0
11
1815.175000000000
21
1428.088000000000
31
0.0
0
LINE
5
822
100
AcDbEntity
8
0-6戸当り
6
CONTINUOUS
62
3
100
AcDbLine
10
1815.175000000000
20
1418.288000000000
30
0.0
11
1815.175000000000
21
1428.088000000000
31
0.0
0
LINE
5
823
100
AcDbEntity
8
0-5基準線
6
CENTER2
62
7
100
AcDbLine
10
1823.662000000000
20
1408.188000000000
30
0.0
11
1823.662000000000
21
1438.187000000000
31
0.0
0
LINE
5
824
100
AcDbEntity
8
0-5基準線
6
CENTER2
62
7
100
AcDbLine
10
1838.662000000000
20
1423.188000000000
30
0.0
11
1808.662000000000
21
1423.188000000000
31
0.0
0
LINE
5
825
100
AcDbEntity
8
0-6戸当り
6
CONTINUOUS
62
3
100
AcDbLine
10
1823.662000000000
20
1624.987000000000
30
0.0
11
1832.149000000000
21
1620.088000000000
31
0.0
0
LINE
5
826
100
AcDbEntity
8
0-6戸当り
6
CONTINUOUS
62
3
100
AcDbLine
10
1823.662000000000
20
1605.388000000000
30
0.0
11
1832.149000000000
21
1610.288000000000
31
0.0
0
LINE
5
827
100
AcDbEntity
8
0-6戸当り
6
CONTINUOUS
62
3
100
AcDbLine
10
1832.149000000000
20
1620.088000000000
30
0.0
11
1832.149000000000
21
1610.288000000000
31
0.0
0
LINE
5
828
100
AcDbEntity
8
0-6戸当り
6
CONTINUOUS
62
3
100
AcDbLine
10
1823.662000000000
20
1605.388000000000
30
0.0
11
1815.175000000000
21
1610.288000000000
31
0.0
0
LINE
5
829
100
AcDbEntity
8
0-6戸当り
6
CONTINUOUS
62
3
100
AcDbLine
10
1823.662000000000
20
1624.987000000000
30
0.0
11
1815.175000000000
21
1620.088000000000
31
0.0
0
LINE
5
82a
100
AcDbEntity
8
0-6戸当り
6
CONTINUOUS
62
3
100
AcDbLine
10
1815.175000000000
20
1610.288000000000
30
0.0
11
1815.175000000000
21
1620.088000000000
31
0.0
0
LINE
5
82b
100
AcDbEntity
8
0-5基準線
6
CENTER2
62
7
100
AcDbLine
10
1823.662000000000
20
1600.188000000000
30
0.0
11
1823.662000000000
21
1630.188000000000
31
0.0
0
LINE
5
82c
100
AcDbEntity
8
0-5基準線
6
CENTER2
62
7
100
AcDbLine
10
1838.662000000000
20
1615.188000000000
30
0.0
11
1808.662000000000
21
1615.188000000000
31
0.0
0
LINE
5
82d
100
AcDbEntity
8
0-6戸当り
6
CONTINUOUS
62
3
100
AcDbLine
10
973.662000000000
20
1624.987000000000
30
0.0
11
982.149000000000
21
1620.088000000000
31
0.0
0
LINE
5
82e
100
AcDbEntity
8
0-6戸当り
6
CONTINUOUS
62
3
100
AcDbLine
10
973.662000000000
20
1605.388000000000
30
0.0
11
982.149000000000
21
1610.288000000000
31
0.0
0
LINE
5
82f
100
AcDbEntity
8
0-6戸当り
6
CONTINUOUS
62
3
100
AcDbLine
10
982.149000000000
20
1620.088000000000
30
0.0
11
982.149000000000
21
1610.288000000000
31
0.0
0
LINE
5
830
100
AcDbEntity
8
0-6戸当り
6
CONTINUOUS
62
3
100
AcDbLine
10
973.662000000000
20
1605.388000000000
30
0.0
11
965.175000000000
21
1610.288000000000
31
0.0
0
LINE
5
831
100
AcDbEntity
8
0-6戸当り
6
CONTINUOUS
62
3
100
AcDbLine
10
973.662000000000
20
1624.987000000000
30
0.0
11
965.175000000000
21
1620.088000000000
31
0.0
0
LINE
5
832
100
AcDbEntity
8
0-6戸当り
6
CONTINUOUS
62
3
100
AcDbLine
10
965.175000000000
20
1610.288000000000
30
0.0
11
965.175000000000
21
1620.088000000000
31
0.0
0
LINE
5
833
100
AcDbEntity
8
0-5基準線
6
CENTER2
62
7
100
AcDbLine
10
973.662000000000
20
1600.188000000000
30
0.0
11
973.662000000000
21
1630.188000000000
31
0.0
0
LINE
5
834
100
AcDbEntity
8
0-5基準線
6
CENTER2
62
7
100
AcDbLine
10
988.662000000000
20
1615.188000000000
30
0.0
11
958.662000000000
21
1615.188000000000
31
0.0
0
LINE
5
835
100
AcDbEntity
8
0-6戸当り
6
CONTINUOUS
62
3
100
AcDbLine
10
1158.662000000000
20
1624.987000000000
30
0.0
11
1167.149000000000
21
1620.088000000000
31
0.0
0
LINE
5
836
100
AcDbEntity
8
0-6戸当り
6
CONTINUOUS
62
3
100
AcDbLine
10
1158.662000000000
20
1605.388000000000
30
0.0
11
1167.149000000000
21
1610.288000000000
31
0.0
0
LINE
5
837
100
AcDbEntity
8
0-6戸当り
6
CONTINUOUS
62
3
100
AcDbLine
10
1167.149000000000
20
1620.088000000000
30
0.0
11
1167.149000000000
21
1610.288000000000
31
0.0
0
LINE
5
838
100
AcDbEntity
8
0-6戸当り
6
CONTINUOUS
62
3
100
AcDbLine
10
1158.662000000000
20
1605.388000000000
30
0.0
11
1150.175000000000
21
1610.288000000000
31
0.0
0
LINE
5
839
100
AcDbEntity
8
0-6戸当り
6
CONTINUOUS
62
3
100
AcDbLine
10
1158.662000000000
20
1624.987000000000
30
0.0
11
1150.175000000000
21
1620.088000000000
31
0.0
0
LINE
5
83a
100
AcDbEntity
8
0-6戸当り
6
CONTINUOUS
62
3
100
AcDbLine
10
1150.175000000000
20
1610.288000000000
30
0.0
11
1150.175000000000
21
1620.088000000000
31
0.0
0
LINE
5
83b
100
AcDbEntity
8
0-5基準線
6
CENTER2
62
7
100
AcDbLine
10
1158.662000000000
20
1600.188000000000
30
0.0
11
1158.662000000000
21
1630.188000000000
31
0.0
0
LINE
5
83c
100
AcDbEntity
8
0-5基準線
6
CENTER2
62
7
100
AcDbLine
10
1173.662000000000
20
1615.188000000000
30
0.0
11
1143.662000000000
21
1615.188000000000
31
0.0
0
LINE
5
83d
100
AcDbEntity
8
0-6戸当り
6
CONTINUOUS
62
3
100
AcDbLine
10
1343.662000000000
20
1624.987000000000
30
0.0
11
1352.149000000000
21
1620.088000000000
31
0.0
0
LINE
5
83e
100
AcDbEntity
8
0-6戸当り
6
CONTINUOUS
62
3
100
AcDbLine
10
1343.662000000000
20
1605.388000000000
30
0.0
11
1352.149000000000
21
1610.288000000000
31
0.0
0
LINE
5
83f
100
AcDbEntity
8
0-6戸当り
6
CONTINUOUS
62
3
100
AcDbLine
10
1352.149000000000
20
1620.088000000000
30
0.0
11
1352.149000000000
21
1610.288000000000
31
0.0
0
LINE
5
840
100
AcDbEntity
8
0-6戸当り
6
CONTINUOUS
62
3
100
AcDbLine
10
1343.662000000000
20
1605.388000000000
30
0.0
11
1335.175000000000
21
1610.288000000000
31
0.0
0
LINE
5
841
100
AcDbEntity
8
0-6戸当り
6
CONTINUOUS
62
3
100
AcDbLine
10
1343.662000000000
20
1624.987000000000
30
0.0
11
1335.175000000000
21
1620.088000000000
31
0.0
0
LINE
5
842
100
AcDbEntity
8
0-6戸当り
6
CONTINUOUS
62
3
100
AcDbLine
10
1335.175000000000
20
1610.288000000000
30
0.0
11
1335.175000000000
21
1620.088000000000
31
0.0
0
LINE
5
843
100
AcDbEntity
8
0-5基準線
6
CENTER2
62
7
100
AcDbLine
10
1343.662000000000
20
1600.188000000000
30
0.0
11
1343.662000000000
21
1630.188000000000
31
0.0
0
LINE
5
844
100
AcDbEntity
8
0-5基準線
6
CENTER2
62
7
100
AcDbLine
10
1358.662000000000
20
1615.188000000000
30
0.0
11
1328.662000000000
21
1615.188000000000
31
0.0
0
LINE
5
845
100
AcDbEntity
8
0-6戸当り
6
CONTINUOUS
62
3
100
AcDbLine
10
1528.662000000000
20
1624.987000000000
30
0.0
11
1537.149000000000
21
1620.088000000000
31
0.0
0
LINE
5
846
100
AcDbEntity
8
0-6戸当り
6
CONTINUOUS
62
3
100
AcDbLine
10
1528.662000000000
20
1605.388000000000
30
0.0
11
1537.149000000000
21
1610.288000000000
31
0.0
0
LINE
5
847
100
AcDbEntity
8
0-6戸当り
6
CONTINUOUS
62
3
100
AcDbLine
10
1537.149000000000
20
1620.088000000000
30
0.0
11
1537.149000000000
21
1610.288000000000
31
0.0
0
LINE
5
848
100
AcDbEntity
8
0-6戸当り
6
CONTINUOUS
62
3
100
AcDbLine
10
1528.662000000000
20
1605.388000000000
30
0.0
11
1520.175000000000
21
1610.288000000000
31
0.0
0
LINE
5
849
100
AcDbEntity
8
0-6戸当り
6
CONTINUOUS
62
3
100
AcDbLine
10
1528.662000000000
20
1624.987000000000
30
0.0
11
1520.175000000000
21
1620.088000000000
31
0.0
0
LINE
5
84a
100
AcDbEntity
8
0-6戸当り
6
CONTINUOUS
62
3
100
AcDbLine
10
1520.175000000000
20
1610.288000000000
30
0.0
11
1520.175000000000
21
1620.088000000000
31
0.0
0
LINE
5
84b
100
AcDbEntity
8
0-5基準線
6
CENTER2
62
7
100
AcDbLine
10
1528.662000000000
20
1600.188000000000
30
0.0
11
1528.662000000000
21
1630.188000000000
31
0.0
0
LINE
5
84c
100
AcDbEntity
8
0-5基準線
6
CENTER2
62
7
100
AcDbLine
10
1543.662000000000
20
1615.188000000000
30
0.0
11
1513.662000000000
21
1615.188000000000
31
0.0
0
LINE
5
84d
100
AcDbEntity
8
0-6戸当り
6
CONTINUOUS
62
3
100
AcDbLine
10
1713.662000000000
20
1624.987000000000
30
0.0
11
1722.149000000000
21
1620.088000000000
31
0.0
0
LINE
5
84e
100
AcDbEntity
8
0-6戸当り
6
CONTINUOUS
62
3
100
AcDbLine
10
1713.662000000000
20
1605.388000000000
30
0.0
11
1722.149000000000
21
1610.288000000000
31
0.0
0
LINE
5
84f
100
AcDbEntity
8
0-6戸当り
6
CONTINUOUS
62
3
100
AcDbLine
10
1722.149000000000
20
1620.088000000000
30
0.0
11
1722.149000000000
21
1610.288000000000
31
0.0
0
LINE
5
850
100
AcDbEntity
8
0-6戸当り
6
CONTINUOUS
62
3
100
AcDbLine
10
1713.662000000000
20
1605.388000000000
30
0.0
11
1705.175000000000
21
1610.288000000000
31
0.0
0
LINE
5
851
100
AcDbEntity
8
0-6戸当り
6
CONTINUOUS
62
3
100
AcDbLine
10
1713.662000000000
20
1624.987000000000
30
0.0
11
1705.175000000000
21
1620.088000000000
31
0.0
0
LINE
5
852
100
AcDbEntity
8
0-6戸当り
6
CONTINUOUS
62
3
100
AcDbLine
10
1705.175000000000
20
1610.288000000000
30
0.0
11
1705.175000000000
21
1620.088000000000
31
0.0
0
LINE
5
853
100
AcDbEntity
8
0-5基準線
6
CENTER2
62
7
100
AcDbLine
10
1713.662000000000
20
1600.188000000000
30
0.0
11
1713.662000000000
21
1630.188000000000
31
0.0
0
LINE
5
854
100
AcDbEntity
8
0-5基準線
6
CENTER2
62
7
100
AcDbLine
10
1728.662000000000
20
1615.188000000000
30
0.0
11
1698.662000000000
21
1615.188000000000
31
0.0
0
LINE
5
855
100
AcDbEntity
8
0-9扉体
6
CONTINUOUS
62
4
100
AcDbLine
10
1148.662000000000
20
1590.188000000000
30
0.0
11
1311.162000000000
21
1590.188000000000
31
0.0
0
LINE
5
856
100
AcDbEntity
8
0-9扉体
6
CONTINUOUS
62
4
100
AcDbLine
10
1688.662000000000
20
1590.188000000000
30
0.0
11
1798.662000000000
21
1590.188000000000
31
0.0
0
LINE
5
857
100
AcDbEntity
8
0-8寸法
6
CONTINUOUS
62
4
100
AcDbLine
10
1713.662000000000
20
1993.116000000000
30
0.0
11
973.662000000000
21
1993.116000000000
31
0.0
0
LINE
5
858
100
AcDbEntity
8
0-8寸法
6
CONTINUOUS
62
4
100
AcDbLine
10
1713.662000000000
20
1993.116000000000
30
0.0
11
1694.344000000000
21
1987.940000000000
31
0.0
0
LINE
5
859
100
AcDbEntity
8
0-8寸法
6
CONTINUOUS
62
4
100
AcDbLine
10
1713.662000000000
20
1993.116000000000
30
0.0
11
1694.344000000000
21
1998.293000000000
31
0.0
0
LINE
5
85a
100
AcDbEntity
8
0-8寸法
6
CONTINUOUS
62
4
100
AcDbLine
10
973.662000000000
20
1993.116000000000
30
0.0
11
992.981000000000
21
1987.940000000000
31
0.0
0
LINE
5
85b
100
AcDbEntity
8
0-8寸法
6
CONTINUOUS
62
4
100
AcDbLine
10
973.662000000000
20
1993.116000000000
30
0.0
11
992.981000000000
21
1998.293000000000
31
0.0
0
LINE
5
85c
100
AcDbEntity
8
0-8寸法
6
CONTINUOUS
62
4
100
AcDbLine
10
1713.662000000000
20
2003.116000000000
30
0.0
11
1713.662000000000
21
1694.457000000000
31
0.0
0
LINE
5
85d
100
AcDbEntity
8
0-8寸法
6
CONTINUOUS
62
4
100
AcDbLine
10
973.662000000000
20
2003.116000000000
30
0.0
11
973.662000000000
21
1694.457000000000
31
0.0
0
LINE
5
85e
100
AcDbEntity
8
0-6戸当り
6
CONTINUOUS
62
6
100
AcDbLine
10
843.662000000000
20
1535.188000000000
30
0.0
11
888.662000000000
21
1535.188000000000
31
0.0
0
LINE
5
85f
100
AcDbEntity
8
0-6戸当り
6
CONTINUOUS
62
6
100
AcDbLine
10
1798.662000000000
20
1535.188000000000
30
0.0
11
1843.662000000000
21
1535.188000000000
31
0.0
0
LINE
5
860
100
AcDbEntity
8
0-6戸当り
6
CONTINUOUS
62
6
100
AcDbLine
10
888.662000000000
20
735.188000000000
30
0.0
11
843.662000000000
21
735.188000000000
31
0.0
0
LINE
5
861
100
AcDbEntity
8
0-6戸当り
6
CONTINUOUS
62
6
100
AcDbLine
10
1843.662000000000
20
735.188000000000
30
0.0
11
1798.662000000000
21
735.188000000000
31
0.0
0
POLYLINE
5
862
100
AcDbEntity
8
0-6戸当り
6
CONTINUOUS
62
  7
100
AcDb2dPolyline
66
1
10
0.0
20
0.0
30
0.0
70
0
0
VERTEX
5
863
100
AcDbEntity
8
0-6戸当り
6
CONTINUOUS
62
  7
100
AcDbVertex
100
AcDb2dVertex
10
2687.253000000000
20
1659.187000000000
30
0.0
0
VERTEX
5
864
100
AcDbEntity
8
0-6戸当り
6
CONTINUOUS
62
  7
100
AcDbVertex
100
AcDb2dVertex
10
2782.093000000000
20
1659.187000000000
30
0.0
0
VERTEX
5
865
100
AcDbEntity
8
0-6戸当り
6
CONTINUOUS
62
  7
100
AcDbVertex
100
AcDb2dVertex
10
2770.093000000000
20
1671.187000000000
30
0.0
0
SEQEND
5
866
100
AcDbEntity
8
0-6戸当り
0
LINE
5
867
100
AcDbEntity
8
0-6戸当り
6
CONTINUOUS
62
7
100
AcDbLine
10
2687.094000000000
20
1671.187000000000
30
0.0
11
2770.094000000000
21
1671.187000000000
31
0.0
0
LINE
5
868
100
AcDbEntity
8
0-6戸当り
6
CONTINUOUS
62
7
100
AcDbLine
10
2687.094000000000
20
1670.187000000000
30
0.0
11
2770.094000000000
21
1670.187000000000
31
0.0
0
LINE
5
869
100
AcDbEntity
8
0-6戸当り
6
CONTINUOUS
62
7
100
AcDbLine
10
2687.253000000000
20
1660.187000000000
30
0.0
11
2781.093000000000
21
1660.187000000000
31
0.0
0
LINE
5
86a
100
AcDbEntity
8
0-6戸当り
6
CONTINUOUS
62
7
100
AcDbLine
10
2770.094000000000
20
1670.187000000000
30
0.0
11
2770.979000000000
21
1670.187000000000
31
0.0
0
LINE
5
86b
100
AcDbEntity
8
0-9扉体
6
CONTINUOUS
62
7
100
AcDbLine
10
1311.162000000000
20
1585.188000000000
30
0.0
11
1311.162000000000
21
1635.188000000000
31
0.0
0
LINE
5
86c
100
AcDbEntity
8
0-9扉体
6
CONTINUOUS
62
7
100
AcDbLine
10
1376.162000000000
20
1635.188000000000
30
0.0
11
1376.162000000000
21
1585.188000000000
31
0.0
0
LINE
5
86d
100
AcDbEntity
8
F-F_J_ADD
6
HIDDEN
62
7
100
AcDbLine
10
1311.162000000000
20
1585.188000000000
30
0.0
11
1376.162000000000
21
1585.188000000000
31
0.0
0
LINE
5
86e
100
AcDbEntity
8
0-5基準線
6
CENTER2
62
7
100
AcDbLine
10
1293.211000000000
20
1617.688000000000
30
0.0
11
1394.114000000000
21
1617.688000000000
31
0.0
0
LINE
5
86f
100
AcDbEntity
8
0-9扉体
6
CONTINUOUS
62
4
100
AcDbLine
10
1376.162000000000
20
1590.188000000000
30
0.0
11
1538.662000000000
21
1590.188000000000
31
0.0
0
LINE
5
870
100
AcDbEntity
8
0-6戸当り
6
CONTINUOUS
62
7
100
AcDbLine
10
1154.662000000000
20
2404.647000000000
30
0.0
11
1154.662000000000
21
2499.647000000000
31
0.0
0
LINE
5
871
100
AcDbEntity
8
0-6戸当り
6
CONTINUOUS
62
7
100
AcDbLine
10
1142.662000000000
20
2404.647000000000
30
0.0
11
1142.662000000000
21
2487.663000000000
31
0.0
0
LINE
5
872
100
AcDbEntity
8
0-6戸当り
6
CONTINUOUS
62
7
100
AcDbLine
10
1142.662000000000
20
2404.647000000000
30
0.0
11
1142.662000000000
21
2487.663000000000
31
0.0
0
LINE
5
873
100
AcDbEntity
8
0-6戸当り
6
CONTINUOUS
62
7
100
AcDbLine
10
1143.662000000000
20
2404.647000000000
30
0.0
11
1143.662000000000
21
2487.663000000000
31
0.0
0
LINE
5
874
100
AcDbEntity
8
0-6戸当り
6
CONTINUOUS
62
7
100
AcDbLine
10
1153.662000000000
20
2404.647000000000
30
0.0
11
1153.662000000000
21
2498.694000000000
31
0.0
0
LINE
5
875
100
AcDbEntity
8
0-6戸当り
6
CONTINUOUS
62
7
100
AcDbLine
10
1143.662000000000
20
2487.663000000000
30
0.0
11
1143.662000000000
21
2488.706000000000
31
0.0
0
LINE
5
876
100
AcDbEntity
8
0-6戸当り
6
CONTINUOUS
62
7
100
AcDbLine
10
1154.563000000000
20
2499.595000000000
30
0.0
11
1142.644000000000
21
2487.677000000000
31
0.0
0
LINE
5
877
100
AcDbEntity
8
0-6戸当り
6
CONTINUOUS
62
7
100
AcDbLine
10
1004.662000000000
20
2404.647000000000
30
0.0
11
1004.662000000000
21
2499.647000000000
31
0.0
0
LINE
5
878
100
AcDbEntity
8
0-6戸当り
6
CONTINUOUS
62
7
100
AcDbLine
10
992.663000000000
20
2404.647000000000
30
0.0
11
992.663000000000
21
2487.663000000000
31
0.0
0
LINE
5
879
100
AcDbEntity
8
0-6戸当り
6
CONTINUOUS
62
7
100
AcDbLine
10
992.663000000000
20
2404.647000000000
30
0.0
11
992.663000000000
21
2487.663000000000
31
0.0
0
LINE
5
87a
100
AcDbEntity
8
0-6戸当り
6
CONTINUOUS
62
7
100
AcDbLine
10
993.663000000000
20
2404.647000000000
30
0.0
11
993.663000000000
21
2487.663000000000
31
0.0
0
LINE
5
87b
100
AcDbEntity
8
0-6戸当り
6
CONTINUOUS
62
7
100
AcDbLine
10
1003.662000000000
20
2404.647000000000
30
0.0
11
1003.662000000000
21
2498.694000000000
31
0.0
0
LINE
5
87c
100
AcDbEntity
8
0-6戸当り
6
CONTINUOUS
62
7
100
AcDbLine
10
993.663000000000
20
2487.663000000000
30
0.0
11
993.663000000000
21
2488.706000000000
31
0.0
0
LINE
5
87d
100
AcDbEntity
8
0-6戸当り
6
CONTINUOUS
62
7
100
AcDbLine
10
1004.563000000000
20
2499.595000000000
30
0.0
11
992.644000000000
21
2487.677000000000
31
0.0
0
CIRCLE
5
87e
100
AcDbEntity
8
0-9扉体
6
CONTINUOUS
62
3
100
AcDbCircle
10
2665.094000000000
20
1575.188000000000
30
0.0
40
4.000000000000
0
ARC
5
87f
100
AcDbEntity
8
0-9扉体
6
CONTINUOUS
62
7
100
AcDbCircle
10
2653.413000000000
20
1545.188000000000
30
0.0
40
12.419000000000
100
AcDbArc
50
162.412000000000
51
197.588000000000
0
ARC
5
880
100
AcDbEntity
8
0-9扉体
6
CONTINUOUS
62
7
100
AcDbCircle
10
2644.316000000000
20
1539.559000000000
30
0.0
40
3.323000000000
100
AcDbArc
50
145.615000000000
51
205.614000000000
0
ARC
5
881
100
AcDbEntity
8
0-9扉体
6
CONTINUOUS
62
7
100
AcDbCircle
10
2644.316000000000
20
1550.817000000000
30
0.0
40
3.323000000000
100
AcDbArc
50
154.386000000000
51
214.385000000000
0
ARC
5
882
100
AcDbEntity
8
0-9扉体
6
CONTINUOUS
62
3
100
AcDbCircle
10
2665.094000000000
20
695.188000000000
30
0.0
40
10.000000000000
100
AcDbArc
50
180.000000000000
51
450.000000000000
0
CIRCLE
5
883
100
AcDbEntity
8
0-9扉体
6
CONTINUOUS
62
3
100
AcDbCircle
10
2665.094000000000
20
695.188000000000
30
0.0
40
4.000000000000
0
ARC
5
884
100
AcDbEntity
8
0-9扉体
6
CONTINUOUS
62
7
100
AcDbCircle
10
2653.413000000000
20
725.188000000000
30
0.0
40
12.419000000000
100
AcDbArc
50
162.412000000000
51
197.588000000000
0
ARC
5
885
100
AcDbEntity
8
0-9扉体
6
CONTINUOUS
62
7
100
AcDbCircle
10
2644.316000000000
20
730.817000000000
30
0.0
40
3.323000000000
100
AcDbArc
50
154.386000000000
51
214.385000000000
0
ARC
5
886
100
AcDbEntity
8
0-9扉体
6
CONTINUOUS
62
7
100
AcDbCircle
10
2644.316000000000
20
719.559000000000
30
0.0
40
3.323000000000
100
AcDbArc
50
145.615000000000
51
205.614000000000
0
CIRCLE
5
887
100
AcDbEntity
8
0-9扉体
6
CONTINUOUS
62
4
100
AcDbCircle
10
2641.094000000000
20
1635.188000000000
30
0.0
40
8.000000000000
0
ARC
5
888
100
AcDbEntity
8
0-9扉体
6
CONTINUOUS
62
7
100
AcDbCircle
10
2619.094000000000
20
1591.336000000000
30
0.0
40
18.152000000000
100
AcDbArc
50
72.412000000000
51
107.588000000000
0
ARC
5
889
100
AcDbEntity
8
0-9扉体
6
CONTINUOUS
62
7
100
AcDbCircle
10
2627.321000000000
20
1604.631000000000
30
0.0
40
4.856000000000
100
AcDbArc
50
64.384000000000
51
124.384000000000
0
ARC
5
88a
100
AcDbEntity
8
0-9扉体
6
CONTINUOUS
62
7
100
AcDbCircle
10
2610.866000000000
20
1604.631000000000
30
0.0
40
4.856000000000
100
AcDbArc
50
55.616000000000
51
115.616000000000
0
ARC
5
88b
100
AcDbEntity
8
0-9扉体
6
CONTINUOUS
62
7
100
AcDbCircle
10
2619.094000000000
20
1589.339000000000
30
0.0
40
18.152000000000
100
AcDbArc
50
252.412000000000
51
287.588000000000
0
ARC
5
88c
100
AcDbEntity
8
0-9扉体
6
CONTINUOUS
62
7
100
AcDbCircle
10
2610.866000000000
20
1576.044000000000
30
0.0
40
4.856000000000
100
AcDbArc
50
244.384000000000
51
304.384000000000
0
ARC
5
88d
100
AcDbEntity
8
0-9扉体
6
CONTINUOUS
62
7
100
AcDbCircle
10
2627.321000000000
20
1576.044000000000
30
0.0
40
4.856000000000
100
AcDbArc
50
235.616000000000
51
295.616000000000
0
CIRCLE
5
88e
100
AcDbEntity
8
0-9扉体
6
CONTINUOUS
62
4
100
AcDbCircle
10
2641.094000000000
20
1635.188000000000
30
0.0
40
16.000000000000
0
ARC
5
88f
100
AcDbEntity
8
0-9扉体
6
CONTINUOUS
62
3
100
AcDbCircle
10
1783.662000000000
20
2382.647000000000
30
0.0
40
10.000000000000
100
AcDbArc
50
270.000000000000
51
540.000000000000
0
CIRCLE
5
890
100
AcDbEntity
8
0-9扉体
6
CONTINUOUS
62
3
100
AcDbCircle
10
1783.662000000000
20
2382.647000000000
30
0.0
40
4.000000000000
0
ARC
5
891
100
AcDbEntity
8
0-9扉体
6
CONTINUOUS
62
7
100
AcDbCircle
10
1753.662000000000
20
2370.966000000000
30
0.0
40
12.419000000000
100
AcDbArc
50
252.412000000000
51
287.588000000000
0
ARC
5
892
100
AcDbEntity
8
0-9扉体
6
CONTINUOUS
62
7
100
AcDbCircle
10
1748.033000000000
20
2361.869000000000
30
0.0
40
3.323000000000
100
AcDbArc
50
244.386000000000
51
304.385000000000
0
ARC
5
893
100
AcDbEntity
8
0-9扉体
6
CONTINUOUS
62
7
100
AcDbCircle
10
1759.291000000000
20
2361.869000000000
30
0.0
40
3.323000000000
100
AcDbArc
50
235.615000000000
51
295.614000000000
0
ARC
5
894
100
AcDbEntity
8
0-6戸当り
6
CONTINUOUS
62
7
100
AcDbCircle
10
2681.735000000000
20
655.188000000000
30
0.0
40
16.241000000000
100
AcDbArc
50
162.412000000000
51
197.588000000000
0
ARC
5
895
100
AcDbEntity
8
0-6戸当り
6
CONTINUOUS
62
7
100
AcDbCircle
10
2669.839000000000
20
662.548000000000
30
0.0
40
4.345000000000
100
AcDbArc
50
154.383000000000
51
214.383000000000
0
ARC
5
896
100
AcDbEntity
8
0-6戸当り
6
CONTINUOUS
62
7
100
AcDbCircle
10
2669.839000000000
20
647.826000000000
30
0.0
40
4.345000000000
100
AcDbArc
50
145.616000000000
51
205.616000000000
0
ARC
5
897
100
AcDbEntity
8
0-6戸当り
6
CONTINUOUS
62
2
100
AcDbCircle
10
2680.173000000000
20
655.188000000000
30
0.0
40
20.000000000000
100
AcDbArc
50
165.522000000000
51
194.478000000000
0
CIRCLE
5
898
100
AcDbEntity
8
0-6戸当り
6
CONTINUOUS
62
3
100
AcDbCircle
10
1823.662000000000
20
655.188000000000
30
0.0
40
11.000000000000
0
CIRCLE
5
899
100
AcDbEntity
8
0-6戸当り
6
CONTINUOUS
62
3
100
AcDbCircle
10
1823.662000000000
20
655.188000000000
30
0.0
40
5.000000000000
0
CIRCLE
5
89a
100
AcDbEntity
8
0-6戸当り
6
CONTINUOUS
62
3
100
AcDbCircle
10
1823.662000000000
20
655.188000000000
30
0.0
40
4.000000000000
0
CIRCLE
5
89b
100
AcDbEntity
8
0-6戸当り
6
CONTINUOUS
62
3
100
AcDbCircle
10
1823.662000000000
20
655.188000000000
30
0.0
40
8.487000000000
0
CIRCLE
5
89c
100
AcDbEntity
8
0-6戸当り
6
CONTINUOUS
62
3
100
AcDbCircle
10
863.662000000000
20
655.188000000000
30
0.0
40
11.000000000000
0
CIRCLE
5
89d
100
AcDbEntity
8
0-6戸当り
6
CONTINUOUS
62
3
100
AcDbCircle
10
863.662000000000
20
655.188000000000
30
0.0
40
5.000000000000
0
CIRCLE
5
89e
100
AcDbEntity
8
0-6戸当り
6
CONTINUOUS
62
3
100
AcDbCircle
10
863.662000000000
20
655.188000000000
30
0.0
40
4.000000000000
0
CIRCLE
5
89f
100
AcDbEntity
8
0-6戸当り
6
CONTINUOUS
62
3
100
AcDbCircle
10
863.662000000000
20
655.188000000000
30
0.0
40
8.487000000000
0
ARC
5
8a0
100
AcDbEntity
8
0-9扉体
6
CONTINUOUS
62
3
100
AcDbCircle
10
903.662000000000
20
2382.647000000000
30
0.0
40
10.000000000000
100
AcDbArc
50
90.000000000000
51
270.000000000000
0
ARC
5
8a1
100
AcDbEntity
8
0-6戸当り
6
CONTINUOUS
62
7
100
AcDbCircle
10
1823.662000000000
20
2399.288000000000
30
0.0
40
16.241000000000
100
AcDbArc
50
252.412000000000
51
287.588000000000
0
ARC
5
8a2
100
AcDbEntity
8
0-6戸当り
6
CONTINUOUS
62
7
100
AcDbCircle
10
1816.302000000000
20
2387.392000000000
30
0.0
40
4.345000000000
100
AcDbArc
50
244.383000000000
51
304.383000000000
0
ARC
5
8a3
100
AcDbEntity
8
0-6戸当り
6
CONTINUOUS
62
7
100
AcDbCircle
10
1831.023000000000
20
2387.392000000000
30
0.0
40
4.345000000000
100
AcDbArc
50
235.616000000000
51
295.616000000000
0
ARC
5
8a4
100
AcDbEntity
8
0-6戸当り
6
CONTINUOUS
62
2
100
AcDbCircle
10
1823.662000000000
20
2397.726000000000
30
0.0
40
20.000000000000
100
AcDbArc
50
255.522000000000
51
284.478000000000
0
ARC
5
8a5
100
AcDbEntity
8
0-6戸当り
6
CONTINUOUS
62
7
100
AcDbCircle
10
863.662000000000
20
2399.288000000000
30
0.0
40
16.241000000000
100
AcDbArc
50
252.412000000000
51
287.588000000000
0
ARC
5
8a6
100
AcDbEntity
8
0-6戸当り
6
CONTINUOUS
62
7
100
AcDbCircle
10
871.023000000000
20
2387.392000000000
30
0.0
40
4.345000000000
100
AcDbArc
50
235.617000000000
51
295.617000000000
0
ARC
5
8a7
100
AcDbEntity
8
0-6戸当り
6
CONTINUOUS
62
7
100
AcDbCircle
10
856.301000000000
20
2387.392000000000
30
0.0
40
4.345000000000
100
AcDbArc
50
244.384000000000
51
304.384000000000
0
ARC
5
8a8
100
AcDbEntity
8
0-6戸当り
6
CONTINUOUS
62
2
100
AcDbCircle
10
863.662000000000
20
2397.726000000000
30
0.0
40
20.000000000000
100
AcDbArc
50
255.522000000000
51
284.478000000000
0
ARC
5
8a9
100
AcDbEntity
8
0-9扉体
6
CONTINUOUS
62
6
100
AcDbCircle
10
2603.594000000000
20
1573.188000000000
30
0.0
40
6.000000000000
100
AcDbArc
50
90.000000000000
51
180.000000000000
0
ARC
5
8aa
100
AcDbEntity
8
0-9扉体
6
CONTINUOUS
62
6
100
AcDbCircle
10
2594.594000000000
20
1523.188000000000
30
0.0
40
3.000000000000
100
AcDbArc
50
270.000000000000
51
360.000000000000
0
ARC
5
8ab
100
AcDbEntity
8
0-9扉体
6
CONTINUOUS
62
6
100
AcDbCircle
10
2603.594000000000
20
1108.188000000000
30
0.0
40
6.000000000000
100
AcDbArc
50
90.000000000000
51
180.000000000000
0
ARC
5
8ac
100
AcDbEntity
8
0-9扉体
6
CONTINUOUS
62
6
100
AcDbCircle
10
2594.594000000000
20
1058.188000000000
30
0.0
40
3.000000000000
100
AcDbArc
50
270.000000000000
51
360.000000000000
0
ARC
5
8ad
100
AcDbEntity
8
0-9扉体
6
CONTINUOUS
62
6
100
AcDbCircle
10
1781.662000000000
20
2321.147000000000
30
0.0
40
6.000000000000
100
AcDbArc
50
270.000000000000
51
360.000000000000
0
ARC
5
8ae
100
AcDbEntity
8
0-9扉体
6
CONTINUOUS
62
6
100
AcDbCircle
10
1731.662000000000
20
2312.147000000000
30
0.0
40
3.000000000000
100
AcDbArc
50
90.000000000000
51
180.000000000000
0
CIRCLE
5
8af
100
AcDbEntity
8
0-6戸当り
6
CONTINUOUS
62
3
100
AcDbCircle
10
1058.662000000000
20
655.188000000000
30
0.0
40
11.000000000000
0
CIRCLE
5
8b0
100
AcDbEntity
8
0-6戸当り
6
CONTINUOUS
62
3
100
AcDbCircle
10
1058.662000000000
20
655.188000000000
30
0.0
40
5.000000000000
0
CIRCLE
5
8b1
100
AcDbEntity
8
0-6戸当り
6
CONTINUOUS
62
3
100
AcDbCircle
10
1058.662000000000
20
655.188000000000
30
0.0
40
4.000000000000
0
CIRCLE
5
8b2
100
AcDbEntity
8
0-6戸当り
6
CONTINUOUS
62
3
100
AcDbCircle
10
1058.662000000000
20
655.188000000000
30
0.0
40
8.487000000000
0
CIRCLE
5
8b3
100
AcDbEntity
8
0-6戸当り
6
CONTINUOUS
62
3
100
AcDbCircle
10
1248.662000000000
20
655.188000000000
30
0.0
40
11.000000000000
0
CIRCLE
5
8b4
100
AcDbEntity
8
0-6戸当り
6
CONTINUOUS
62
3
100
AcDbCircle
10
1248.662000000000
20
655.188000000000
30
0.0
40
5.000000000000
0
CIRCLE
5
8b5
100
AcDbEntity
8
0-6戸当り
6
CONTINUOUS
62
3
100
AcDbCircle
10
1248.662000000000
20
655.188000000000
30
0.0
40
4.000000000000
0
CIRCLE
5
8b6
100
AcDbEntity
8
0-6戸当り
6
CONTINUOUS
62
3
100
AcDbCircle
10
1248.662000000000
20
655.188000000000
30
0.0
40
8.487000000000
0
CIRCLE
5
8b7
100
AcDbEntity
8
0-6戸当り
6
CONTINUOUS
62
3
100
AcDbCircle
10
1438.662000000000
20
655.188000000000
30
0.0
40
11.000000000000
0
CIRCLE
5
8b8
100
AcDbEntity
8
0-6戸当り
6
CONTINUOUS
62
3
100
AcDbCircle
10
1438.662000000000
20
655.188000000000
30
0.0
40
5.000000000000
0
CIRCLE
5
8b9
100
AcDbEntity
8
0-6戸当り
6
CONTINUOUS
62
3
100
AcDbCircle
10
1438.662000000000
20
655.188000000000
30
0.0
40
4.000000000000
0
CIRCLE
5
8ba
100
AcDbEntity
8
0-6戸当り
6
CONTINUOUS
62
3
100
AcDbCircle
10
1438.662000000000
20
655.188000000000
30
0.0
40
8.487000000000
0
CIRCLE
5
8bb
100
AcDbEntity
8
0-6戸当り
6
CONTINUOUS
62
3
100
AcDbCircle
10
1628.662000000000
20
655.188000000000
30
0.0
40
11.000000000000
0
CIRCLE
5
8bc
100
AcDbEntity
8
0-6戸当り
6
CONTINUOUS
62
3
100
AcDbCircle
10
1628.662000000000
20
655.188000000000
30
0.0
40
5.000000000000
0
CIRCLE
5
8bd
100
AcDbEntity
8
0-6戸当り
6
CONTINUOUS
62
3
100
AcDbCircle
10
1628.662000000000
20
655.188000000000
30
0.0
40
4.000000000000
0
CIRCLE
5
8be
100
AcDbEntity
8
0-6戸当り
6
CONTINUOUS
62
3
100
AcDbCircle
10
1628.662000000000
20
655.188000000000
30
0.0
40
8.487000000000
0
ARC
5
8bf
100
AcDbEntity
8
0-9扉体
6
CONTINUOUS
62
6
100
AcDbCircle
10
2603.594000000000
20
697.188000000000
30
0.0
40
6.000000000000
100
AcDbArc
50
180.000000000000
51
270.000000000000
0
ARC
5
8c0
100
AcDbEntity
8
0-9扉体
6
CONTINUOUS
62
6
100
AcDbCircle
10
2594.594000000000
20
747.188000000000
30
0.0
40
3.000000000000
100
AcDbArc
50
0.000000000000
51
90.000000000000
0
CIRCLE
5
8c1
100
AcDbEntity
8
0-6戸当り
6
CONTINUOUS
62
7
100
AcDbCircle
10
1148.662000000000
20
1665.188000000000
30
0.0
40
9.500000000000
0
CIRCLE
5
8c2
100
AcDbEntity
8
0-6戸当り
6
CONTINUOUS
62
6
100
AcDbCircle
10
1148.662000000000
20
1665.188000000000
30
0.0
40
6.000000000000
0
CIRCLE
5
8c3
100
AcDbEntity
8
0-6戸当り
6
CONTINUOUS
62
6
100
AcDbCircle
10
1148.662000000000
20
1665.188000000000
30
0.0
40
5.000000000000
0
CIRCLE
5
8c4
100
AcDbEntity
8
0-6戸当り
6
CONTINUOUS
62
6
100
AcDbCircle
10
1148.662000000000
20
1665.188000000000
30
0.0
40
13.000000000000
0
CIRCLE
5
8c5
100
AcDbEntity
8
0-6戸当り
6
CONTINUOUS
62
7
100
AcDbCircle
10
998.662000000000
20
1665.188000000000
30
0.0
40
9.500000000000
0
CIRCLE
5
8c6
100
AcDbEntity
8
0-6戸当り
6
CONTINUOUS
62
6
100
AcDbCircle
10
998.662000000000
20
1665.188000000000
30
0.0
40
6.000000000000
0
CIRCLE
5
8c7
100
AcDbEntity
8
0-6戸当り
6
CONTINUOUS
62
6
100
AcDbCircle
10
998.662000000000
20
1665.188000000000
30
0.0
40
5.000000000000
0
CIRCLE
5
8c8
100
AcDbEntity
8
0-6戸当り
6
CONTINUOUS
62
6
100
AcDbCircle
10
998.662000000000
20
1665.188000000000
30
0.0
40
13.000000000000
0
ARC
5
8c9
100
AcDbEntity
8
0-9扉体
6
CONTINUOUS
62
7
100
AcDbCircle
10
1013.912000000000
20
1595.768000000000
30
0.0
40
13.720000000000
100
AcDbArc
50
69.744000000000
51
110.256000000000
0
ARC
5
8ca
100
AcDbEntity
8
0-9扉体
6
CONTINUOUS
62
7
100
AcDbCircle
10
1023.412000000000
20
1595.768000000000
30
0.0
40
13.720000000000
100
AcDbArc
50
69.744000000000
51
110.256000000000
0
ARC
5
8cb
100
AcDbEntity
8
0-9扉体
6
CONTINUOUS
62
7
100
AcDbCircle
10
1133.412000000000
20
1595.768000000000
30
0.0
40
13.720000000000
100
AcDbArc
50
69.744000000000
51
110.256000000000
0
ARC
5
8cc
100
AcDbEntity
8
0-9扉体
6
CONTINUOUS
62
7
100
AcDbCircle
10
1123.912000000000
20
1595.768000000000
30
0.0
40
13.720000000000
100
AcDbArc
50
69.744000000000
51
110.256000000000
0
CIRCLE
5
8cd
100
AcDbEntity
8
0-6戸当り
6
CONTINUOUS
62
7
100
AcDbCircle
10
1538.662000000000
20
1665.188000000000
30
0.0
40
9.500000000000
0
CIRCLE
5
8ce
100
AcDbEntity
8
0-6戸当り
6
CONTINUOUS
62
6
100
AcDbCircle
10
1538.662000000000
20
1665.188000000000
30
0.0
40
6.000000000000
0
CIRCLE
5
8cf
100
AcDbEntity
8
0-6戸当り
6
CONTINUOUS
62
6
100
AcDbCircle
10
1538.662000000000
20
1665.188000000000
30
0.0
40
5.000000000000
0
CIRCLE
5
8d0
100
AcDbEntity
8
0-6戸当り
6
CONTINUOUS
62
6
100
AcDbCircle
10
1538.662000000000
20
1665.188000000000
30
0.0
40
13.000000000000
0
CIRCLE
5
8d1
100
AcDbEntity
8
0-6戸当り
6
CONTINUOUS
62
7
100
AcDbCircle
10
1688.662000000000
20
1665.188000000000
30
0.0
40
9.500000000000
0
CIRCLE
5
8d2
100
AcDbEntity
8
0-6戸当り
6
CONTINUOUS
62
6
100
AcDbCircle
10
1688.662000000000
20
1665.188000000000
30
0.0
40
6.000000000000
0
CIRCLE
5
8d3
100
AcDbEntity
8
0-6戸当り
6
CONTINUOUS
62
6
100
AcDbCircle
10
1688.662000000000
20
1665.188000000000
30
0.0
40
5.000000000000
0
CIRCLE
5
8d4
100
AcDbEntity
8
0-6戸当り
6
CONTINUOUS
62
6
100
AcDbCircle
10
1688.662000000000
20
1665.188000000000
30
0.0
40
13.000000000000
0
ARC
5
8d5
100
AcDbEntity
8
0-9扉体
6
CONTINUOUS
62
7
100
AcDbCircle
10
1553.912000000000
20
1595.768000000000
30
0.0
40
13.720000000000
100
AcDbArc
50
69.744000000000
51
110.256000000000
0
ARC
5
8d6
100
AcDbEntity
8
0-9扉体
6
CONTINUOUS
62
7
100
AcDbCircle
10
1563.413000000000
20
1595.768000000000
30
0.0
40
13.720000000000
100
AcDbArc
50
69.744000000000
51
110.256000000000
0
ARC
5
8d7
100
AcDbEntity
8
0-9扉体
6
CONTINUOUS
62
7
100
AcDbCircle
10
1673.412000000000
20
1595.768000000000
30
0.0
40
13.720000000000
100
AcDbArc
50
69.744000000000
51
110.256000000000
0
ARC
5
8d8
100
AcDbEntity
8
0-9扉体
6
CONTINUOUS
62
7
100
AcDbCircle
10
1663.912000000000
20
1595.768000000000
30
0.0
40
13.720000000000
100
AcDbArc
50
69.744000000000
51
110.256000000000
0
CIRCLE
5
8d9
100
AcDbEntity
8
0-9扉体
6
CONTINUOUS
62
7
100
AcDbCircle
10
1018.662000000000
20
2336.647000000000
30
0.0
40
9.500000000000
0
CIRCLE
5
8da
100
AcDbEntity
8
0-9扉体
6
CONTINUOUS
62
6
100
AcDbCircle
10
1018.662000000000
20
2336.647000000000
30
0.0
40
6.000000000000
0
CIRCLE
5
8db
100
AcDbEntity
8
0-9扉体
6
CONTINUOUS
62
6
100
AcDbCircle
10
1018.662000000000
20
2336.647000000000
30
0.0
40
5.000000000000
0
CIRCLE
5
8dc
100
AcDbEntity
8
0-9扉体
6
CONTINUOUS
62
2
100
AcDbCircle
10
1018.662000000000
20
2336.647000000000
30
0.0
40
13.000000000000
0
CIRCLE
5
8dd
100
AcDbEntity
8
0-9扉体
6
CONTINUOUS
62
7
100
AcDbCircle
10
1128.662000000000
20
2336.647000000000
30
0.0
40
9.500000000000
0
CIRCLE
5
8de
100
AcDbEntity
8
0-9扉体
6
CONTINUOUS
62
6
100
AcDbCircle
10
1128.662000000000
20
2336.647000000000
30
0.0
40
6.000000000000
0
CIRCLE
5
8df
100
AcDbEntity
8
0-9扉体
6
CONTINUOUS
62
6
100
AcDbCircle
10
1128.662000000000
20
2336.647000000000
30
0.0
40
5.000000000000
0
CIRCLE
5
8e0
100
AcDbEntity
8
0-9扉体
6
CONTINUOUS
62
2
100
AcDbCircle
10
1128.662000000000
20
2336.647000000000
30
0.0
40
13.000000000000
0
CIRCLE
5
8e1
100
AcDbEntity
8
0-6戸当り
6
CONTINUOUS
62
3
100
AcDbCircle
10
863.662000000000
20
847.188000000000
30
0.0
40
11.000000000000
0
CIRCLE
5
8e2
100
AcDbEntity
8
0-6戸当り
6
CONTINUOUS
62
3
100
AcDbCircle
10
863.662000000000
20
847.188000000000
30
0.0
40
5.000000000000
0
CIRCLE
5
8e3
100
AcDbEntity
8
0-6戸当り
6
CONTINUOUS
62
3
100
AcDbCircle
10
863.662000000000
20
847.188000000000
30
0.0
40
4.000000000000
0
CIRCLE
5
8e4
100
AcDbEntity
8
0-6戸当り
6
CONTINUOUS
62
3
100
AcDbCircle
10
863.662000000000
20
847.188000000000
30
0.0
40
8.487000000000
0
CIRCLE
5
8e5
100
AcDbEntity
8
0-6戸当り
6
CONTINUOUS
62
3
100
AcDbCircle
10
863.662000000000
20
1039.188000000000
30
0.0
40
11.000000000000
0
CIRCLE
5
8e6
100
AcDbEntity
8
0-6戸当り
6
CONTINUOUS
62
3
100
AcDbCircle
10
863.662000000000
20
1039.188000000000
30
0.0
40
5.000000000000
0
CIRCLE
5
8e7
100
AcDbEntity
8
0-6戸当り
6
CONTINUOUS
62
3
100
AcDbCircle
10
863.662000000000
20
1039.188000000000
30
0.0
40
4.000000000000
0
CIRCLE
5
8e8
100
AcDbEntity
8
0-6戸当り
6
CONTINUOUS
62
3
100
AcDbCircle
10
863.662000000000
20
1039.188000000000
30
0.0
40
8.487000000000
0
CIRCLE
5
8e9
100
AcDbEntity
8
0-6戸当り
6
CONTINUOUS
62
3
100
AcDbCircle
10
863.662000000000
20
1231.188000000000
30
0.0
40
11.000000000000
0
CIRCLE
5
8ea
100
AcDbEntity
8
0-6戸当り
6
CONTINUOUS
62
3
100
AcDbCircle
10
863.662000000000
20
1231.188000000000
30
0.0
40
5.000000000000
0
CIRCLE
5
8eb
100
AcDbEntity
8
0-6戸当り
6
CONTINUOUS
62
3
100
AcDbCircle
10
863.662000000000
20
1231.188000000000
30
0.0
40
4.000000000000
0
CIRCLE
5
8ec
100
AcDbEntity
8
0-6戸当り
6
CONTINUOUS
62
3
100
AcDbCircle
10
863.662000000000
20
1231.188000000000
30
0.0
40
8.487000000000
0
CIRCLE
5
8ed
100
AcDbEntity
8
0-6戸当り
6
CONTINUOUS
62
3
100
AcDbCircle
10
863.662000000000
20
1423.188000000000
30
0.0
40
11.000000000000
0
CIRCLE
5
8ee
100
AcDbEntity
8
0-6戸当り
6
CONTINUOUS
62
3
100
AcDbCircle
10
863.662000000000
20
1423.188000000000
30
0.0
40
5.000000000000
0
CIRCLE
5
8ef
100
AcDbEntity
8
0-6戸当り
6
CONTINUOUS
62
3
100
AcDbCircle
10
863.662000000000
20
1423.188000000000
30
0.0
40
4.000000000000
0
CIRCLE
5
8f0
100
AcDbEntity
8
0-6戸当り
6
CONTINUOUS
62
3
100
AcDbCircle
10
863.662000000000
20
1423.188000000000
30
0.0
40
8.487000000000
0
CIRCLE
5
8f1
100
AcDbEntity
8
0-6戸当り
6
CONTINUOUS
62
3
100
AcDbCircle
10
863.662000000000
20
1615.188000000000
30
0.0
40
11.000000000000
0
CIRCLE
5
8f2
100
AcDbEntity
8
0-6戸当り
6
CONTINUOUS
62
3
100
AcDbCircle
10
863.662000000000
20
1615.188000000000
30
0.0
40
5.000000000000
0
CIRCLE
5
8f3
100
AcDbEntity
8
0-6戸当り
6
CONTINUOUS
62
3
100
AcDbCircle
10
863.662000000000
20
1615.188000000000
30
0.0
40
4.000000000000
0
CIRCLE
5
8f4
100
AcDbEntity
8
0-6戸当り
6
CONTINUOUS
62
3
100
AcDbCircle
10
863.662000000000
20
1615.188000000000
30
0.0
40
8.487000000000
0
CIRCLE
5
8f5
100
AcDbEntity
8
0-6戸当り
6
CONTINUOUS
62
3
100
AcDbCircle
10
1823.662000000000
20
847.188000000000
30
0.0
40
11.000000000000
0
CIRCLE
5
8f6
100
AcDbEntity
8
0-6戸当り
6
CONTINUOUS
62
3
100
AcDbCircle
10
1823.662000000000
20
847.188000000000
30
0.0
40
5.000000000000
0
CIRCLE
5
8f7
100
AcDbEntity
8
0-6戸当り
6
CONTINUOUS
62
3
100
AcDbCircle
10
1823.662000000000
20
847.188000000000
30
0.0
40
4.000000000000
0
CIRCLE
5
8f8
100
AcDbEntity
8
0-6戸当り
6
CONTINUOUS
62
3
100
AcDbCircle
10
1823.662000000000
20
847.188000000000
30
0.0
40
8.487000000000
0
CIRCLE
5
8f9
100
AcDbEntity
8
0-6戸当り
6
CONTINUOUS
62
3
100
AcDbCircle
10
1823.662000000000
20
1039.188000000000
30
0.0
40
11.000000000000
0
CIRCLE
5
8fa
100
AcDbEntity
8
0-6戸当り
6
CONTINUOUS
62
3
100
AcDbCircle
10
1823.662000000000
20
1039.188000000000
30
0.0
40
5.000000000000
0
CIRCLE
5
8fb
100
AcDbEntity
8
0-6戸当り
6
CONTINUOUS
62
3
100
AcDbCircle
10
1823.662000000000
20
1039.188000000000
30
0.0
40
4.000000000000
0
CIRCLE
5
8fc
100
AcDbEntity
8
0-6戸当り
6
CONTINUOUS
62
3
100
AcDbCircle
10
1823.662000000000
20
1039.188000000000
30
0.0
40
8.487000000000
0
CIRCLE
5
8fd
100
AcDbEntity
8
0-6戸当り
6
CONTINUOUS
62
3
100
AcDbCircle
10
1823.662000000000
20
1231.188000000000
30
0.0
40
11.000000000000
0
CIRCLE
5
8fe
100
AcDbEntity
8
0-6戸当り
6
CONTINUOUS
62
3
100
AcDbCircle
10
1823.662000000000
20
1231.188000000000
30
0.0
40
5.000000000000
0
CIRCLE
5
8ff
100
AcDbEntity
8
0-6戸当り
6
CONTINUOUS
62
3
100
AcDbCircle
10
1823.662000000000
20
1231.188000000000
30
0.0
40
4.000000000000
0
CIRCLE
5
900
100
AcDbEntity
8
0-6戸当り
6
CONTINUOUS
62
3
100
AcDbCircle
10
1823.662000000000
20
1231.188000000000
30
0.0
40
8.487000000000
0
CIRCLE
5
901
100
AcDbEntity
8
0-6戸当り
6
CONTINUOUS
62
3
100
AcDbCircle
10
1823.662000000000
20
1423.188000000000
30
0.0
40
11.000000000000
0
CIRCLE
5
902
100
AcDbEntity
8
0-6戸当り
6
CONTINUOUS
62
3
100
AcDbCircle
10
1823.662000000000
20
1423.188000000000
30
0.0
40
5.000000000000
0
CIRCLE
5
903
100
AcDbEntity
8
0-6戸当り
6
CONTINUOUS
62
3
100
AcDbCircle
10
1823.662000000000
20
1423.188000000000
30
0.0
40
4.000000000000
0
CIRCLE
5
904
100
AcDbEntity
8
0-6戸当り
6
CONTINUOUS
62
3
100
AcDbCircle
10
1823.662000000000
20
1423.188000000000
30
0.0
40
8.487000000000
0
CIRCLE
5
905
100
AcDbEntity
8
0-6戸当り
6
CONTINUOUS
62
3
100
AcDbCircle
10
1823.662000000000
20
1615.188000000000
30
0.0
40
11.000000000000
0
CIRCLE
5
906
100
AcDbEntity
8
0-6戸当り
6
CONTINUOUS
62
3
100
AcDbCircle
10
1823.662000000000
20
1615.188000000000
30
0.0
40
5.000000000000
0
CIRCLE
5
907
100
AcDbEntity
8
0-6戸当り
6
CONTINUOUS
62
3
100
AcDbCircle
10
1823.662000000000
20
1615.188000000000
30
0.0
40
4.000000000000
0
CIRCLE
5
908
100
AcDbEntity
8
0-6戸当り
6
CONTINUOUS
62
3
100
AcDbCircle
10
1823.662000000000
20
1615.188000000000
30
0.0
40
8.487000000000
0
CIRCLE
5
909
100
AcDbEntity
8
0-6戸当り
6
CONTINUOUS
62
3
100
AcDbCircle
10
973.662000000000
20
1615.188000000000
30
0.0
40
11.000000000000
0
CIRCLE
5
90a
100
AcDbEntity
8
0-6戸当り
6
CONTINUOUS
62
3
100
AcDbCircle
10
973.662000000000
20
1615.188000000000
30
0.0
40
5.000000000000
0
CIRCLE
5
90b
100
AcDbEntity
8
0-6戸当り
6
CONTINUOUS
62
3
100
AcDbCircle
10
973.662000000000
20
1615.188000000000
30
0.0
40
4.000000000000
0
CIRCLE
5
90c
100
AcDbEntity
8
0-6戸当り
6
CONTINUOUS
62
3
100
AcDbCircle
10
973.662000000000
20
1615.188000000000
30
0.0
40
8.487000000000
0
CIRCLE
5
90d
100
AcDbEntity
8
0-6戸当り
6
CONTINUOUS
62
3
100
AcDbCircle
10
1158.662000000000
20
1615.188000000000
30
0.0
40
11.000000000000
0
CIRCLE
5
90e
100
AcDbEntity
8
0-6戸当り
6
CONTINUOUS
62
3
100
AcDbCircle
10
1158.662000000000
20
1615.188000000000
30
0.0
40
5.000000000000
0
CIRCLE
5
90f
100
AcDbEntity
8
0-6戸当り
6
CONTINUOUS
62
3
100
AcDbCircle
10
1158.662000000000
20
1615.188000000000
30
0.0
40
4.000000000000
0
CIRCLE
5
910
100
AcDbEntity
8
0-6戸当り
6
CONTINUOUS
62
3
100
AcDbCircle
10
1158.662000000000
20
1615.188000000000
30
0.0
40
8.487000000000
0
CIRCLE
5
911
100
AcDbEntity
8
0-6戸当り
6
CONTINUOUS
62
3
100
AcDbCircle
10
1343.662000000000
20
1615.188000000000
30
0.0
40
11.000000000000
0
CIRCLE
5
912
100
AcDbEntity
8
0-6戸当り
6
CONTINUOUS
62
3
100
AcDbCircle
10
1343.662000000000
20
1615.188000000000
30
0.0
40
5.000000000000
0
CIRCLE
5
913
100
AcDbEntity
8
0-6戸当り
6
CONTINUOUS
62
3
100
AcDbCircle
10
1343.662000000000
20
1615.188000000000
30
0.0
40
4.000000000000
0
CIRCLE
5
914
100
AcDbEntity
8
0-6戸当り
6
CONTINUOUS
62
3
100
AcDbCircle
10
1343.662000000000
20
1615.188000000000
30
0.0
40
8.487000000000
0
CIRCLE
5
915
100
AcDbEntity
8
0-6戸当り
6
CONTINUOUS
62
3
100
AcDbCircle
10
1528.662000000000
20
1615.188000000000
30
0.0
40
11.000000000000
0
CIRCLE
5
916
100
AcDbEntity
8
0-6戸当り
6
CONTINUOUS
62
3
100
AcDbCircle
10
1528.662000000000
20
1615.188000000000
30
0.0
40
5.000000000000
0
CIRCLE
5
917
100
AcDbEntity
8
0-6戸当り
6
CONTINUOUS
62
3
100
AcDbCircle
10
1528.662000000000
20
1615.188000000000
30
0.0
40
4.000000000000
0
CIRCLE
5
918
100
AcDbEntity
8
0-6戸当り
6
CONTINUOUS
62
3
100
AcDbCircle
10
1528.662000000000
20
1615.188000000000
30
0.0
40
8.487000000000
0
CIRCLE
5
919
100
AcDbEntity
8
0-6戸当り
6
CONTINUOUS
62
3
100
AcDbCircle
10
1713.662000000000
20
1615.188000000000
30
0.0
40
11.000000000000
0
CIRCLE
5
91a
100
AcDbEntity
8
0-6戸当り
6
CONTINUOUS
62
3
100
AcDbCircle
10
1713.662000000000
20
1615.188000000000
30
0.0
40
5.000000000000
0
CIRCLE
5
91b
100
AcDbEntity
8
0-6戸当り
6
CONTINUOUS
62
3
100
AcDbCircle
10
1713.662000000000
20
1615.188000000000
30
0.0
40
4.000000000000
0
CIRCLE
5
91c
100
AcDbEntity
8
0-6戸当り
6
CONTINUOUS
62
3
100
AcDbCircle
10
1713.662000000000
20
1615.188000000000
30
0.0
40
8.487000000000
0
CIRCLE
5
91d
100
AcDbEntity
8
0-9扉体
6
CONTINUOUS
62
7
100
AcDbCircle
10
1343.662000000000
20
1617.688000000000
30
0.0
40
15.000000000000
0
POLYLINE
5
91e
100
AcDbEntity
  8
0-8寸法
6
CONTINUOUS
62
4
100
AcDb2dPolyline
66
1
10
0
20
0
70
1
40
4.000
41
4.000
0
VERTEX
5
91f
100
AcDbEntity
  8
0-8寸法
6
CONTINUOUS
62
4
100
AcDbVertex
100
AcDb2dVertex
10
1775.699
20
2377.688
30
0.0
42
1.000
0
VERTEX
5
920
100
AcDbEntity
  8
0-8寸法
6
CONTINUOUS
62
4
100
AcDbVertex
100
AcDb2dVertex
10
1779.699
20
2377.688
30
0.0
42
1.000
0
SEQEND
5
921
100
AcDbEntity
  8
0-8寸法
0
POLYLINE
5
922
100
AcDbEntity
  8
0-8寸法
6
CONTINUOUS
62
4
100
AcDb2dPolyline
66
1
10
0
20
0
70
1
40
4.000
41
4.000
0
VERTEX
5
923
100
AcDbEntity
  8
0-8寸法
6
CONTINUOUS
62
4
100
AcDbVertex
100
AcDb2dVertex
10
2499.094
20
1585.187
30
0.0
42
1.000
0
VERTEX
5
924
100
AcDbEntity
  8
0-8寸法
6
CONTINUOUS
62
4
100
AcDbVertex
100
AcDb2dVertex
10
2503.094
20
1585.187
30
0.0
42
1.000
0
SEQEND
5
925
100
AcDbEntity
  8
0-8寸法
0
POLYLINE
5
926
100
AcDbEntity
  8
0-8寸法
6
CONTINUOUS
62
4
100
AcDb2dPolyline
66
1
10
0
20
0
70
1
40
4.000
41
4.000
0
VERTEX
5
927
100
AcDbEntity
  8
0-8寸法
6
CONTINUOUS
62
4
100
AcDbVertex
100
AcDb2dVertex
10
2673.094
20
1910.187
30
0.0
42
1.000
0
VERTEX
5
928
100
AcDbEntity
  8
0-8寸法
6
CONTINUOUS
62
4
100
AcDbVertex
100
AcDb2dVertex
10
2677.094
20
1910.187
30
0.0
42
1.000
0
SEQEND
5
929
100
AcDbEntity
  8
0-8寸法
0
POLYLINE
5
92a
100
AcDbEntity
  8
0-8寸法
6
CONTINUOUS
62
4
100
AcDb2dPolyline
66
1
10
0
20
0
70
1
40
4.000
41
4.000
0
VERTEX
5
92b
100
AcDbEntity
  8
0-8寸法
6
CONTINUOUS
62
4
100
AcDbVertex
100
AcDb2dVertex
10
2680.930
20
672.291
30
0.0
42
1.000
0
VERTEX
5
92c
100
AcDbEntity
  8
0-8寸法
6
CONTINUOUS
62
4
100
AcDbVertex
100
AcDb2dVertex
10
2684.930
20
672.291
30
0.0
42
1.000
0
SEQEND
5
92d
100
AcDbEntity
  8
0-8寸法
0
POLYLINE
5
92e
100
AcDbEntity
  8
0-8寸法
6
CONTINUOUS
62
4
100
AcDb2dPolyline
66
1
10
0
20
0
70
1
40
4.000
41
4.000
0
VERTEX
5
92f
100
AcDbEntity
  8
0-8寸法
6
CONTINUOUS
62
4
100
AcDbVertex
100
AcDb2dVertex
10
2639.094
20
1635.187
30
0.0
42
1.000
0
VERTEX
5
930
100
AcDbEntity
  8
0-8寸法
6
CONTINUOUS
62
4
100
AcDbVertex
100
AcDb2dVertex
10
2643.094
20
1635.187
30
0.0
42
1.000
0
SEQEND
5
931
100
AcDbEntity
  8
0-8寸法
0
POLYLINE
5
932
100
AcDbEntity
  8
0-8寸法
6
CONTINUOUS
62
4
100
AcDb2dPolyline
66
1
10
0
20
0
70
1
40
4.000
41
4.000
0
VERTEX
5
933
100
AcDbEntity
  8
0-8寸法
6
CONTINUOUS
62
4
100
AcDbVertex
100
AcDb2dVertex
10
1048.444
20
1673.356
30
0.0
42
1.000
0
VERTEX
5
934
100
AcDbEntity
  8
0-8寸法
6
CONTINUOUS
62
4
100
AcDbVertex
100
AcDb2dVertex
10
1052.444
20
1673.356
30
0.0
42
1.000
0
SEQEND
5
935
100
AcDbEntity
  8
0-8寸法
0
POLYLINE
5
936
100
AcDbEntity
  8
0-8寸法
6
CONTINUOUS
62
4
100
AcDb2dPolyline
66
1
10
0
20
0
70
1
40
4.000
41
4.000
0
VERTEX
5
937
100
AcDbEntity
  8
0-8寸法
6
CONTINUOUS
62
4
100
AcDbVertex
100
AcDb2dVertex
10
1641.218
20
1651.957
30
0.0
42
1.000
0
VERTEX
5
938
100
AcDbEntity
  8
0-8寸法
6
CONTINUOUS
62
4
100
AcDbVertex
100
AcDb2dVertex
10
1645.218
20
1651.957
30
0.0
42
1.000
0
SEQEND
5
939
100
AcDbEntity
  8
0-8寸法
0
TEXT
5
93a
100
AcDbEntity
8
0-A文字
62
7
370
-3
100
AcDbText
10
2267.891
20
1172.118
30
0.0
40
33.660
1
水圧方向
41
0.963
50
0.000
100
AcDbText
0
MTEXT
5
93b
100
AcDbEntity
8
0-8寸法
62
7
370
-3
100
AcDbMText
10
2259.825
20
1695.495
30
0.0
40
31.790
41
0.000
71
7
72
1
1
\W1.093;▽{\W0.787;H.W.L.}
7
STANDARD
11
1.00000
21
0.00000
31
0.0
0
TEXT
5
93c
100
AcDbEntity
8
0-8寸法
62
7
370
-3
100
AcDbText
10
2718.291
20
1349.235
30
0.0
40
33.660
1
6t
41
0.574
50
0.000
100
AcDbText
0
TEXT
5
93d
100
AcDbEntity
8
0-8寸法
62
7
370
-3
100
AcDbText
10
2487.047
20
1661.787
30
0.0
40
33.660
1
50
41
0.626
50
90.000
100
AcDbText
0
TEXT
5
93e
100
AcDbEntity
8
0-8寸法
62
7
370
-3
100
AcDbText
10
2487.047
20
1471.787
30
0.0
40
33.660
1
50
41
0.626
50
90.000
100
AcDbText
0
TEXT
5
93f
100
AcDbEntity
8
0-8寸法
62
7
370
-3
100
AcDbText
10
1875.262
20
399.235
30
0.0
40
33.660
1
20
41
0.597
50
0.000
100
AcDbText
0
TEXT
5
940
100
AcDbEntity
8
0-8寸法
62
7
370
-3
100
AcDbText
10
775.262
20
399.235
30
0.0
40
33.660
1
20
41
0.597
50
0.000
100
AcDbText
0
TEXT
5
941
100
AcDbEntity
8
0-8寸法
62
7
370
-3
100
AcDbText
10
579.615
20
566.787
30
0.0
40
33.660
1
20
41
0.597
50
90.000
100
AcDbText
0
TEXT
5
942
100
AcDbEntity
8
0-8寸法
62
7
370
-3
100
AcDbText
10
2973.047
20
1580.537
30
0.0
40
33.660
1
150
41
0.710
50
90.000
100
AcDbText
0
TEXT
5
943
100
AcDbEntity
8
0-8寸法
62
7
370
-3
100
AcDbText
10
2027.962
20
299.235
30
0.0
40
33.660
1
シ－リング剤充填とする。
41
0.963
50
0.000
100
AcDbText
0
TEXT
5
944
100
AcDbEntity
8
0-8寸法
62
7
370
-3
100
AcDbText
10
864.012
20
2668.695
30
0.0
40
33.660
1
100
41
0.775
50
0.000
100
AcDbText
0
TEXT
5
945
100
AcDbEntity
8
0-8寸法
62
7
370
-3
100
AcDbText
10
1764.012
20
2668.695
30
0.0
40
33.660
1
100
41
0.775
50
0.000
100
AcDbText
0
TEXT
5
946
100
AcDbEntity
8
0-8寸法
62
7
370
-3
100
AcDbText
10
2530.694
20
1924.235
30
0.0
40
33.660
1
33.5
41
0.688
50
0.000
100
AcDbText
0
TEXT
5
947
100
AcDbEntity
8
0-8寸法
62
7
370
-3
100
AcDbText
10
2474.194
20
1349.235
30
0.0
40
33.660
1
60.5
41
0.721
50
0.000
100
AcDbText
0
TEXT
5
948
100
AcDbEntity
8
0-A文字
62
7
370
-3
100
AcDbText
10
1049.615
20
1253.127
30
0.0
40
33.660
1
(A5083)
41
0.659
50
90.000
100
AcDbText
0
TEXT
5
949
100
AcDbEntity
8
0-A文字
62
7
370
-3
100
AcDbText
10
1330.615
20
1253.127
30
0.0
40
33.660
1
(A5083)
41
0.659
50
90.000
100
AcDbText
0
TEXT
5
94a
100
AcDbEntity
8
0-A文字
62
7
370
-3
100
AcDbText
10
1719.616
20
1253.127
30
0.0
40
33.660
1
(A5083)
41
0.659
50
90.000
100
AcDbText
0
TEXT
5
94b
100
AcDbEntity
8
0-A文字
62
7
370
-3
100
AcDbText
10
999.615
20
1219.378
30
0.0
40
33.660
1
L60.5x65x6
41
0.622
50
90.000
100
AcDbText
0
TEXT
5
94c
100
AcDbEntity
8
0-A文字
62
7
370
-3
100
AcDbText
10
1669.616
20
1219.378
30
0.0
40
33.660
1
L60.5x65x6
41
0.622
50
90.000
100
AcDbText
0
TEXT
5
94d
100
AcDbEntity
8
0-A文字
62
7
370
-3
100
AcDbText
10
1105.262
20
759.235
30
0.0
40
33.660
1
L60.5x65x6 (A5083)
41
0.649
50
0.000
100
AcDbText
0
TEXT
5
94e
100
AcDbEntity
8
0-A文字
62
7
370
-3
100
AcDbText
10
1105.262
20
1129.235
30
0.0
40
33.660
1
L60.5x65x6 (A5083)
41
0.649
50
0.000
100
AcDbText
0
MTEXT
5
94f
100
AcDbEntity
8
0-8寸法
62
7
370
-3
100
AcDbMText
10
1224.012
20
295.495
30
0.0
40
31.790
41
0.000
71
7
72
1
1
\W1.093;戸当幅{\W0.787; 1000}
7
STANDARD
11
1.00000
21
0.00000
31
0.0
0
MTEXT
5
950
100
AcDbEntity
8
0-8寸法
62
7
370
-3
100
AcDbMText
10
1235.263
20
495.495
30
0.0
40
31.790
41
0.000
71
7
72
1
1
\W1.093;扉体幅{\W0.787; 900}
7
STANDARD
11
1.00000
21
0.00000
31
0.0
0
MTEXT
5
951
100
AcDbEntity
8
0-8寸法
62
7
370
-3
100
AcDbMText
10
1235.263
20
2664.955
30
0.0
40
31.790
41
0.000
71
7
72
1
1
\W1.093;有効幅{\W0.787; 800}
7
STANDARD
11
1.00000
21
0.00000
31
0.0
0
MTEXT
5
952
100
AcDbEntity
8
0-8寸法
62
7
370
-3
100
AcDbMText
10
1235.263
20
2120.495
30
0.0
40
31.790
41
0.000
71
7
72
1
1
\W1.093;扉体幅{\W0.787; 900}
7
STANDARD
11
1.00000
21
0.00000
31
0.0
0
MTEXT
5
953
100
AcDbEntity
8
0-8寸法
62
7
370
-3
100
AcDbMText
10
683.355
20
1026.787
30
0.0
40
31.790
41
0.000
71
7
72
1
1
\W1.093;扉体高{\W0.787; 900}
7
STANDARD
11
0.00000
21
1.00000
31
0.0
0
MTEXT
5
954
100
AcDbEntity
8
0-8寸法
62
7
370
-3
100
AcDbMText
10
483.355
20
1040.537
30
0.0
40
31.790
41
0.000
71
7
72
1
1
\W1.093;戸当高{\W0.787; 1050}
7
STANDARD
11
0.00000
21
1.00000
31
0.0
0
TEXT
5
955
100
AcDbEntity
8
0-8寸法
62
7
370
-3
100
AcDbText
10
931.512
20
399.235
30
0.0
40
33.660
1
195
41
0.677
50
0.000
100
AcDbText
0
TEXT
5
956
100
AcDbEntity
8
0-8寸法
62
7
370
-3
100
AcDbText
10
1696.512
20
399.235
30
0.0
40
33.660
1
195
41
0.677
50
0.000
100
AcDbText
0
TEXT
5
957
100
AcDbEntity
8
0-8寸法
62
7
370
-3
100
AcDbText
10
1235.262
20
399.235
30
0.0
40
33.660
1
3x190P=570
41
0.633
50
0.000
100
AcDbText
0
MTEXT
5
958
100
AcDbEntity
8
0-8寸法
62
7
370
-3
100
AcDbMText
10
2976.787
20
1026.787
30
0.0
40
31.790
41
0.000
71
7
72
1
1
\W1.093;有効高{\W0.787; 800}
7
STANDARD
11
0.00000
21
1.00000
31
0.0
0
MTEXT
5
959
100
AcDbEntity
8
0-8寸法
62
7
370
-3
100
AcDbMText
10
2161.787
20
1050.537
30
0.0
40
31.790
41
0.000
71
7
72
1
1
\W1.093;設計水深{\W0.787; 2.00 m}
7
STANDARD
11
0.00000
21
1.00000
31
0.0
0
TEXT
5
95a
100
AcDbEntity
8
0-8寸法
62
7
370
-3
100
AcDbText
10
1044.012
20
1824.235
30
0.0
40
33.660
1
150
41
0.710
50
0.000
100
AcDbText
0
TEXT
5
95b
100
AcDbEntity
8
0-8寸法
62
7
370
-3
100
AcDbText
10
1584.013
20
1824.235
30
0.0
40
33.660
1
150
41
0.710
50
0.000
100
AcDbText
0
TEXT
5
95c
100
AcDbEntity
8
0-8寸法
62
7
370
-3
100
AcDbText
10
1314.012
20
1924.235
30
0.0
40
33.660
1
540
41
0.623
50
0.000
100
AcDbText
0
TEXT
5
95d
100
AcDbEntity
8
0-8寸法
62
7
370
-3
100
AcDbText
10
579.615
20
1631.787
30
0.0
40
33.660
1
70
41
0.654
50
90.000
100
AcDbText
0
TEXT
5
95e
100
AcDbEntity
8
0-8寸法
62
7
370
-3
100
AcDbText
10
579.615
20
1026.787
30
0.0
40
33.660
1
5x192p=960
41
0.611
50
90.000
100
AcDbText
0
TEXT
5
95f
100
AcDbEntity
8
0-8寸法
62
7
370
-3
100
AcDbText
10
1235.262
20
2007.164
30
0.0
40
33.660
1
4x185p=740
41
0.620
50
0.000
100
AcDbText
0
LINE
5
960
100
AcDbEntity
8
F-F_J_ADD
6
HIDDEN
62
109
100
AcDbLine
10
943.662000000000
20
735.188000000000
30
0.0
11
943.662000000000
21
1535.188000000000
31
0.0
0
LINE
5
961
100
AcDbEntity
8
F-F_J_ADD
6
HIDDEN
62
109
100
AcDbLine
10
943.662000000000
20
1535.188000000000
30
0.0
11
1743.662000000000
21
1535.188000000000
31
0.0
0
LINE
5
962
100
AcDbEntity
8
F-F_J_ADD
6
HIDDEN
62
109
100
AcDbLine
10
1743.662000000000
20
1535.188000000000
30
0.0
11
1743.662000000000
21
735.188000000000
31
0.0
0
LINE
5
963
100
AcDbEntity
8
F-F_J_ADD
6
HIDDEN
62
109
100
AcDbLine
10
1743.662000000000
20
735.188000000000
30
0.0
11
943.662000000000
21
735.188000000000
31
0.0
0
TEXT
5
964
100
AcDbEntity
8
0-8寸法
62
7
370
-3
100
AcDbText
10
2973.047
20
655.538
30
0.0
40
33.660
1
100
41
0.775
50
90.000
100
AcDbText
0
LINE
5
965
100
AcDbEntity
8
0-8寸法
6
CONTINUOUS
62
4
100
AcDbLine
10
893.662000000000
20
1810.188000000000
30
0.0
11
1050.443000000000
21
1673.357000000000
31
0.0
0
LINE
5
966
100
AcDbEntity
8
0-8寸法
6
CONTINUOUS
62
4
100
AcDbLine
10
1851.678000000000
20
1810.188000000000
30
0.0
11
1643.218000000000
21
1651.958000000000
31
0.0
0
LINE
5
967
100
AcDbEntity
8
0-8寸法
6
CONTINUOUS
62
4
100
AcDbLine
10
2552.094000000000
20
485.188000000000
30
0.0
11
2682.930000000000
21
672.292000000000
31
0.0
0
LINE
5
968
100
AcDbEntity
8
0-8寸法
6
CONTINUOUS
62
4
100
AcDbLine
10
2552.094000000000
20
285.188000000000
30
0.0
11
2687.094000000000
21
635.188000000000
31
0.0
0
MTEXT
5
969
100
AcDbEntity
8
0-8寸法
62
7
370
-3
100
AcDbMText
10
2707.041
20
1195.495
30
0.0
40
31.790
41
0.000
71
7
72
1
1
\W1.093;φ{\W0.787;20}
7
STANDARD
11
1.00000
21
0.00000
31
0.0
0
MTEXT
5
96a
100
AcDbEntity
8
0-8寸法
62
7
370
-3
100
AcDbMText
10
1880.868
20
2320.495
30
0.0
40
31.790
41
0.000
71
7
72
1
1
\W1.093;水密ゴム{\W0.787; }Ｐ型{\W0.787; }φ{\W0.787;20x60x8(CRｺﾞﾑ)}
7
STANDARD
11
1.00000
21
0.00000
31
0.0
0
MTEXT
5
96b
100
AcDbEntity
8
0-8寸法
62
7
370
-3
100
AcDbMText
10
1870.868
20
2220.495
30
0.0
40
31.790
41
0.000
71
7
72
1
1
\W1.093;ゴム押え{\W0.787; PL-6t(SUS304)}　
7
STANDARD
11
1.00000
21
0.00000
31
0.0
0
MTEXT
5
96c
100
AcDbEntity
8
0-8寸法
62
7
370
-3
100
AcDbMText
10
1869.276
20
2123.615
30
0.0
40
31.790
41
0.000
71
7
72
1
1
\W1.093;皿{\W0.787;BT&NT  M8(SUS304}相当{\W0.787;)}
7
STANDARD
11
1.00000
21
0.00000
31
0.0
0
MTEXT
5
96d
100
AcDbEntity
8
0-8寸法
62
7
370
-3
100
AcDbMText
10
1868.203
20
1918.436
30
0.0
40
31.790
41
0.000
71
7
72
1
1
\W1.093;吊り金具{\W0.787;   PL-9t(SUS304) }
7
STANDARD
11
1.00000
21
0.00000
31
0.0
0
MTEXT
5
96e
100
AcDbEntity
8
0-8寸法
62
7
370
-3
100
AcDbMText
10
1869.618
20
1820.495
30
0.0
40
31.790
41
0.000
71
7
72
1
1
\W1.093;六角{\W0.787;BT}＆{\W0.787;NT M12(SUS304}相当{\W0.787;)}
7
STANDARD
11
1.00000
21
0.00000
31
0.0
0
MTEXT
5
96f
100
AcDbEntity
8
0-8寸法
62
7
370
-3
100
AcDbMText
10
282.256
20
2020.495
30
0.0
40
31.790
41
0.000
71
7
72
1
1
\W1.093;吊り{\W0.787;ﾌﾞﾗｹｯﾄ PL-10t(SUS304)}
7
STANDARD
11
1.00000
21
0.00000
31
0.0
0
MTEXT
5
970
100
AcDbEntity
8
0-8寸法
62
7
370
-3
100
AcDbMText
10
282.256
20
1920.495
30
0.0
40
31.790
41
0.000
71
7
72
1
1
\W1.093;{\W0.787; }　　　　　{\W0.787;PL-12t(SUS304)}
7
STANDARD
11
1.00000
21
0.00000
31
0.0
0
LINE
5
971
100
AcDbEntity
8
0-9扉体
6
CONTINUOUS
62
7
100
AcDbLine
10
1361.162000000000
20
1650.188000000000
30
0.0
11
1326.162000000000
21
1650.188000000000
31
0.0
0
LINE
5
972
100
AcDbEntity
8
0-9扉体
6
CONTINUOUS
62
7
100
AcDbLine
10
1311.162000000000
20
1635.188000000000
30
0.0
11
1326.162000000000
21
1650.188000000000
31
0.0
0
LINE
5
973
100
AcDbEntity
8
0-9扉体
6
CONTINUOUS
62
7
100
AcDbLine
10
1376.162000000000
20
1635.188000000000
30
0.0
11
1361.162000000000
21
1650.188000000000
31
0.0
0
LINE
5
974
100
AcDbEntity
8
0-9扉体
6
CONTINUOUS
62
4
100
AcDbLine
10
2643.594000000000
20
1659.188000000000
30
0.0
11
2623.594000000000
21
1659.188000000000
31
0.0
0
LINE
5
975
100
AcDbEntity
8
0-9扉体
6
CONTINUOUS
62
4
100
AcDbLine
10
2658.594000000000
20
1644.188000000000
30
0.0
11
2658.594000000000
21
1608.688000000000
31
0.0
0
TEXT
5
976
100
AcDbEntity
8
0-A文字
62
7
370
-3
100
AcDbText
10
3071.801
20
816.840
30
0.0
40
29.405
1
注記　塗装　ＡＬ部は下地処理後、ポリウレタン樹脂系
41
0.856
50
0.000
100
AcDbText
0
TEXT
5
977
100
AcDbEntity
8
0-A文字
62
7
370
-3
100
AcDbText
10
3071.801
20
696.840
30
0.0
40
29.405
1
　　　と致します。
41
0.856
50
0.000
100
AcDbText
0
TEXT
5
978
100
AcDbEntity
8
0-A文字
62
7
370
-3
100
AcDbText
10
3071.801
20
636.840
30
0.0
40
29.405
1
　　　但し、ＳＵＳ３０４部は酸洗いと致します。
41
0.856
50
0.000
100
AcDbText
0
LINE
5
979
100
AcDbEntity
8
0-A文字
6
CONTINUOUS
62
4
100
AcDbLine
10
3054.999000000000
20
803.475266711830
30
0.0
11
3961.492424156641
21
803.475266711830
31
0.0
0
LINE
5
97a
100
AcDbEntity
8
0-A文字
6
CONTINUOUS
62
4
100
AcDbLine
10
3054.999000000000
20
743.475266711830
30
0.0
11
3961.492424156641
21
743.475266711830
31
0.0
0
LINE
5
97b
100
AcDbEntity
8
0-A文字
6
CONTINUOUS
62
4
100
AcDbLine
10
3054.999000000000
20
683.475266711830
30
0.0
11
3961.492424156641
21
683.475266711830
31
0.0
0
LINE
5
97c
100
AcDbEntity
8
0-A文字
6
CONTINUOUS
62
4
100
AcDbLine
10
3054.999000000000
20
623.475266711830
30
0.0
11
3961.492424156641
21
623.475266711830
31
0.0
0
ELLIPSE
  5
97d
100
AcDbEntity
8
0-7図枠
6
CONTINUOUS
62
3
100
AcDbEllipse
10
2944.993000000000
20
189.029000000000
30
0.0
11
30.000000000000
21
0.000000000000
31
0.0
210
0.0
220
0.0
230
1.0
40
0.833300000000
41
0.000000000000
42
6.283185307180
0
ELLIPSE
  5
97e
100
AcDbEntity
8
0-7図枠
6
CONTINUOUS
62
3
100
AcDbEllipse
10
2944.993000000000
20
189.029000000000
30
0.0
11
30.000000000000
21
0.000000000000
31
0.0
210
0.0
220
0.0
230
1.0
40
0.833300000000
41
0.000000000000
42
6.283185307180
0
LINE
5
97f
100
AcDbEntity
8
0-7図枠
6
CONTINUOUS
62
3
100
AcDbLine
10
2900.000000000000
20
540.000000000000
30
0.0
11
2900.000000000000
21
150.000000000000
31
0.0
0
LINE
5
980
100
AcDbEntity
8
0-7図枠
6
CONTINUOUS
62
3
100
AcDbLine
10
2900.000000000000
20
540.000000000000
30
0.0
11
4050.000000000000
21
540.000000000000
31
0.0
0
LINE
5
981
100
AcDbEntity
8
0-7図枠
6
CONTINUOUS
62
3
100
AcDbLine
10
2900.000000000000
20
240.000000000000
30
0.0
11
4050.000000000000
21
240.000000000000
31
0.0
0
LINE
5
982
100
AcDbEntity
8
0-7図枠
6
CONTINUOUS
62
3
100
AcDbLine
10
3475.000000000000
20
540.000000000000
30
0.0
11
3475.000000000000
21
150.000000000000
31
0.0
0
LINE
5
983
100
AcDbEntity
8
0-7図枠
6
CONTINUOUS
62
3
100
AcDbLine
10
3415.000000000000
20
540.000000000000
30
0.0
11
3415.000000000000
21
150.000000000000
31
0.0
0
LINE
5
984
100
AcDbEntity
8
0-7図枠
6
CONTINUOUS
62
3
100
AcDbLine
10
3950.000000000000
20
240.000000000000
30
0.0
11
3950.000000000000
21
150.000000000000
31
0.0
0
LINE
5
985
100
AcDbEntity
8
0-7図枠
6
CONTINUOUS
62
3
100
AcDbLine
10
3635.000000000000
20
350.000000000000
30
0.0
11
3635.000000000000
21
240.000000000000
31
0.0
0
LINE
5
986
100
AcDbEntity
8
0-7図枠
6
CONTINUOUS
62
3
100
AcDbLine
10
3685.000000000000
20
350.000000000000
30
0.0
11
3685.000000000000
21
240.000000000000
31
0.0
0
LINE
5
987
100
AcDbEntity
8
0-7図枠
6
CONTINUOUS
62
3
100
AcDbLine
10
3840.000000000000
20
350.000000000000
30
0.0
11
3840.000000000000
21
240.000000000000
31
0.0
0
LINE
5
988
100
AcDbEntity
8
0-7図枠
6
CONTINUOUS
62
3
100
AcDbLine
10
3890.000000000000
20
350.000000000000
30
0.0
11
3890.000000000000
21
240.000000000000
31
0.0
0
LINE
5
989
100
AcDbEntity
8
0-7図枠
6
CONTINUOUS
62
3
100
AcDbLine
10
3415.000000000000
20
350.000000000000
30
0.0
11
4050.000000000000
21
350.000000000000
31
0.0
0
LINE
5
98a
100
AcDbEntity
8
0-7図枠
6
CONTINUOUS
62
3
100
AcDbLine
10
2900.000000000000
20
330.000000000000
30
0.0
11
3415.000000000000
21
330.000000000000
31
0.0
0
LINE
5
98b
100
AcDbEntity
8
0-7図枠
6
CONTINUOUS
62
3
100
AcDbLine
10
2900.000000000000
20
420.000000000000
30
0.0
11
3415.000000000000
21
420.000000000000
31
0.0
0
LINE
5
98c
100
AcDbEntity
8
0-7図枠
6
CONTINUOUS
62
3
100
AcDbLine
10
2954.999000000000
20
540.000000000000
30
0.0
11
2954.999000000000
21
240.000000000000
31
0.0
0
LINE
5
98d
100
AcDbEntity
8
0-7図枠
6
CONTINUOUS
62
3
100
AcDbLine
10
3210.000000000000
20
420.000000000000
30
0.0
11
3210.000000000000
21
240.000000000000
31
0.0
0
LINE
5
98e
100
AcDbEntity
8
0-7図枠
6
CONTINUOUS
62
3
100
AcDbLine
10
3155.000000000000
20
420.000000000000
30
0.0
11
3155.000000000000
21
240.000000000000
31
0.0
0
LINE
5
98f
100
AcDbEntity
8
0-7図枠
6
CONTINUOUS
62
3
100
AcDbLine
10
3965.000000000000
20
165.000000000000
30
0.0
11
4000.000000000000
21
225.622000000000
31
0.0
0
LINE
5
990
100
AcDbEntity
8
0-7図枠
6
CONTINUOUS
62
3
100
AcDbLine
10
4035.000000000000
20
165.000000000000
30
0.0
11
4000.000000000000
21
225.622000000000
31
0.0
0
LINE
5
991
100
AcDbEntity
8
0-7図枠
6
CONTINUOUS
62
3
100
AcDbLine
10
3965.000000000000
20
165.000000000000
30
0.0
11
4035.000000000000
21
165.000000000000
31
0.0
0
LINE
5
992
100
AcDbEntity
8
0-7図枠
6
CONTINUOUS
62
3
100
AcDbLine
10
2923.408000000000
20
189.944000000000
30
0.0
11
2956.057000000000
21
171.094000000000
31
0.0
0
LINE
5
993
100
AcDbEntity
8
0-7図枠
6
CONTINUOUS
62
3
100
AcDbLine
10
2933.653000000000
20
192.689000000000
30
0.0
11
2963.413000000000
21
175.507000000000
31
0.0
0
LINE
5
994
100
AcDbEntity
8
0-7図枠
6
CONTINUOUS
62
3
100
AcDbLine
10
2943.898000000000
20
195.434000000000
30
0.0
11
2968.126000000000
21
181.446000000000
31
0.0
0
LINE
5
995
100
AcDbEntity
8
0-7図枠
6
CONTINUOUS
62
3
100
AcDbLine
10
2926.237000000000
20
190.702000000000
30
0.0
11
2919.993000000000
21
189.029000000000
31
0.0
0
LINE
5
996
100
AcDbEntity
8
0-7図枠
6
CONTINUOUS
62
3
100
AcDbLine
10
2933.825000000000
20
189.703000000000
30
0.0
11
2961.277000000000
21
173.854000000000
31
0.0
0
LINE
5
997
100
AcDbEntity
8
0-7図枠
6
CONTINUOUS
62
3
100
AcDbLine
10
2944.071000000000
20
192.448000000000
30
0.0
11
2966.838000000000
21
179.303000000000
31
0.0
0
LINE
5
998
100
AcDbEntity
8
0-7図枠
6
CONTINUOUS
62
3
100
AcDbLine
10
2954.316000000000
20
195.193000000000
30
0.0
11
2969.755000000000
21
186.279000000000
31
0.0
0
LINE
5
999
100
AcDbEntity
8
0-7図枠
6
CONTINUOUS
62
3
100
AcDbLine
10
2936.482000000000
20
193.447000000000
30
0.0
11
2928.709000000000
21
191.364000000000
31
0.0
0
LINE
5
99a
100
AcDbEntity
8
0-7図枠
6
CONTINUOUS
62
3
100
AcDbLine
10
2946.727000000000
20
196.192000000000
30
0.0
11
2939.182000000000
21
194.171000000000
31
0.0
0
ARC
5
99b
100
AcDbEntity
8
0-7図枠
6
CONTINUOUS
62
3
100
AcDbCircle
10
2928.825000000000
20
181.043000000000
30
0.0
40
10.000000000000
100
AcDbArc
50
60.000000000000
51
105.000000000000
0
ARC
5
99c
100
AcDbEntity
8
0-7図枠
6
CONTINUOUS
62
3
100
AcDbCircle
10
2939.070000000000
20
183.788000000000
30
0.0
40
10.000000000000
100
AcDbArc
50
60.000000000000
51
105.000000000000
0
ARC
5
99d
100
AcDbEntity
8
0-7図枠
6
CONTINUOUS
62
3
100
AcDbCircle
10
2949.315000000000
20
186.533000000000
30
0.0
40
10.000000000000
100
AcDbArc
50
60.000000000000
51
105.000000000000
0
ELLIPSE
  5
99e
100
AcDbEntity
8
0-7図枠
6
CONTINUOUS
62
3
100
AcDbEllipse
10
2944.993000000000
20
189.029000000000
30
0.0
11
25.000000000000
21
0.000000000000
31
0.0
210
0.0
220
0.0
230
1.0
40
0.800000000000
41
0.270792616483
42
6.145261525885
0
TEXT
5
99f
100
AcDbEntity
8
0-7図枠
62
7
370
-3
100
AcDbText
10
2926.827
20
516.487
30
0.0
40
26.465
1
客先
41
0.856
50
0.000
  7
TATEGAKI
100
AcDbText
0
LINE
5
9a0
100
AcDbEntity
8
F-F_J_ADD
6
HIDDEN
62
109
100
AcDbLine
10
2927.499500000000
20
240.000000000000
30
0.0
11
2927.499500000000
21
540.000000000000
31
0.0
0
LINE
5
9a1
100
AcDbEntity
8
F-F_J_ADD
6
HIDDEN
62
109
100
AcDbLine
10
3184.999500000000
20
540.000000000000
30
0.0
11
3184.999500000000
21
420.000000000000
31
0.0
0
LINE
5
9a2
100
AcDbEntity
8
F-F_J_ADD
6
HIDDEN
62
109
100
AcDbLine
10
3054.999500000000
20
240.000000000000
30
0.0
11
3054.999500000000
21
420.000000000000
31
0.0
0
LINE
5
9a3
100
AcDbEntity
8
F-F_J_ADD
6
HIDDEN
62
109
100
AcDbLine
10
3182.500000000000
20
420.000000000000
30
0.0
11
3182.500000000000
21
240.000000000000
31
0.0
0
LINE
5
9a4
100
AcDbEntity
8
F-F_J_ADD
6
HIDDEN
62
109
100
AcDbLine
10
3312.500000000000
20
420.000000000000
30
0.0
11
3312.500000000000
21
240.000000000000
31
0.0
0
LINE
5
9a5
100
AcDbEntity
8
F-F_J_ADD
6
HIDDEN
62
109
100
AcDbLine
10
2900.000000000000
20
480.000000000000
30
0.0
11
3415.000000000000
21
480.000000000000
31
0.0
0
LINE
5
9a6
100
AcDbEntity
8
F-F_J_ADD
6
HIDDEN
62
109
100
AcDbLine
10
3415.000000000000
20
375.000000000000
30
0.0
11
2900.000000000000
21
375.000000000000
31
0.0
0
LINE
5
9a7
100
AcDbEntity
8
F-F_J_ADD
6
HIDDEN
62
109
100
AcDbLine
10
3415.000000000000
20
285.000000000000
30
0.0
11
2900.000000000000
21
285.000000000000
31
0.0
0
LINE
5
9a8
100
AcDbEntity
8
F-F_J_ADD
6
HIDDEN
62
109
100
AcDbLine
10
3445.000000000000
20
540.000000000000
30
0.0
11
3445.000000000000
21
150.000000000000
31
0.0
0
LINE
5
9a9
100
AcDbEntity
8
F-F_J_ADD
6
HIDDEN
62
109
100
AcDbLine
10
3555.000000000000
20
350.000000000000
30
0.0
11
3555.000000000000
21
240.000000000000
31
0.0
0
LINE
5
9aa
100
AcDbEntity
8
F-F_J_ADD
6
HIDDEN
62
109
100
AcDbLine
10
3660.000000000000
20
350.000000000000
30
0.0
11
3660.000000000000
21
240.000000000000
31
0.0
0
LINE
5
9ab
100
AcDbEntity
8
F-F_J_ADD
6
HIDDEN
62
109
100
AcDbLine
10
3762.500000000000
20
240.000000000000
30
0.0
11
3762.500000000000
21
350.000000000000
31
0.0
0
LINE
5
9ac
100
AcDbEntity
8
F-F_J_ADD
6
HIDDEN
62
109
100
AcDbLine
10
4050.000000000000
20
295.000000000000
30
0.0
11
3415.000000000000
21
295.000000000000
31
0.0
0
LINE
5
9ad
100
AcDbEntity
8
F-F_J_ADD
6
HIDDEN
62
109
100
AcDbLine
10
3865.000000000000
20
240.000000000000
30
0.0
11
3865.000000000000
21
350.000000000000
31
0.0
0
LINE
5
9ae
100
AcDbEntity
8
F-F_J_ADD
6
HIDDEN
62
109
100
AcDbLine
10
3970.000000000000
20
350.000000000000
30
0.0
11
3970.000000000000
21
240.000000000000
31
0.0
0
LINE
5
9af
100
AcDbEntity
8
F-F_J_ADD
6
HIDDEN
62
109
100
AcDbLine
10
3475.000000000000
20
445.000000000000
30
0.0
11
3415.000000000000
21
445.000000000000
31
0.0
0
LINE
5
9b0
100
AcDbEntity
8
F-F_J_ADD
6
HIDDEN
62
109
100
AcDbLine
10
2900.000000000000
20
195.000000000000
30
0.0
11
4050.000000000000
21
195.000000000000
31
0.0
0
LINE
5
9b1
100
AcDbEntity
8
F-F_J_ADD
6
HIDDEN
62
109
100
AcDbLine
10
4000.000000000000
20
240.000000000000
30
0.0
11
4000.000000000000
21
150.000000000000
31
0.0
0
LINE
5
9b2
100
AcDbEntity
8
F-F_J_ADD
6
HIDDEN
62
109
100
AcDbLine
10
3712.500000000000
20
150.000000000000
30
0.0
11
3712.500000000000
21
240.000000000000
31
0.0
0
LINE
5
9b3
100
AcDbEntity
8
F-F_J_ADD
6
HIDDEN
62
109
100
AcDbLine
10
3762.500000000000
20
350.000000000000
30
0.0
11
3762.500000000000
21
540.000000000000
31
0.0
0
LINE
5
9b4
100
AcDbEntity
8
F-F_J_ADD
6
HIDDEN
62
109
100
AcDbLine
10
3475.000000000000
20
512.857142857143
30
0.0
11
4050.000000000000
21
512.857142857143
31
0.0
0
LINE
5
9b5
100
AcDbEntity
8
F-F_J_ADD
6
HIDDEN
62
109
100
AcDbLine
10
3475.000000000000
20
485.714285714286
30
0.0
11
4050.000000000000
21
485.714285714286
31
0.0
0
LINE
5
9b6
100
AcDbEntity
8
F-F_J_ADD
6
HIDDEN
62
109
100
AcDbLine
10
3475.000000000000
20
458.571428571429
30
0.0
11
4050.000000000000
21
458.571428571429
31
0.0
0
LINE
5
9b7
100
AcDbEntity
8
F-F_J_ADD
6
HIDDEN
62
109
100
AcDbLine
10
3475.000000000000
20
431.428571428572
30
0.0
11
4050.000000000000
21
431.428571428572
31
0.0
0
LINE
5
9b8
100
AcDbEntity
8
F-F_J_ADD
6
HIDDEN
62
109
100
AcDbLine
10
3475.000000000000
20
404.285714285715
30
0.0
11
4050.000000000000
21
404.285714285715
31
0.0
0
LINE
5
9b9
100
AcDbEntity
8
F-F_J_ADD
6
HIDDEN
62
109
100
AcDbLine
10
3475.000000000000
20
377.142857142858
30
0.0
11
4050.000000000000
21
377.142857142858
31
0.0
0
TEXT
5
9ba
100
AcDbEntity
8
0-7図枠
62
7
370
-3
100
AcDbText
10
3444.327
20
498.959
30
0.0
40
26.465
1
名　称
41
0.856
50
0.000
  7
TATEGAKI
100
AcDbText
0
TEXT
5
9bb
100
AcDbEntity
8
0-7図枠
62
7
370
-3
100
AcDbText
10
3119.405
20
464.432
30
0.0
40
37.807
41
0.856
50
0.000
1
標準図
72
1
11
3184.999
21
480.000
31
0.0
100
AcDbText
73
2
0
TEXT
5
9bc
100
AcDbEntity
8
0-7図枠
62
7
370
-3
100
AcDbText
10
2926.827
20
411.487
30
0.0
40
26.465
1
材質
41
0.856
50
0.000
  7
TATEGAKI
100
AcDbText
0
TEXT
5
9bd
100
AcDbEntity
8
0-7図枠
62
7
370
-3
100
AcDbText
10
3181.827
20
411.487
30
0.0
40
26.465
1
数量
41
0.856
50
0.000
  7
TATEGAKI
100
AcDbText
0
MTEXT
5
9be
100
AcDbEntity
8
0-7図枠
62
7
370
-3
100
AcDbMText
10
3764.190
20
406.820
30
0.0
40
33.570
41
0.000
71
5
72
1
1
\W0.972;{\W0.700;ｱﾙﾐ}合金製{\W0.700;ﾌﾗｯﾌﾟｹﾞ-ﾄ(}壁付け{\W0.700;)}
7
STANDARD
11
1.00000
21
0.00000
31
0.0
0
TEXT
5
9bf
100
AcDbEntity
8
0-7図枠
62
7
370
-3
100
AcDbText
10
3000.637
20
359.432
30
0.0
40
37.807
41
0.530
50
0.000
1
A5083
72
1
11
3054.999
21
375.000
31
0.0
100
AcDbText
73
2
0
TEXT
5
9c0
100
AcDbEntity
8
0-7図枠
62
7
370
-3
100
AcDbText
10
3444.327
20
331.487
30
0.0
40
26.465
1
承認
41
0.856
50
0.000
  7
TATEGAKI
100
AcDbText
0
TEXT
5
9c1
100
AcDbEntity
8
0-7図枠
62
7
370
-3
100
AcDbText
10
3659.327
20
331.487
30
0.0
40
26.465
1
検図
41
0.856
50
0.000
  7
TATEGAKI
100
AcDbText
0
TEXT
5
9c2
100
AcDbEntity
8
0-7図枠
62
7
370
-3
100
AcDbText
10
3864.327
20
331.487
30
0.0
40
26.465
1
担当
41
0.856
50
0.000
  7
TATEGAKI
100
AcDbText
0
TEXT
5
9c3
100
AcDbEntity
8
0-7図枠
62
7
370
-3
100
AcDbText
10
2926.827
20
321.487
30
0.0
40
26.465
1
尺度
41
0.856
50
0.000
  7
TATEGAKI
100
AcDbText
0
TEXT
5
9c4
100
AcDbEntity
8
0-7図枠
62
7
370
-3
100
AcDbText
10
3181.827
20
321.487
30
0.0
40
26.465
1
日付
41
0.856
50
0.000
  7
TATEGAKI
100
AcDbText
0
TEXT
5
9c5
100
AcDbEntity
8
0-7図枠
62
7
370
-3
100
AcDbText
10
3511.869
20
279.432
30
0.0
40
37.807
41
0.856
50
0.000
1
熊崎
72
1
11
3555.000
21
295.000
31
0.0
100
AcDbText
73
2
0
TEXT
5
9c6
100
AcDbEntity
8
0-7図枠
62
7
370
-3
100
AcDbText
10
3719.369
20
279.432
30
0.0
40
37.807
41
0.856
50
0.000
1
井福
72
1
11
3762.500
21
295.000
31
0.0
100
AcDbText
73
2
0
TEXT
5
9c7
100
AcDbEntity
8
0-7図枠
62
7
370
-3
100
AcDbText
10
3926.869
20
279.432
30
0.0
40
37.807
41
0.856
50
0.000
1
平川
72
1
11
3970.000
21
295.000
31
0.0
100
AcDbText
73
2
0
LINE
5
9c8
100
AcDbEntity
8
0-7図枠
6
CONTINUOUS
62
3
100
AcDbLine
10
3562.500000000000
20
490.000000000000
30
0.0
11
3962.500000000000
21
490.000000000000
31
0.0
0
TEXT
5
9c9
100
AcDbEntity
8
0-7図枠
62
7
370
-3
100
AcDbText
10
3444.327
20
231.487
30
0.0
40
26.465
1
図番
41
0.856
50
0.000
  7
TATEGAKI
100
AcDbText
0
TEXT
5
9ca
100
AcDbEntity
8
0-7図枠
62
7
370
-3
100
AcDbText
10
2998.955
20
180.639
30
0.0
40
37.807
1
三重重工業株式会社
41
0.856
50
0.000
100
AcDbText
0
MTEXT
5
9cb
100
AcDbEntity
8
0-7図枠
62
7
370
-3
100
AcDbMText
10
3615.386
20
497.482
30
0.0
40
27.772
41
0.000
71
7
72
1
1
\W0.972;型式　{\W0.700;MFR-A0808K}
7
STANDARD
11
1.00000
21
0.00000
31
0.0
0
TEXT
5
9cc
100
AcDbEntity
8
0-7図枠
62
7
370
-3
100
AcDbText
10
3595.817
20
443.004
30
0.0
40
37.807
1
800 Bo x 800 Ho
41
0.607
50
0.000
100
AcDbText
0
TEXT
5
9cd
100
AcDbEntity
8
0-7図枠
62
7
370
-3
100
AcDbText
10
3579.513
20
179.432
30
0.0
40
37.807
1
Ｋ－２１５８
41
0.856
50
0.000
100
AcDbText
0
TEXT
5
9ce
100
AcDbEntity
8
0-7図枠
62
7
370
-3
100
AcDbText
10
3989.851
20
170.635
30
0.0
40
37.807
1
3
41
0.516
50
0.000
100
AcDbText
0
POLYLINE
5
9cf
100
AcDbEntity
8
0-9扉体
6
CONTINUOUS
62
  7
100
AcDb2dPolyline
66
1
10
0.0
20
0.0
30
0.0
70
0
0
VERTEX
5
9d0
100
AcDbEntity
8
0-9扉体
6
CONTINUOUS
62
  7
100
AcDbVertex
100
AcDb2dVertex
10
1343.662000000000
20
2356.647000000000
30
0.0
0
VERTEX
5
9d1
100
AcDbEntity
8
0-9扉体
6
CONTINUOUS
62
  7
100
AcDbVertex
100
AcDb2dVertex
10
1311.162000000000
20
2356.647000000000
30
0.0
0
VERTEX
5
9d2
100
AcDbEntity
8
0-9扉体
6
CONTINUOUS
62
  7
100
AcDbVertex
100
AcDb2dVertex
10
1311.162000000000
20
2346.647000000000
30
0.0
0
VERTEX
5
9d3
100
AcDbEntity
8
0-9扉体
6
CONTINUOUS
62
  7
100
AcDbVertex
100
AcDb2dVertex
10
1343.662000000000
20
2346.647000000000
30
0.0
0
SEQEND
5
9d4
100
AcDbEntity
8
0-9扉体
0
LINE
5
9d5
100
AcDbEntity
8
0-9扉体
6
CONTINUOUS
62
7
100
AcDbLine
10
1326.162000000000
20
2346.647000000000
30
0.0
11
1326.162000000000
21
2356.647000000000
31
0.0
0
MTEXT
5
9d6
100
AcDbEntity
8
0-8寸法
62
7
370
-3
100
AcDbMText
10
236.920
20
1820.495
30
0.0
40
31.790
41
0.000
71
7
72
1
1
\W1.093;{\W0.787;  }接着系{\W0.787;ｱﾝｶ- M12(SUS304}相当{\W0.787;)}
7
STANDARD
11
1.00000
21
0.00000
31
0.0
0
MTEXT
5
9d7
100
AcDbEntity
8
0-8寸法
62
7
370
-3
100
AcDbMText
10
2544.212
20
395.495
30
0.0
40
31.790
41
0.000
71
9
72
1
1
\W1.093;金属系{\W0.787;ｱﾝｶ- M10(SUS304}相当{\W0.787;)}
7
STANDARD
11
1.00000
21
0.00000
31
0.0
0
MTEXT
5
9d8
100
AcDbEntity
8
0-8寸法
62
7
370
-3
100
AcDbMText
10
2520.340
20
495.495
30
0.0
40
31.790
41
0.000
71
9
72
1
1
\W1.093;戸当り{\W0.787; PL-12t(SUS304)}
7
STANDARD
11
1.00000
21
0.00000
31
0.0
0
LINE
5
9d9
100
AcDbEntity
8
0-8寸法
6
CONTINUOUS
62
4
100
AcDbLine
10
1955.380101439018
20
385.188000000000
30
0.0
11
2552.094000000000
21
385.188000000000
31
0.0
0
LINE
5
9da
100
AcDbEntity
8
0-8寸法
6
CONTINUOUS
62
4
100
AcDbLine
10
1955.380101439018
20
485.188000000000
30
0.0
11
2552.094000000000
21
485.188000000000
31
0.0
0
LINE
5
9db
100
AcDbEntity
8
0-8寸法
6
CONTINUOUS
62
4
100
AcDbLine
10
1851.678000000000
20
1910.188000000000
30
0.0
11
1851.678000000000
21
1810.188000000000
31
0.0
0
TEXT
5
9dc
100
AcDbEntity
8
0-8寸法
62
7
370
-3
100
AcDbText
10
2701.444
20
1924.235
30
0.0
40
33.660
41
0.640
50
0.000
1
12t
72
2
11
2767.344
21
1918.095
31
0.0
100
AcDbText
73
1
0
TEXT
5
9dd
100
AcDbEntity
8
0-A文字
62
7
370
-3
100
AcDbText
10
1280.615
20
1219.378
30
0.0
40
33.660
41
0.625
50
90.000
1
PL-8tx60.5
72
2
11
1286.755
21
1442.778
31
0.0
100
AcDbText
73
1
0
TEXT
5
9de
100
AcDbEntity
8
0-A文字
62
7
370
-3
100
AcDbText
10
1455.497
20
933.997
30
0.0
40
33.660
41
0.893
50
0.000
1
ｽｷﾝﾌﾟﾚ-ﾄ
72
1
11
1543.897
21
950.357
31
0.0
100
AcDbText
73
2
0
TEXT
5
9df
100
AcDbEntity
8
0-A文字
62
7
370
-3
100
AcDbText
10
1489.247
20
873.997
30
0.0
40
33.660
41
0.577
50
0.000
1
PL-6t
72
1
11
1543.897
21
890.357
31
0.0
100
AcDbText
73
2
0
TEXT
5
9e0
100
AcDbEntity
8
0-A文字
62
7
370
-3
100
AcDbText
10
1466.747
20
823.997
30
0.0
40
33.660
41
0.659
50
0.000
1
(A5083)
72
1
11
1543.897
21
840.357
31
0.0
100
AcDbText
73
2
0
TEXT
5
9e1
100
AcDbEntity
8
0-7図枠
62
7
370
-3
100
AcDbText
10
3011.869
20
269.432
30
0.0
40
37.807
1
1/10
41
0.684
50
0.000
100
AcDbText
0
TEXT
5
9e2
100
AcDbEntity
8
0-9扉体
62
7
370
-3
100
AcDbText
10
3356.688
20
2440.618
30
0.0
40
33.660
41
0.856
50
0.000
1
設　計　条　件
72
1
11
3495.088
21
2454.478
31
0.0
100
AcDbText
73
2
0
MTEXT
5
9e3
100
AcDbEntity
8
0-9扉体
62
7
370
-3
100
AcDbMText
10
3744.187
20
2269.378
30
0.0
40
31.790
41
0.000
71
5
72
1
1
\W0.972;後水深{\W0.700;   0.00 m}
7
STANDARD
11
1.00000
21
0.00000
31
0.0
0
TEXT
5
9e4
100
AcDbEntity
8
0-9扉体
62
7
370
-3
100
AcDbText
10
3101.688
20
2253.118
30
0.0
40
33.660
41
0.856
50
0.000
1
設計水深
72
1
11
3180.088
21
2266.978
31
0.0
100
AcDbText
73
2
0
TEXT
5
9e5
100
AcDbEntity
8
0-9扉体
62
7
370
-3
100
AcDbText
10
3101.688
20
2373.118
30
0.0
40
33.660
41
0.856
50
0.000
1
通水断面
72
1
11
3180.088
21
2386.978
31
0.0
100
AcDbText
73
2
0
LINE
5
9e6
100
AcDbEntity
8
0-9扉体
6
CONTINUOUS
62
4
100
AcDbLine
10
3585.087719298245
20
2416.977308688388
30
0.0
11
3585.087719298245
21
2236.977308688388
31
0.0
0
LINE
5
9e7
100
AcDbEntity
8
0-9扉体
6
CONTINUOUS
62
4
100
AcDbLine
10
3270.087719298245
20
2416.977308688388
30
0.0
11
3270.087719298245
21
2236.977308688388
31
0.0
0
LINE
5
9e8
100
AcDbEntity
8
0-9扉体
6
CONTINUOUS
62
4
100
AcDbLine
10
3900.086719298246
20
2491.978308688388
30
0.0
11
3900.086719298246
21
2236.977308688388
31
0.0
0
POLYLINE
5
9e9
100
AcDbEntity
8
0-9扉体
6
CONTINUOUS
62
  4
100
AcDb2dPolyline
66
1
10
0.0
20
0.0
30
0.0
70
0
0
VERTEX
5
9ea
100
AcDbEntity
8
0-9扉体
6
CONTINUOUS
62
  4
100
AcDbVertex
100
AcDb2dVertex
10
3090.088719298246
20
2491.978308688388
30
0.0
0
VERTEX
5
9eb
100
AcDbEntity
8
0-9扉体
6
CONTINUOUS
62
  4
100
AcDbVertex
100
AcDb2dVertex
10
3090.088719298246
20
2236.977308688388
30
0.0
0
VERTEX
5
9ec
100
AcDbEntity
8
0-9扉体
6
CONTINUOUS
62
  4
100
AcDbVertex
100
AcDb2dVertex
10
3900.086719298246
20
2236.977308688388
30
0.0
0
SEQEND
5
9ed
100
AcDbEntity
8
0-9扉体
0
LINE
5
9ee
100
AcDbEntity
8
0-9扉体
6
CONTINUOUS
62
4
100
AcDbLine
10
3090.088719298246
20
2296.978308688388
30
0.0
11
3900.086719298246
21
2296.978308688388
31
0.0
0
LINE
5
9ef
100
AcDbEntity
8
0-9扉体
6
CONTINUOUS
62
4
100
AcDbLine
10
3090.088719298246
20
2356.978308688388
30
0.0
11
3900.086719298246
21
2356.978308688388
31
0.0
0
LINE
5
9f0
100
AcDbEntity
8
0-9扉体
6
CONTINUOUS
62
4
100
AcDbLine
10
3090.088719298246
20
2416.977308688388
30
0.0
11
3900.086719298246
21
2416.977308688388
31
0.0
0
LINE
5
9f1
100
AcDbEntity
8
0-9扉体
6
CONTINUOUS
62
4
100
AcDbLine
10
3090.088719298246
20
2491.978308688388
30
0.0
11
3900.086719298246
21
2491.978308688388
31
0.0
0
TEXT
5
9f2
100
AcDbEntity
8
0-9扉体
62
7
370
-3
100
AcDbText
10
3101.688
20
2313.118
30
0.0
40
33.660
41
0.856
50
0.000
1
扉体寸法
72
1
11
3180.088
21
2326.978
31
0.0
100
AcDbText
73
2
0
MTEXT
5
9f3
100
AcDbEntity
8
0-9扉体
62
7
370
-3
100
AcDbMText
10
3279.188
20
2369.378
30
0.0
40
31.790
41
0.000
71
7
72
1
1
\W0.972;有効幅{\W0.700;   0.80 m}
7
STANDARD
11
1.00000
21
0.00000
31
0.0
0
MTEXT
5
9f4
100
AcDbEntity
8
0-9扉体
62
7
370
-3
100
AcDbMText
10
3279.188
20
2309.378
30
0.0
40
31.790
41
0.000
71
7
72
1
1
\W0.972;扉体幅{\W0.700;   0.90 m}
7
STANDARD
11
1.00000
21
0.00000
31
0.0
0
MTEXT
5
9f5
100
AcDbEntity
8
0-9扉体
62
7
370
-3
100
AcDbMText
10
3279.188
20
2249.378
30
0.0
40
31.790
41
0.000
71
7
72
1
1
\W0.972;前水深{\W0.700;   2.00 m}
7
STANDARD
11
1.00000
21
0.00000
31
0.0
0
MTEXT
5
9f6
100
AcDbEntity
8
0-9扉体
62
7
370
-3
100
AcDbMText
10
3594.187
20
2309.378
30
0.0
40
31.790
41
0.000
71
7
72
1
1
\W0.972;扉体高{\W0.700;   0.90 m}
7
STANDARD
11
1.00000
21
0.00000
31
0.0
0
MTEXT
5
9f7
100
AcDbEntity
8
0-9扉体
62
7
370
-3
100
AcDbMText
10
3594.187
20
2369.378
30
0.0
40
31.790
41
0.000
71
7
72
1
1
\W0.972;有効高　{\W0.700; 0.80 m}
7
STANDARD
11
1.00000
21
0.00000
31
0.0
0
LINE
5
9f8
100
AcDbEntity
8
0-5基準線
6
CENTER2
62
7
100
AcDbLine
10
2639.398000000000
20
1665.188000000000
30
0.0
11
2790.619000000000
21
1665.188000000000
31
0.0
0
LINE
5
9f9
100
AcDbEntity
8
0-6戸当り
6
CONTINUOUS
62
2
100
AcDbLine
10
858.663000000000
20
2408.849000000000
30
0.0
11
856.162000000000
21
2438.361000000000
31
0.0
0
LINE
5
9fa
100
AcDbEntity
8
0-6戸当り
6
CONTINUOUS
62
2
100
AcDbLine
10
863.662000000000
20
2408.849000000000
30
0.0
11
861.162000000000
21
2438.361000000000
31
0.0
0
LINE
5
9fb
100
AcDbEntity
8
0-6戸当り
6
CONTINUOUS
62
2
100
AcDbLine
10
858.663000000000
20
2408.849000000000
30
0.0
11
868.662000000000
21
2408.849000000000
31
0.0
0
LINE
5
9fc
100
AcDbEntity
8
0-6戸当り
6
CONTINUOUS
62
2
100
AcDbLine
10
858.305000000000
20
2413.065000000000
30
0.0
11
863.305000000000
21
2413.065000000000
31
0.0
0
LINE
5
9fd
100
AcDbEntity
8
0-6戸当り
6
CONTINUOUS
62
2
100
AcDbLine
10
857.948000000000
20
2417.281000000000
30
0.0
11
862.948000000000
21
2417.281000000000
31
0.0
0
LINE
5
9fe
100
AcDbEntity
8
0-6戸当り
6
CONTINUOUS
62
2
100
AcDbLine
10
857.591000000000
20
2421.497000000000
30
0.0
11
862.591000000000
21
2421.497000000000
31
0.0
0
LINE
5
9ff
100
AcDbEntity
8
0-6戸当り
6
CONTINUOUS
62
2
100
AcDbLine
10
857.233000000000
20
2425.713000000000
30
0.0
11
862.234000000000
21
2425.713000000000
31
0.0
0
LINE
5
a00
100
AcDbEntity
8
0-6戸当り
6
CONTINUOUS
62
2
100
AcDbLine
10
856.877000000000
20
2429.929000000000
30
0.0
11
861.877000000000
21
2429.929000000000
31
0.0
0
LINE
5
a01
100
AcDbEntity
8
0-6戸当り
6
CONTINUOUS
62
2
100
AcDbLine
10
856.520000000000
20
2434.145000000000
30
0.0
11
861.520000000000
21
2434.145000000000
31
0.0
0
POLYLINE
5
a02
100
AcDbEntity
8
0-6戸当り
6
CONTINUOUS
62
  2
100
AcDb2dPolyline
66
1
10
0.0
20
0.0
30
0.0
70
0
0
VERTEX
5
a03
100
AcDbEntity
8
0-6戸当り
6
CONTINUOUS
62
  2
100
AcDbVertex
100
AcDb2dVertex
10
868.662000000000
20
2408.849000000000
30
0.0
0
VERTEX
5
a04
100
AcDbEntity
8
0-6戸当り
6
CONTINUOUS
62
  2
100
AcDbVertex
100
AcDb2dVertex
10
871.162000000000
20
2438.361000000000
30
0.0
0
VERTEX
5
a05
100
AcDbEntity
8
0-6戸当り
6
CONTINUOUS
62
  2
100
AcDbVertex
100
AcDb2dVertex
10
866.162000000000
20
2438.361000000000
30
0.0
0
SEQEND
5
a06
100
AcDbEntity
8
0-6戸当り
0
LINE
5
a07
100
AcDbEntity
8
0-6戸当り
6
CONTINUOUS
62
2
100
AcDbLine
10
863.662000000000
20
2408.849000000000
30
0.0
11
866.162000000000
21
2438.361000000000
31
0.0
0
LINE
5
a08
100
AcDbEntity
8
0-6戸当り
6
CONTINUOUS
62
2
100
AcDbLine
10
869.019000000000
20
2413.065000000000
30
0.0
11
864.020000000000
21
2413.065000000000
31
0.0
0
LINE
5
a09
100
AcDbEntity
8
0-6戸当り
6
CONTINUOUS
62
2
100
AcDbLine
10
869.376000000000
20
2417.281000000000
30
0.0
11
864.377000000000
21
2417.281000000000
31
0.0
0
LINE
5
a0a
100
AcDbEntity
8
0-6戸当り
6
CONTINUOUS
62
2
100
AcDbLine
10
869.734000000000
20
2421.497000000000
30
0.0
11
864.734000000000
21
2421.497000000000
31
0.0
0
LINE
5
a0b
100
AcDbEntity
8
0-6戸当り
6
CONTINUOUS
62
2
100
AcDbLine
10
870.091000000000
20
2425.713000000000
30
0.0
11
865.091000000000
21
2425.713000000000
31
0.0
0
LINE
5
a0c
100
AcDbEntity
8
0-6戸当り
6
CONTINUOUS
62
2
100
AcDbLine
10
870.447000000000
20
2429.929000000000
30
0.0
11
865.448000000000
21
2429.929000000000
31
0.0
0
LINE
5
a0d
100
AcDbEntity
8
0-6戸当り
6
CONTINUOUS
62
2
100
AcDbLine
10
870.805000000000
20
2434.145000000000
30
0.0
11
865.805000000000
21
2434.145000000000
31
0.0
0
LINE
5
a0e
100
AcDbEntity
8
0-6戸当り
6
CONTINUOUS
62
2
100
AcDbLine
10
856.162000000000
20
2438.361000000000
30
0.0
11
861.162000000000
21
2438.361000000000
31
0.0
0
LINE
5
a0f
100
AcDbEntity
8
0-6戸当り
6
CONTINUOUS
62
2
100
AcDbLine
10
858.663000000000
20
2404.647000000000
30
0.0
11
858.663000000000
21
2408.849000000000
31
0.0
0
LINE
5
a10
100
AcDbEntity
8
0-6戸当り
6
CONTINUOUS
62
2
100
AcDbLine
10
868.662000000000
20
2404.647000000000
30
0.0
11
868.662000000000
21
2408.849000000000
31
0.0
0
LINE
5
a11
100
AcDbEntity
8
0-6戸当り
6
CONTINUOUS
62
7
100
AcDbLine
10
989.162000000000
20
2370.247000000000
30
0.0
11
989.162000000000
21
2380.247000000000
31
0.0
0
LINE
5
a12
100
AcDbEntity
8
0-6戸当り
6
CONTINUOUS
62
7
100
AcDbLine
10
1008.162000000000
20
2370.247000000000
30
0.0
11
1008.162000000000
21
2380.247000000000
31
0.0
0
LINE
5
a13
100
AcDbEntity
8
0-6戸当り
6
CONTINUOUS
62
7
100
AcDbLine
10
1008.162000000000
20
2370.247000000000
30
0.0
11
989.162000000000
21
2370.247000000000
31
0.0
0
LINE
5
a14
100
AcDbEntity
8
0-6戸当り
6
CONTINUOUS
62
3
100
AcDbLine
10
1004.662000000000
20
2362.647000000000
30
0.0
11
992.662000000000
21
2362.647000000000
31
0.0
0
LINE
5
a15
100
AcDbEntity
8
0-6戸当り
6
CONTINUOUS
62
3
100
AcDbLine
10
1002.412000000000
20
2362.647000000000
30
0.0
11
1002.412000000000
21
2370.247000000000
31
0.0
0
LINE
5
a16
100
AcDbEntity
8
0-6戸当り
6
CONTINUOUS
62
3
100
AcDbLine
10
1004.662000000000
20
2362.647000000000
30
0.0
11
1004.662000000000
21
2370.247000000000
31
0.0
0
LINE
5
a17
100
AcDbEntity
8
0-6戸当り
6
CONTINUOUS
62
3
100
AcDbLine
10
994.912000000000
20
2362.647000000000
30
0.0
11
994.912000000000
21
2370.247000000000
31
0.0
0
LINE
5
a18
100
AcDbEntity
8
0-6戸当り
6
CONTINUOUS
62
3
100
AcDbLine
10
992.662000000000
20
2362.647000000000
30
0.0
11
992.662000000000
21
2370.247000000000
31
0.0
0
LINE
5
a19
100
AcDbEntity
8
0-6戸当り
6
CONTINUOUS
62
7
100
AcDbLine
10
998.662000000000
20
2371.096000000000
30
0.0
11
998.662000000000
21
2380.247000000000
31
0.0
0
LINE
5
a1a
100
AcDbEntity
8
0-5基準線
6
CENTER2
62
7
100
AcDbLine
10
998.662000000000
20
2359.701000000000
30
0.0
11
998.662000000000
21
2370.247000000000
31
0.0
0
ARC
5
a1b
100
AcDbEntity
8
0-6戸当り
6
CONTINUOUS
62
7
100
AcDbCircle
10
993.912000000000
20
2383.967000000000
30
0.0
40
13.720000000000
100
AcDbArc
50
249.744000000000
51
290.256000000000
0
ARC
5
a1c
100
AcDbEntity
8
0-6戸当り
6
CONTINUOUS
62
7
100
AcDbCircle
10
1003.412000000000
20
2383.967000000000
30
0.0
40
13.720000000000
100
AcDbArc
50
249.744000000000
51
290.256000000000
0
ARC
5
a1d
100
AcDbEntity
8
0-6戸当り
6
CONTINUOUS
62
2
100
AcDbCircle
10
998.662000000000
20
2381.726000000000
30
0.0
40
20.000000000000
100
AcDbArc
50
252.543000000000
51
287.457000000000
0
LINE
5
a1e
100
AcDbEntity
8
0-6戸当り
6
CONTINUOUS
62
7
100
AcDbLine
10
989.162000000000
20
2380.247000000000
30
0.0
11
989.162000000000
21
2390.247000000000
31
0.0
0
LINE
5
a1f
100
AcDbEntity
8
0-6戸当り
6
CONTINUOUS
62
7
100
AcDbLine
10
1008.162000000000
20
2380.247000000000
30
0.0
11
1008.162000000000
21
2390.247000000000
31
0.0
0
LINE
5
a20
100
AcDbEntity
8
0-6戸当り
6
CONTINUOUS
62
7
100
AcDbLine
10
1008.162000000000
20
2380.247000000000
30
0.0
11
989.162000000000
21
2380.247000000000
31
0.0
0
LINE
5
a21
100
AcDbEntity
8
0-6戸当り
6
CONTINUOUS
62
7
100
AcDbLine
10
998.662000000000
20
2381.096000000000
30
0.0
11
998.662000000000
21
2390.247000000000
31
0.0
0
ARC
5
a22
100
AcDbEntity
8
0-6戸当り
6
CONTINUOUS
62
7
100
AcDbCircle
10
993.912000000000
20
2393.967000000000
30
0.0
40
13.720000000000
100
AcDbArc
50
249.744000000000
51
290.256000000000
0
ARC
5
a23
100
AcDbEntity
8
0-6戸当り
6
CONTINUOUS
62
7
100
AcDbCircle
10
1003.412000000000
20
2393.967000000000
30
0.0
40
13.720000000000
100
AcDbArc
50
249.744000000000
51
290.256000000000
0
LINE
5
a24
100
AcDbEntity
8
0-9扉体
6
CONTINUOUS
62
4
100
AcDbLine
10
888.662000000000
20
2372.647000000000
30
0.0
11
989.162000000000
21
2372.647000000000
31
0.0
0
LINE
5
a25
100
AcDbEntity
8
0-9扉体
6
CONTINUOUS
62
6
100
AcDbLine
10
1008.162000000000
20
2375.029000000000
30
0.0
11
1025.780000000000
21
2392.647000000000
31
0.0
0
LINE
5
a26
100
AcDbEntity
8
0-9扉体
6
CONTINUOUS
62
6
100
AcDbLine
10
1008.162000000000
20
2376.443000000000
30
0.0
11
1024.366000000000
21
2392.647000000000
31
0.0
0
LINE
5
a27
100
AcDbEntity
8
0-9扉体
6
CONTINUOUS
62
4
100
AcDbLine
10
888.662000000000
20
2366.647000000000
30
0.0
11
992.662000000000
21
2366.647000000000
31
0.0
0
LINE
5
a28
100
AcDbEntity
8
0-9扉体
6
CONTINUOUS
62
4
100
AcDbLine
10
1008.162000000000
20
2372.647000000000
30
0.0
11
1036.062000000000
21
2372.647000000000
31
0.0
0
LINE
5
a29
100
AcDbEntity
8
0-9扉体
6
CONTINUOUS
62
4
100
AcDbLine
10
1004.662000000000
20
2366.647000000000
30
0.0
11
1025.162000000000
21
2366.647000000000
31
0.0
0
LINE
5
a2a
100
AcDbEntity
8
0-9扉体
6
CONTINUOUS
62
6
100
AcDbLine
10
1018.508000000000
20
2372.647000000000
30
0.0
11
1038.508000000000
21
2392.647000000000
31
0.0
0
LINE
5
a2b
100
AcDbEntity
8
0-6戸当り
6
CONTINUOUS
62
3
100
AcDbLine
10
1154.662000000000
20
2362.647000000000
30
0.0
11
1154.662000000000
21
2370.247000000000
31
0.0
0
LINE
5
a2c
100
AcDbEntity
8
0-5基準線
6
CENTER2
62
7
100
AcDbLine
10
1148.662000000000
20
2359.701000000000
30
0.0
11
1148.662000000000
21
2370.247000000000
31
0.0
0
LINE
5
a2d
100
AcDbEntity
8
0-6戸当り
6
CONTINUOUS
62
7
100
AcDbLine
10
1148.662000000000
20
2371.096000000000
30
0.0
11
1148.662000000000
21
2380.247000000000
31
0.0
0
LINE
5
a2e
100
AcDbEntity
8
0-6戸当り
6
CONTINUOUS
62
3
100
AcDbLine
10
1152.412000000000
20
2362.647000000000
30
0.0
11
1152.412000000000
21
2370.247000000000
31
0.0
0
LINE
5
a2f
100
AcDbEntity
8
0-6戸当り
6
CONTINUOUS
62
3
100
AcDbLine
10
1142.662000000000
20
2362.647000000000
30
0.0
11
1142.662000000000
21
2370.247000000000
31
0.0
0
LINE
5
a30
100
AcDbEntity
8
0-6戸当り
6
CONTINUOUS
62
3
100
AcDbLine
10
1144.912000000000
20
2362.647000000000
30
0.0
11
1144.912000000000
21
2370.247000000000
31
0.0
0
LINE
5
a31
100
AcDbEntity
8
0-6戸当り
6
CONTINUOUS
62
3
100
AcDbLine
10
1142.662000000000
20
2362.647000000000
30
0.0
11
1154.662000000000
21
2362.647000000000
31
0.0
0
LINE
5
a32
100
AcDbEntity
8
0-6戸当り
6
CONTINUOUS
62
7
100
AcDbLine
10
1139.162000000000
20
2370.247000000000
30
0.0
11
1158.162000000000
21
2370.247000000000
31
0.0
0
LINE
5
a33
100
AcDbEntity
8
0-6戸当り
6
CONTINUOUS
62
7
100
AcDbLine
10
1139.162000000000
20
2370.247000000000
30
0.0
11
1139.162000000000
21
2380.247000000000
31
0.0
0
ARC
5
a34
100
AcDbEntity
8
0-6戸当り
6
CONTINUOUS
62
2
100
AcDbCircle
10
1148.662000000000
20
2381.726000000000
30
0.0
40
20.000000000000
100
AcDbArc
50
252.543000000000
51
287.457000000000
0
ARC
5
a35
100
AcDbEntity
8
0-6戸当り
6
CONTINUOUS
62
7
100
AcDbCircle
10
1143.912000000000
20
2383.967000000000
30
0.0
40
13.720000000000
100
AcDbArc
50
249.744000000000
51
290.256000000000
0
ARC
5
a36
100
AcDbEntity
8
0-6戸当り
6
CONTINUOUS
62
7
100
AcDbCircle
10
1153.412000000000
20
2383.967000000000
30
0.0
40
13.720000000000
100
AcDbArc
50
249.744000000000
51
290.256000000000
0
LINE
5
a37
100
AcDbEntity
8
0-6戸当り
6
CONTINUOUS
62
7
100
AcDbLine
10
1148.662000000000
20
2381.096000000000
30
0.0
11
1148.662000000000
21
2390.247000000000
31
0.0
0
LINE
5
a38
100
AcDbEntity
8
0-6戸当り
6
CONTINUOUS
62
7
100
AcDbLine
10
1139.162000000000
20
2380.247000000000
30
0.0
11
1158.162000000000
21
2380.247000000000
31
0.0
0
LINE
5
a39
100
AcDbEntity
8
0-6戸当り
6
CONTINUOUS
62
7
100
AcDbLine
10
1139.162000000000
20
2380.247000000000
30
0.0
11
1139.162000000000
21
2390.247000000000
31
0.0
0
LINE
5
a3a
100
AcDbEntity
8
0-6戸当り
6
CONTINUOUS
62
7
100
AcDbLine
10
1158.162000000000
20
2380.247000000000
30
0.0
11
1158.162000000000
21
2390.247000000000
31
0.0
0
ARC
5
a3b
100
AcDbEntity
8
0-6戸当り
6
CONTINUOUS
62
7
100
AcDbCircle
10
1143.912000000000
20
2393.967000000000
30
0.0
40
13.720000000000
100
AcDbArc
50
249.744000000000
51
290.256000000000
0
ARC
5
a3c
100
AcDbEntity
8
0-6戸当り
6
CONTINUOUS
62
7
100
AcDbCircle
10
1153.412000000000
20
2393.967000000000
30
0.0
40
13.720000000000
100
AcDbArc
50
249.744000000000
51
290.256000000000
0
LINE
5
a3d
100
AcDbEntity
8
0-9扉体
6
CONTINUOUS
62
4
100
AcDbLine
10
1158.162000000000
20
2372.647000000000
30
0.0
11
1798.662000000000
21
2372.647000000000
31
0.0
0
LINE
5
a3e
100
AcDbEntity
8
0-9扉体
6
CONTINUOUS
62
4
100
AcDbLine
10
1154.662000000000
20
2366.647000000000
30
0.0
11
1798.662000000000
21
2366.647000000000
31
0.0
0
LINE
5
a3f
100
AcDbEntity
8
0-9扉体
6
CONTINUOUS
62
4
100
AcDbLine
10
1122.162000000000
20
2366.647000000000
30
0.0
11
1142.662000000000
21
2366.647000000000
31
0.0
0
LINE
5
a40
100
AcDbEntity
8
0-9扉体
6
CONTINUOUS
62
4
100
AcDbLine
10
1139.162000000000
20
2372.647000000000
30
0.0
11
1111.262000000000
21
2372.647000000000
31
0.0
0
LINE
5
a41
100
AcDbEntity
8
0-9扉体
6
CONTINUOUS
62
6
100
AcDbLine
10
1116.947000000000
20
2372.647000000000
30
0.0
11
1135.662000000000
21
2391.362000000000
31
0.0
0
LINE
5
a42
100
AcDbEntity
8
0-6戸当り
6
CONTINUOUS
62
3
100
AcDbLine
10
2653.995000000000
20
1654.800000000000
30
0.0
11
2662.944000000000
21
1654.800000000000
31
0.0
0
LINE
5
a43
100
AcDbEntity
8
0-6戸当り
6
CONTINUOUS
62
3
100
AcDbLine
10
2653.995000000000
20
1675.575000000000
30
0.0
11
2662.944000000000
21
1675.575000000000
31
0.0
0
LINE
5
a44
100
AcDbEntity
8
0-6戸当り
6
CONTINUOUS
62
3
100
AcDbLine
10
2653.194000000000
20
1674.188000000000
30
0.0
11
2653.194000000000
21
1656.187000000000
31
0.0
0
LINE
5
a45
100
AcDbEntity
8
0-6戸当り
6
CONTINUOUS
62
3
100
AcDbLine
10
2653.995000000000
20
1670.374000000000
30
0.0
11
2662.944000000000
21
1670.374000000000
31
0.0
0
LINE
5
a46
100
AcDbEntity
8
0-6戸当り
6
CONTINUOUS
62
3
100
AcDbLine
10
2653.995000000000
20
1660.001000000000
30
0.0
11
2662.944000000000
21
1660.001000000000
31
0.0
0
LINE
5
a47
100
AcDbEntity
8
0-6戸当り
6
CONTINUOUS
62
3
100
AcDbLine
10
2653.194000000000
20
1674.188000000000
30
0.0
11
2653.653000000000
21
1674.983000000000
31
0.0
0
LINE
5
a48
100
AcDbEntity
8
0-6戸当り
6
CONTINUOUS
62
3
100
AcDbLine
10
2653.194000000000
20
1656.187000000000
30
0.0
11
2653.653000000000
21
1655.392000000000
31
0.0
0
LINE
5
a49
100
AcDbEntity
8
0-6戸当り
6
CONTINUOUS
62
3
100
AcDbLine
10
2645.344000000000
20
1671.187000000000
30
0.0
11
2645.344000000000
21
1659.187000000000
31
0.0
0
LINE
5
a4a
100
AcDbEntity
8
0-6戸当り
6
CONTINUOUS
62
3
100
AcDbLine
10
2645.344000000000
20
1671.187000000000
30
0.0
11
2653.194000000000
21
1671.187000000000
31
0.0
0
LINE
5
a4b
100
AcDbEntity
8
0-6戸当り
6
CONTINUOUS
62
3
100
AcDbLine
10
2645.344000000000
20
1668.938000000000
30
0.0
11
2653.194000000000
21
1668.938000000000
31
0.0
0
LINE
5
a4c
100
AcDbEntity
8
0-6戸当り
6
CONTINUOUS
62
3
100
AcDbLine
10
2645.344000000000
20
1661.438000000000
30
0.0
11
2653.194000000000
21
1661.438000000000
31
0.0
0
LINE
5
a4d
100
AcDbEntity
8
0-6戸当り
6
CONTINUOUS
62
3
100
AcDbLine
10
2645.344000000000
20
1659.187000000000
30
0.0
11
2653.194000000000
21
1659.187000000000
31
0.0
0
ARC
5
a4e
100
AcDbEntity
8
0-6戸当り
6
CONTINUOUS
62
3
100
AcDbCircle
10
2657.815000000000
20
1672.975000000000
30
0.0
40
4.621000000000
100
AcDbArc
50
145.757000000000
51
214.243000000000
0
ARC
5
a4f
100
AcDbEntity
8
0-6戸当り
6
CONTINUOUS
62
3
100
AcDbCircle
10
2670.384000000000
20
1665.188000000000
30
0.0
40
17.190000000000
100
AcDbArc
50
162.440000000000
51
197.560000000000
0
ARC
5
a50
100
AcDbEntity
8
0-6戸当り
6
CONTINUOUS
62
3
100
AcDbCircle
10
2657.815000000000
20
1657.400000000000
30
0.0
40
4.621000000000
100
AcDbArc
50
145.757000000000
51
214.243000000000
0
ARC
5
a51
100
AcDbEntity
8
0-6戸当り
6
CONTINUOUS
62
2
100
AcDbCircle
10
2664.423000000000
20
1665.188000000000
30
0.0
40
20.000000000000
100
AcDbArc
50
162.543000000000
51
197.457000000000
0
LINE
5
a52
100
AcDbEntity
8
0-6戸当り
6
CONTINUOUS
62
3
100
AcDbLine
10
2663.745000000000
20
1654.800000000000
30
0.0
11
2672.694000000000
21
1654.800000000000
31
0.0
0
LINE
5
a53
100
AcDbEntity
8
0-6戸当り
6
CONTINUOUS
62
3
100
AcDbLine
10
2663.745000000000
20
1675.575000000000
30
0.0
11
2672.694000000000
21
1675.575000000000
31
0.0
0
LINE
5
a54
100
AcDbEntity
8
0-6戸当り
6
CONTINUOUS
62
3
100
AcDbLine
10
2662.944000000000
20
1674.188000000000
30
0.0
11
2662.944000000000
21
1656.187000000000
31
0.0
0
LINE
5
a55
100
AcDbEntity
8
0-6戸当り
6
CONTINUOUS
62
3
100
AcDbLine
10
2663.745000000000
20
1670.374000000000
30
0.0
11
2672.694000000000
21
1670.374000000000
31
0.0
0
LINE
5
a56
100
AcDbEntity
8
0-6戸当り
6
CONTINUOUS
62
3
100
AcDbLine
10
2663.745000000000
20
1660.001000000000
30
0.0
11
2672.694000000000
21
1660.001000000000
31
0.0
0
LINE
5
a57
100
AcDbEntity
8
0-6戸当り
6
CONTINUOUS
62
3
100
AcDbLine
10
2662.944000000000
20
1674.188000000000
30
0.0
11
2663.403000000000
21
1674.983000000000
31
0.0
0
LINE
5
a58
100
AcDbEntity
8
0-6戸当り
6
CONTINUOUS
62
3
100
AcDbLine
10
2662.944000000000
20
1656.187000000000
30
0.0
11
2663.403000000000
21
1655.392000000000
31
0.0
0
ARC
5
a59
100
AcDbEntity
8
0-6戸当り
6
CONTINUOUS
62
3
100
AcDbCircle
10
2667.565000000000
20
1672.975000000000
30
0.0
40
4.621000000000
100
AcDbArc
50
145.757000000000
51
214.243000000000
0
ARC
5
a5a
100
AcDbEntity
8
0-6戸当り
6
CONTINUOUS
62
3
100
AcDbCircle
10
2680.134000000000
20
1665.188000000000
30
0.0
40
17.190000000000
100
AcDbArc
50
162.440000000000
51
197.560000000000
0
ARC
5
a5b
100
AcDbEntity
8
0-6戸当り
6
CONTINUOUS
62
3
100
AcDbCircle
10
2667.565000000000
20
1657.400000000000
30
0.0
40
4.621000000000
100
AcDbArc
50
145.757000000000
51
214.243000000000
0
LINE
5
a5c
100
AcDbEntity
8
0-6戸当り
6
CONTINUOUS
62
3
100
AcDbLine
10
2662.944000000000
20
1675.575000000000
30
0.0
11
2662.944000000000
21
1654.800000000000
31
0.0
0
ARC
5
a5d
100
AcDbEntity
8
0-9扉体
6
CONTINUOUS
62
4
100
AcDbCircle
10
2643.594000000000
20
1644.188000000000
30
0.0
40
15.000000000000
100
AcDbArc
50
0.000000000000
51
45.029168395122
0
ARC
5
a5e
100
AcDbEntity
8
0-9扉体
6
CONTINUOUS
62
4
100
AcDbCircle
10
2643.594000000000
20
1644.188000000000
30
0.0
40
15.000000000000
100
AcDbArc
50
47.517304764946
51
90.000000000000
0
TEXT
5
a5f
100
AcDbEntity
8
0-7図枠
62
7
370
-3
100
AcDbText
10
3235.673
20
269.432
30
0.0
40
37.807
41
0.714
50
0.000
1
R5.12.1
72
1
11
3312.500
21
285.000
31
0.0
100
AcDbText
73
2
0
TEXT
5
a60
100
AcDbEntity
8
0-A文字
62
7
370
-3
100
AcDbText
10
3071.801
20
756.840
30
0.0
40
29.405
1
　　　塗装とし、色調はグレー（マンセル値Ｎ７）
41
0.856
50
0.000
100
AcDbText
0
POLYLINE
5
a61
100
AcDbEntity
8
0-7図枠
6
CONTINUOUS
62
  7
100
AcDb2dPolyline
66
1
10
0.0
20
0.0
30
0.0
70
0
0
VERTEX
5
a62
100
AcDbEntity
8
0-7図枠
6
CONTINUOUS
62
  7
100
AcDbVertex
100
AcDb2dVertex
10
3850.000000000000
20
2700.000000000000
30
0.0
0
VERTEX
5
a63
100
AcDbEntity
8
0-7図枠
6
CONTINUOUS
62
  7
100
AcDbVertex
100
AcDb2dVertex
10
4050.000000000000
20
2700.000000000000
30
0.0
0
VERTEX
5
a64
100
AcDbEntity
8
0-7図枠
6
CONTINUOUS
62
  7
100
AcDbVertex
100
AcDb2dVertex
10
4050.000000000000
20
2770.000000000000
30
0.0
0
VERTEX
5
a65
100
AcDbEntity
8
0-7図枠
6
CONTINUOUS
62
  7
100
AcDbVertex
100
AcDb2dVertex
10
3850.000000000000
20
2770.000000000000
30
0.0
0
VERTEX
5
a66
100
AcDbEntity
8
0-7図枠
6
CONTINUOUS
62
  7
100
AcDbVertex
100
AcDb2dVertex
10
3850.000000000000
20
2700.000000000000
30
0.0
0
SEQEND
5
a67
100
AcDbEntity
8
0-7図枠
0
POLYLINE
5
a68
100
AcDbEntity
8
0-7図枠
6
CONTINUOUS
62
  7
100
AcDb2dPolyline
66
1
10
0.0
20
0.0
30
0.0
70
0
0
VERTEX
5
a69
100
AcDbEntity
8
0-7図枠
6
CONTINUOUS
62
  7
100
AcDbVertex
100
AcDb2dVertex
10
3090.000000000000
20
2700.000000000000
30
0.0
0
VERTEX
5
a6a
100
AcDbEntity
8
0-7図枠
6
CONTINUOUS
62
  7
100
AcDbVertex
100
AcDb2dVertex
10
3200.000000000000
20
2700.000000000000
30
0.0
0
VERTEX
5
a6b
100
AcDbEntity
8
0-7図枠
6
CONTINUOUS
62
  7
100
AcDbVertex
100
AcDb2dVertex
10
3200.000000000000
20
2770.000000000000
30
0.0
0
VERTEX
5
a6c
100
AcDbEntity
8
0-7図枠
6
CONTINUOUS
62
  7
100
AcDbVertex
100
AcDb2dVertex
10
3090.000000000000
20
2770.000000000000
30
0.0
0
VERTEX
5
a6d
100
AcDbEntity
8
0-7図枠
6
CONTINUOUS
62
  7
100
AcDbVertex
100
AcDb2dVertex
10
3090.000000000000
20
2700.000000000000
30
0.0
0
SEQEND
5
a6e
100
AcDbEntity
8
0-7図枠
0
POLYLINE
5
a6f
100
AcDbEntity
8
0-7図枠
6
CONTINUOUS
62
  7
100
AcDb2dPolyline
66
1
10
0.0
20
0.0
30
0.0
70
0
0
VERTEX
5
a70
100
AcDbEntity
8
0-7図枠
6
CONTINUOUS
62
  7
100
AcDbVertex
100
AcDb2dVertex
10
3200.000000000000
20
2700.000000000000
30
0.0
0
VERTEX
5
a71
100
AcDbEntity
8
0-7図枠
6
CONTINUOUS
62
  7
100
AcDbVertex
100
AcDb2dVertex
10
3650.000000000000
20
2700.000000000000
30
0.0
0
VERTEX
5
a72
100
AcDbEntity
8
0-7図枠
6
CONTINUOUS
62
  7
100
AcDbVertex
100
AcDb2dVertex
10
3650.000000000000
20
2770.000000000000
30
0.0
0
VERTEX
5
a73
100
AcDbEntity
8
0-7図枠
6
CONTINUOUS
62
  7
100
AcDbVertex
100
AcDb2dVertex
10
3200.000000000000
20
2770.000000000000
30
0.0
0
VERTEX
5
a74
100
AcDbEntity
8
0-7図枠
6
CONTINUOUS
62
  7
100
AcDbVertex
100
AcDb2dVertex
10
3200.000000000000
20
2700.000000000000
30
0.0
0
SEQEND
5
a75
100
AcDbEntity
8
0-7図枠
0
POLYLINE
5
a76
100
AcDbEntity
8
0-7図枠
6
CONTINUOUS
62
  7
100
AcDb2dPolyline
66
1
10
0.0
20
0.0
30
0.0
70
0
0
VERTEX
5
a77
100
AcDbEntity
8
0-7図枠
6
CONTINUOUS
62
  7
100
AcDbVertex
100
AcDb2dVertex
10
3650.000000000000
20
2700.000000000000
30
0.0
0
VERTEX
5
a78
100
AcDbEntity
8
0-7図枠
6
CONTINUOUS
62
  7
100
AcDbVertex
100
AcDb2dVertex
10
3850.000000000000
20
2700.000000000000
30
0.0
0
VERTEX
5
a79
100
AcDbEntity
8
0-7図枠
6
CONTINUOUS
62
  7
100
AcDbVertex
100
AcDb2dVertex
10
3850.000000000000
20
2770.000000000000
30
0.0
0
VERTEX
5
a7a
100
AcDbEntity
8
0-7図枠
6
CONTINUOUS
62
  7
100
AcDbVertex
100
AcDb2dVertex
10
3650.000000000000
20
2770.000000000000
30
0.0
0
VERTEX
5
a7b
100
AcDbEntity
8
0-7図枠
6
CONTINUOUS
62
  7
100
AcDbVertex
100
AcDb2dVertex
10
3650.000000000000
20
2700.000000000000
30
0.0
0
SEQEND
5
a7c
100
AcDbEntity
8
0-7図枠
0
TEXT
5
a7d
100
AcDbEntity
8
0-7図枠
62
7
370
-3
100
AcDbText
10
3686.599
20
2720.142
30
0.0
40
33.660
1
日　付
41
0.963
50
0.000
100
AcDbText
0
TEXT
5
a7e
100
AcDbEntity
8
0-7図枠
62
7
370
-3
100
AcDbText
10
3294.099
20
2720.142
30
0.0
40
33.660
1
修　　　　正
41
0.963
50
0.000
100
AcDbText
0
TEXT
5
a7f
100
AcDbEntity
8
0-7図枠
62
7
370
-3
100
AcDbText
10
3104.099
20
2720.142
30
0.0
40
33.660
1
記号
41
0.963
50
0.000
100
AcDbText
0
TEXT
5
a80
100
AcDbEntity
8
0-7図枠
62
7
370
-3
100
AcDbText
10
3886.599
20
2720.142
30
0.0
40
33.660
1
担　当
41
0.963
50
0.000
100
AcDbText
0
LINE
5
a81
100
AcDbEntity
8
F-F_J_ADD
6
HIDDEN
62
109
100
AcDbLine
10
3650.000000000000
20
2735.000000000000
30
0.0
11
3850.000000000000
21
2735.000000000000
31
0.0
0
LINE
5
a82
100
AcDbEntity
8
F-F_J_ADD
6
HIDDEN
62
109
100
AcDbLine
10
3200.000000000000
20
2735.000000000000
30
0.0
11
3650.000000000000
21
2735.000000000000
31
0.0
0
LINE
5
a83
100
AcDbEntity
8
F-F_J_ADD
6
HIDDEN
62
109
100
AcDbLine
10
3090.000000000000
20
2735.000000000000
30
0.0
11
3200.000000000000
21
2735.000000000000
31
0.0
0
LINE
5
a84
100
AcDbEntity
8
F-F_J_ADD
6
HIDDEN
62
109
100
AcDbLine
10
3145.000000000000
20
2770.000000000000
30
0.0
11
3145.000000000000
21
2700.000000000000
31
0.0
0
LINE
5
a85
100
AcDbEntity
8
F-F_J_ADD
6
HIDDEN
62
109
100
AcDbLine
10
3425.000000000000
20
2700.000000000000
30
0.0
11
3425.000000000000
21
2770.000000000000
31
0.0
0
LINE
5
a86
100
AcDbEntity
8
F-F_J_ADD
6
HIDDEN
62
109
100
AcDbLine
10
3750.000000000000
20
2700.000000000000
30
0.0
11
3750.000000000000
21
2770.000000000000
31
0.0
0
LINE
5
a87
100
AcDbEntity
8
F-F_J_ADD
6
HIDDEN
62
109
100
AcDbLine
10
3850.000000000000
20
2735.000000000000
30
0.0
11
4050.000000000000
21
2735.000000000000
31
0.0
0
LINE
5
a88
100
AcDbEntity
8
F-F_J_ADD
6
HIDDEN
62
109
100
AcDbLine
10
3950.000000000000
20
2700.000000000000
30
0.0
11
3950.000000000000
21
2770.000000000000
31
0.0
0
ENDSEC
 0
SECTION
  2
OBJECTS
 0
DICTIONARY
  5
C
100
AcDbDictionary
  3
ACAD_GROUP
350
D
  3
ACAD_MLINESTYLE
350
E
 0
DICTIONARY
  5
D
102
{ACAD_REACTORS
102
}
100
AcDbDictionary
 0
DICTIONARY
  5
E
102
{ACAD_REACTORS
102
}
100
AcDbDictionary
  3
STANDARD
350
13
0
MLINESTYLE
  5
13
102
{ACAD_REACTORS
102
}
100
AcDbMlineStyle
  2
STANDARD
 70
    0
3

62
256
51
90.0
52
90.0
71
0
0
ACDBPLACEHOLDER
  5
14
102
{ACAD_REACTORS
102
}
0
ENDSEC
0
EOF
