0
SECTION
2
HEADER
9
$ACADVER
1
AC1015
9
$ACADMAINTVER
 70
6
9
$DWGCODEPAGE
3
ANSI_932
9
$EXTMIN
10
0.000
20
0.000
30
0.0
9
$EXTMAX
10
420.000
20
297.000
30
0.0
9
$LIMMIN
10
0.000
20
0.000
9
$LIMMAX
10
420.000
20
297.000
9
$DIMSCALE
40
1.000000
9
$LTSCALE
40
2.000
9
$PDMODE
70
0
9
$PDSIZE
40
40.0
9
$HANDSEED
5
62035
9
$UNITMODE
70
0
9
$VISRETAIN
70
0
9
$PLINEGEN
70
0
9
$PSLTSCALE
70
1
9
$TREEDEPTH
70
3020
9
$CMLSTYLE
2
STANDARD
9
$CMLJUST
70
0
9
$CMLSCALE
40
1.0
9
$PROXYGRAPHICS
70
1
9
$MEASUREMENT
70
0
9
$CELWEIGHT
370
-1
9
$ENDCAPS
280
0
9
$JOINSTYLE
280
0
9
$LWDISPLAY
290
0
9
$INSUNITS
70
0
9
$HYPERLINKBASE
1

9
$STYLESHEET
1

9
$XEDIT
290
1
9
$CEPSNTYPE
380
0
9
$PSTYLEMODE
290
1
9
$FINGERPRINTGUID
2
{5F082321-0195-11D3-BDFB-0060B0CD5109}
9
$VERSIONGUID
2
{12943756-294D-11D3-98C2-0060B087942D}
9
$EXTNAMES
290
1
9
$PSVPSCALE
40
0.0
9
$OLESTARTUP
290
0
0
ENDSEC
0
SECTION
  2
CLASSES
0
ENDSEC
0
SECTION
2
TABLES
0
TABLE
2
VPORT
5
190
100
AcDbSymbolTable
70
2
0
VPORT
5
191
100
AcDbSymbolTableRecord
100
AcDbViewportTableRecord
2
*ACTIVE
70
0
10
0.0
20
0.0
11
1.0
21
1.0
12
210.000
22
148.500
13
0.0
23
0.0
14
1.0
24
1.0
15
0.0
25
0.0
16
0.0
26
0.0
36
1.0
17
0.0
27
0.0
37
0.0
40
304.348
41
2.0
42
50.0
43
0.0
44
0.0
50
0.0
51
0.0
71
0
72
1000
73
1
74
1
75
0
76
0
77
0
78
0
0
ENDTAB
0
TABLE
2
LTYPE
5
1f4
100
AcDbSymbolTable
70
9
0
LTYPE
5
1f5
100
AcDbSymbolTableRecord
100
AcDbLinetypeTableRecord
2
BYBLOCK
70
 64
3

72
 65
73
  0
40
0.0
0
LTYPE
5
1f6
100
AcDbSymbolTableRecord
100
AcDbLinetypeTableRecord
2
BYLAYER
70
 64
3

72
 65
73
  0
40
0.0
0
LTYPE
5
1f7
100
AcDbSymbolTableRecord
100
AcDbLinetypeTableRecord
2
CONTINUOUS
70
64
3
SolidLine
72
65
73
0
40
0.0
0
LTYPE
5
1f8
100
AcDbSymbolTableRecord
100
AcDbLinetypeTableRecord
2
DOT
70
64
3
--  --  --  --  --  --  --  --     
72
65
73
2
40
3.000
49
1.000
74
0
49
-2.000
74
0
0
LTYPE
5
1f9
100
AcDbSymbolTableRecord
100
AcDbLinetypeTableRecord
2
DASHED
70
64
3
----    ----    ----    ----    
72
65
73
2
40
5.000
49
2.000
74
0
49
-3.000
74
0
0
LTYPE
5
1fa
100
AcDbSymbolTableRecord
100
AcDbLinetypeTableRecord
2
DASHED2
70
64
3
------  ------  ------  ------ 
72
65
73
2
40
10.000
49
4.000
74
0
49
-6.000
74
0
0
LTYPE
5
1fb
100
AcDbSymbolTableRecord
100
AcDbLinetypeTableRecord
2
CENTER
70
64
3
----- - ----- - ----- - ----- - 
72
65
73
4
40
10.000
49
6.000
74
0
49
-3.000
74
0
49
1.000
74
0
49
-3.000
74
0
0
LTYPE
5
1fc
100
AcDbSymbolTableRecord
100
AcDbLinetypeTableRecord
2
CENTER2
70
64
3
----------  --  ----------  -- 
72
65
73
4
40
17.000
49
12.000
74
0
49
-5.000
74
0
49
2.000
74
0
49
-5.000
74
0
0
LTYPE
5
1fd
100
AcDbSymbolTableRecord
100
AcDbLinetypeTableRecord
2
PHANTOM
70
64
3
--- - - --- - - --- - - --- - -
72
65
73
6
40
13.000
49
5.000
74
0
49
-3.000
74
0
49
1.000
74
0
49
-3.000
74
0
49
1.000
74
0
49
-3.000
74
0
0
LTYPE
5
1fe
100
AcDbSymbolTableRecord
100
AcDbLinetypeTableRecord
2
PHANTOM2
70
64
3
--------  -  -  --------  -  -
72
65
73
6
40
20.000
49
6.000
74
0
49
-5.000
74
0
49
2.000
74
0
49
-5.000
74
0
49
2.000
74
0
49
-5.000
74
0
0
LTYPE
5
1ff
100
AcDbSymbolTableRecord
100
AcDbLinetypeTableRecord
2
HIDDEN
70
64
3
-   -   -   -   -   -   -   -   
72
65
73
2
40
3.000
49
0.500
74
0
49
-2.500
74
0
0
ENDTAB
0
TABLE
2
STYLE
5
200
100
AcDbSymbolTable
70
1
0
STYLE
5
201
100
AcDbSymbolTableRecord
100
AcDbTextStyleTableRecord
2
STANDARD
70
0
40
0.0
41
1.0
50
0.0
71
0
42
0.0
3
txt.shx
4
extfont.shx
0
STYLE
5
202
100
AcDbSymbolTableRecord
100
AcDbTextStyleTableRecord
2
TATEGAKI
70
4
40
0.0
41
1.0
50
0.0
71
0
42
0.0
3
txt.shx
4
extfont.shx
0
STYLE
5
203
100
AcDbSymbolTableRecord
100
AcDbTextStyleTableRecord
2
DIM
70
0
40
0.0
41
0.75
50
0.0
71
0
42
0.0
3
txt.shx
4
extfont.shx
0
STYLE
5
204
100
AcDbSymbolTableRecord
100
AcDbTextStyleTableRecord
2
_Gothic_
70
0
40
1.0
41
1.0
50
0.0
71
0
42
10.0
3

4

1001
ACAD
1000
MS Gothic
1071
32817
0
STYLE
5
205
100
AcDbSymbolTableRecord
100
AcDbTextStyleTableRecord
2
_TateGothic_
70
4
40
0.0
41
1.0
50
0.0
71
0
42
0.0
3
@MS Gothic
4

0
ENDTAB
0
TABLE
2
VIEW
5
206
100
AcDbSymbolTable
70
0
0
ENDTAB
0
TABLE
2
UCS
5
207
100
AcDbSymbolTable
70
0
0
ENDTAB
0
TABLE
2
APPID
5
208
100
AcDbSymbolTable
70
1
0
APPID
5
209
100
AcDbSymbolTableRecord
100
AcDbRegAppTableRecord
2
ACAD
70
0
0
ENDTAB
0
TABLE
2
DIMSTYLE
5
403
330
0
100
AcDbSymbolTable
70
1
100
AcDbDimStyleTable
71
0
0
DIMSTYLE
105
404
330
402
100
AcDbSymbolTableRecord
100
AcDbDimStyleTableRecord
2
JAC_DIM
70
0
41
2.000
42
0.000
44
0.0
73
0
74
0
77
1
78
8
79
2
140
0.000
170
0
171
2
172
0
173
0
174
0
175
0
176
0
177
0
178
0
270
2
271
0
272
0
273
2
274
2
340
201
275
0
280
0
281
0
282
0
283
0
284
0
285
0
286
0
287
3
288
0
0
ENDTAB
0
TABLE
2
BLOCK_RECORD
5
405
100
AcDbSymbolTable
70
0
0
BLOCK_RECORD
5
406
100
AcDbSymbolTableRecord
100
AcDbBlockTableRecord
2
*MODEL_SPACE
0
BLOCK_RECORD
5
407
100
AcDbSymbolTableRecord
100
AcDbBlockTableRecord
2
*PAPER_SPACE
0
BLOCK_RECORD
5
408
100
AcDbSymbolTableRecord
100
AcDbBlockTableRecord
2
_JACCONVERT_
0
ENDTAB
0
TABLE
2
LAYER
5
409
100
AcDbSymbolTable
70
10
0
LAYER
5
40a
100
AcDbSymbolTableRecord
100
AcDbLayerTableRecord
2
0
70
0
62
7
6
CONTINUOUS
370
-3
390
14
0
LAYER
5
40b
100
AcDbSymbolTableRecord
100
AcDbLayerTableRecord
2
0-0
70
0
62
7
6
CONTINUOUS
370
-3
390
14
0
LAYER
5
40c
100
AcDbSymbolTableRecord
100
AcDbLayerTableRecord
2
0-1
70
0
62
7
6
CONTINUOUS
370
-3
390
14
0
LAYER
5
40d
100
AcDbSymbolTableRecord
100
AcDbLayerTableRecord
2
1-0
70
0
62
7
6
CONTINUOUS
370
-3
390
14
0
LAYER
5
40e
100
AcDbSymbolTableRecord
100
AcDbLayerTableRecord
2
1-8
70
0
62
7
6
CONTINUOUS
370
-3
390
14
0
LAYER
5
40f
100
AcDbSymbolTableRecord
100
AcDbLayerTableRecord
2
3-0
70
0
62
7
6
CONTINUOUS
370
-3
390
14
0
LAYER
5
410
100
AcDbSymbolTableRecord
100
AcDbLayerTableRecord
2
3-1
70
0
62
7
6
CONTINUOUS
370
-3
390
14
0
LAYER
5
411
100
AcDbSymbolTableRecord
100
AcDbLayerTableRecord
2
3-3
70
0
62
7
6
CONTINUOUS
370
-3
390
14
0
LAYER
5
412
100
AcDbSymbolTableRecord
100
AcDbLayerTableRecord
2
3-4
70
0
62
7
6
CONTINUOUS
370
-3
390
14
0
LAYER
5
413
100
AcDbSymbolTableRecord
100
AcDbLayerTableRecord
2
3-6
70
0
62
7
6
CONTINUOUS
370
-3
390
14
0
LAYER
5
414
100
AcDbSymbolTableRecord
100
AcDbLayerTableRecord
2
3-A
70
0
62
7
6
CONTINUOUS
370
-3
390
14
0
LAYER
5
415
100
AcDbSymbolTableRecord
100
AcDbLayerTableRecord
2
3-B
70
0
62
7
6
CONTINUOUS
370
-3
390
14
0
LAYER
5
416
100
AcDbSymbolTableRecord
100
AcDbLayerTableRecord
2
3-E
70
0
62
7
6
CONTINUOUS
370
-3
390
14
0
LAYER
5
417
100
AcDbSymbolTableRecord
100
AcDbLayerTableRecord
2
9-0
70
0
62
7
6
CONTINUOUS
370
-3
390
14
0
LAYER
5
418
100
AcDbSymbolTableRecord
100
AcDbLayerTableRecord
2
9-1
70
0
62
7
6
CONTINUOUS
370
-3
390
14
0
LAYER
5
419
100
AcDbSymbolTableRecord
100
AcDbLayerTableRecord
2
9-2
70
0
62
7
6
CONTINUOUS
370
-3
390
14
0
LAYER
5
41a
100
AcDbSymbolTableRecord
100
AcDbLayerTableRecord
2
9-5
70
0
62
7
6
CONTINUOUS
370
-3
390
14
0
LAYER
5
41b
100
AcDbSymbolTableRecord
100
AcDbLayerTableRecord
2
9-6
70
0
62
7
6
CONTINUOUS
370
-3
390
14
0
LAYER
5
41c
100
AcDbSymbolTableRecord
100
AcDbLayerTableRecord
2
9-B
70
0
62
7
6
CONTINUOUS
370
-3
390
14
0
LAYER
5
41d
100
AcDbSymbolTableRecord
100
AcDbLayerTableRecord
2
9-E
70
0
62
7
6
CONTINUOUS
370
-3
390
14
0
LAYER
5
41e
100
AcDbSymbolTableRecord
100
AcDbLayerTableRecord
2
B-0
70
0
62
7
6
CONTINUOUS
370
-3
390
14
0
LAYER
5
41f
100
AcDbSymbolTableRecord
100
AcDbLayerTableRecord
2
B-1
70
0
62
7
6
CONTINUOUS
370
-3
390
14
0
LAYER
5
420
100
AcDbSymbolTableRecord
100
AcDbLayerTableRecord
2
B-4
70
0
62
7
6
CONTINUOUS
370
-3
390
14
0
LAYER
5
421
100
AcDbSymbolTableRecord
100
AcDbLayerTableRecord
2
B-B
70
0
62
7
6
CONTINUOUS
370
-3
390
14
0
LAYER
5
422
100
AcDbSymbolTableRecord
100
AcDbLayerTableRecord
2
B-E
70
0
62
7
6
CONTINUOUS
370
-3
390
14
0
LAYER
5
423
100
AcDbSymbolTableRecord
100
AcDbLayerTableRecord
2
F-F_J_ADD
70
0
62
7
6
CONTINUOUS
290
0
370
-3
390
14
0
LAYER
5
424
100
AcDbSymbolTableRecord
100
AcDbLayerTableRecord
2
F-E_J_ADD
70
0
62
-7
6
CONTINUOUS
290
0
370
-3
390
14
0
ENDTAB
0
ENDSEC
0
SECTION
2
BLOCKS
0
BLOCK
5
425
100
AcDbEntity
67
1
8
0
100
AcDbBlockBegin
2
*MODEL_SPACE
70
0
10
0.0
20
0.0
30
0.0
3
*MODEL_SPACE
1

0
ENDBLK
5
426
100
AcDbEntity
8
0
100
AcDbBlockEnd
0
BLOCK
5
427
100
AcDbEntity
67
1
8
0
100
AcDbBlockBegin
2
*PAPER_SPACE
70
0
10
0.0
20
0.0
30
0.0
3
*PAPER_SPACE
1

0
ENDBLK
5
428
100
AcDbEntity
67
1
8
0
100
AcDbBlockEnd
0
BLOCK
5
429
100
AcDbEntity
8
0
100
AcDbBlockBegin
2
_JACCONVERT_
70
2
10
0.0
20
0.0
30
0.0
3
_JACCONVERT_
1
_JACCONVERT_
0
ATTDEF
5
42a
100
AcDbEntity
8
0
62
0
100
AcDbText
10
0.0
20
0.0
30
0.0
40
1.0
1
User:33307E08109409567083093083089083760830E50960850900C608B4808D6408F6408F4F08E
100
AcDbAttributeDefinition
3

2
USER
70
8
0
ATTDEF
5
42b
100
AcDbEntity
8
0
62
0
100
AcDbText
10
0.0
20
2.0
30
0.0
40
1.0
1
Date:24/01/30 10:25
100
AcDbAttributeDefinition
3

2
REVDATE
70
8
0
ATTDEF
5
42c
100
AcDbEntity
8
0
62
0
100
AcDbText
10
0.0
20
4.0
30
0.0
40
1.0
1
File:_三方水密（埋込み）.dxf
100
AcDbAttributeDefinition
3

2
FNAME
70
8
0
ATTDEF
5
42d
100
AcDbEntity
8
0
62
0
100
AcDbText
10
0.0
20
6.0
30
0.0
40
1.0
1
JacConvert Version3.13p copyright (c) 2001-2021 K.Nakahara
100
AcDbAttributeDefinition
3

2
VER
70
8
0
ENDBLK
5
42e
100
AcDbEntity
67
1
8
0
100
AcDbBlockEnd
0
ENDSEC
0
SECTION
2
ENTITIES
0
LINE
5
42f
100
AcDbEntity
8
B-0
6
CONTINUOUS
62
7
100
AcDbLine
10
296.542484772888
20
101.026781250000
30
0.0
11
251.073141022888
21
101.026781250000
31
0.0
0
TEXT
5
430
100
AcDbEntity
8
B-0
62
7
370
-3
100
AcDbText
10
282.419
20
75.596
30
0.0
40
2.175
41
0.631
50
0.000
1
150
72
1
11
284.254
21
76.492
31
0.0
100
AcDbText
73
2
0
LINE
5
431
100
AcDbEntity
8
B-0
6
CONTINUOUS
62
4
100
AcDbLine
10
293.629109772888
20
101.026781250000
30
0.0
11
293.629109772888
21
85.401750000000
31
0.0
0
TEXT
5
432
100
AcDbEntity
8
1-8
62
7
370
-3
100
AcDbText
10
351.364
20
27.007
30
0.0
40
3.626
41
0.856
50
0.000
1
熊崎
72
1
11
355.500
21
28.500
31
0.0
100
AcDbText
73
2
0
MTEXT
5
433
100
AcDbEntity
8
1-8
62
7
370
-3
100
AcDbMText
10
362.504
20
48.722
30
0.0
40
2.568
41
0.000
71
7
72
1
1
\W0.972;型式{\W0.700; KMSL-    -3PS}
7
STANDARD
11
1.00000
21
0.00000
31
0.0
0
TEXT
5
434
100
AcDbEntity
8
1-8
62
7
370
-3
100
AcDbText
10
357.411
20
42.567
30
0.0
40
3.554
1
簡易スルースゲート
41
0.856
50
0.000
100
AcDbText
0
POLYLINE
5
435
100
AcDbEntity
8
1-0
6
CONTINUOUS
62
  4
100
AcDb2dPolyline
66
1
10
0.0
20
0.0
30
0.0
70
0
0
VERTEX
5
436
100
AcDbEntity
8
1-0
6
CONTINUOUS
62
  4
100
AcDbVertex
100
AcDb2dVertex
10
194.062400000000
20
27.807200000000
30
0.0
0
VERTEX
5
437
100
AcDbEntity
8
1-0
6
CONTINUOUS
62
  4
100
AcDbVertex
100
AcDb2dVertex
10
194.062400000000
20
30.807200000000
30
0.0
0
VERTEX
5
438
100
AcDbEntity
8
1-0
6
CONTINUOUS
62
  4
100
AcDbVertex
100
AcDb2dVertex
10
206.062400000000
20
30.807200000000
30
0.0
0
VERTEX
5
439
100
AcDbEntity
8
1-0
6
CONTINUOUS
62
  4
100
AcDbVertex
100
AcDb2dVertex
10
206.062400000000
20
27.807200000000
30
0.0
0
VERTEX
5
43a
100
AcDbEntity
8
1-0
6
CONTINUOUS
62
  4
100
AcDbVertex
100
AcDb2dVertex
10
194.062400000000
20
27.807200000000
30
0.0
0
SEQEND
5
43b
100
AcDbEntity
8
1-0
0
LINE
5
43c
100
AcDbEntity
8
1-0
6
CONTINUOUS
62
4
100
AcDbLine
10
205.139200000000
20
27.807200000000
30
0.0
11
206.062400000000
21
28.730400000000
31
0.0
0
LINE
5
43d
100
AcDbEntity
8
1-0
6
CONTINUOUS
62
4
100
AcDbLine
10
203.017800000000
20
27.807200000000
30
0.0
11
206.017900000000
21
30.807200000000
31
0.0
0
LINE
5
43e
100
AcDbEntity
8
1-0
6
CONTINUOUS
62
4
100
AcDbLine
10
200.896500000000
20
27.807200000000
30
0.0
11
203.896500000000
21
30.807200000000
31
0.0
0
LINE
5
43f
100
AcDbEntity
8
1-0
6
CONTINUOUS
62
4
100
AcDbLine
10
198.775200000000
20
27.807200000000
30
0.0
11
201.775200000000
21
30.807200000000
31
0.0
0
LINE
5
440
100
AcDbEntity
8
1-0
6
CONTINUOUS
62
4
100
AcDbLine
10
196.653800000000
20
27.807200000000
30
0.0
11
199.653800000000
21
30.807200000000
31
0.0
0
LINE
5
441
100
AcDbEntity
8
1-0
6
CONTINUOUS
62
4
100
AcDbLine
10
194.532500000000
20
27.807200000000
30
0.0
11
197.532500000000
21
30.807200000000
31
0.0
0
LINE
5
442
100
AcDbEntity
8
1-0
6
CONTINUOUS
62
4
100
AcDbLine
10
194.062400000000
20
29.458500000000
30
0.0
11
195.411200000000
21
30.807200000000
31
0.0
0
LINE
5
443
100
AcDbEntity
8
1-0
6
CONTINUOUS
62
4
100
AcDbLine
10
177.221300000000
20
26.977600000000
30
0.0
11
281.096100000000
21
26.977600000000
31
0.0
0
LINE
5
444
100
AcDbEntity
8
1-0
6
CONTINUOUS
62
4
100
AcDbLine
10
177.221300000000
20
20.977600000000
30
0.0
11
281.096100000000
21
20.977600000000
31
0.0
0
LINE
5
445
100
AcDbEntity
8
1-0
6
CONTINUOUS
62
4
100
AcDbLine
10
177.221300000000
20
44.977700000000
30
0.0
11
281.096100000000
21
44.977700000000
31
0.0
0
LINE
5
446
100
AcDbEntity
8
1-0
6
CONTINUOUS
62
4
100
AcDbLine
10
177.221300000000
20
38.977700000000
30
0.0
11
281.096100000000
21
38.977700000000
31
0.0
0
LINE
5
447
100
AcDbEntity
8
1-0
6
CONTINUOUS
62
4
100
AcDbLine
10
177.221300000000
20
32.977700000000
30
0.0
11
281.096100000000
21
32.977700000000
31
0.0
0
POLYLINE
5
448
100
AcDbEntity
8
0-0
6
CONTINUOUS
62
  3
100
AcDb2dPolyline
66
1
10
0.0
20
0.0
30
0.0
70
0
0
VERTEX
5
449
100
AcDbEntity
8
0-0
6
CONTINUOUS
62
  3
100
AcDbVertex
100
AcDb2dVertex
10
405.000000000000
20
284.000000000000
30
0.0
0
VERTEX
5
44a
100
AcDbEntity
8
0-0
6
CONTINUOUS
62
  3
100
AcDbVertex
100
AcDb2dVertex
10
20.000000000000
20
284.000000000000
30
0.0
0
VERTEX
5
44b
100
AcDbEntity
8
0-0
6
CONTINUOUS
62
  3
100
AcDbVertex
100
AcDb2dVertex
10
20.000000000000
20
14.000000000000
30
0.0
0
SEQEND
5
44c
100
AcDbEntity
8
0-0
0
LINE
5
44d
100
AcDbEntity
8
0-0
6
CONTINUOUS
62
3
100
AcDbLine
10
290.000100000000
20
53.000000000000
30
0.0
11
290.000100000000
21
14.000000000000
31
0.0
0
LINE
5
44e
100
AcDbEntity
8
0-0
6
CONTINUOUS
62
3
100
AcDbLine
10
290.000100000000
20
53.000000000000
30
0.0
11
405.000000000000
21
53.000000000000
31
0.0
0
LINE
5
44f
100
AcDbEntity
8
0-0
6
CONTINUOUS
62
3
100
AcDbLine
10
290.000100000000
20
23.000000000000
30
0.0
11
405.000000000000
21
23.000000000000
31
0.0
0
LINE
5
450
100
AcDbEntity
8
0-0
6
CONTINUOUS
62
3
100
AcDbLine
10
347.500100000000
20
53.000000000000
30
0.0
11
347.500100000000
21
14.000000000000
31
0.0
0
LINE
5
451
100
AcDbEntity
8
0-0
6
CONTINUOUS
62
3
100
AcDbLine
10
341.500000000000
20
53.000000000000
30
0.0
11
341.500000000000
21
14.000000000000
31
0.0
0
LINE
5
452
100
AcDbEntity
8
0-0
6
CONTINUOUS
62
3
100
AcDbLine
10
395.000000000000
20
23.000000000000
30
0.0
11
395.000000000000
21
14.000000000000
31
0.0
0
LINE
5
453
100
AcDbEntity
8
0-0
6
CONTINUOUS
62
3
100
AcDbLine
10
405.000000000000
20
284.000000000000
30
0.0
11
405.000000000000
21
14.000000000000
31
0.0
0
LINE
5
454
100
AcDbEntity
8
0-0
6
CONTINUOUS
62
3
100
AcDbLine
10
363.500100000000
20
34.000000000000
30
0.0
11
363.500100000000
21
23.000000000000
31
0.0
0
LINE
5
455
100
AcDbEntity
8
0-0
6
CONTINUOUS
62
3
100
AcDbLine
10
368.500000000000
20
34.000000000000
30
0.0
11
368.500000000000
21
23.000000000000
31
0.0
0
LINE
5
456
100
AcDbEntity
8
0-0
6
CONTINUOUS
62
3
100
AcDbLine
10
384.000000000000
20
34.000000000000
30
0.0
11
384.000000000000
21
23.000000000000
31
0.0
0
LINE
5
457
100
AcDbEntity
8
0-0
6
CONTINUOUS
62
3
100
AcDbLine
10
389.000000000000
20
34.000000000000
30
0.0
11
389.000000000000
21
23.000000000000
31
0.0
0
LINE
5
458
100
AcDbEntity
8
0-0
6
CONTINUOUS
62
3
100
AcDbLine
10
341.500000000000
20
34.000000000000
30
0.0
11
405.000000000000
21
34.000000000000
31
0.0
0
LINE
5
459
100
AcDbEntity
8
0-0
6
CONTINUOUS
62
3
100
AcDbLine
10
290.000100000000
20
32.000000000000
30
0.0
11
341.500000000000
21
32.000000000000
31
0.0
0
LINE
5
45a
100
AcDbEntity
8
0-0
6
CONTINUOUS
62
3
100
AcDbLine
10
290.000100000000
20
41.000000000000
30
0.0
11
341.500000000000
21
41.000000000000
31
0.0
0
LINE
5
45b
100
AcDbEntity
8
0-0
6
CONTINUOUS
62
3
100
AcDbLine
10
295.500000000000
20
53.000000000000
30
0.0
11
295.500000000000
21
23.000000000000
31
0.0
0
LINE
5
45c
100
AcDbEntity
8
0-0
6
CONTINUOUS
62
3
100
AcDbLine
10
321.000100000000
20
41.000000000000
30
0.0
11
321.000100000000
21
23.000000000000
31
0.0
0
LINE
5
45d
100
AcDbEntity
8
0-0
6
CONTINUOUS
62
3
100
AcDbLine
10
315.500100000000
20
41.000000000000
30
0.0
11
315.500100000000
21
23.000000000000
31
0.0
0
LINE
5
45e
100
AcDbEntity
8
0-0
6
CONTINUOUS
62
3
100
AcDbLine
10
396.500000000000
20
15.500000000000
30
0.0
11
400.000100000000
21
21.562200000000
31
0.0
0
LINE
5
45f
100
AcDbEntity
8
0-0
6
CONTINUOUS
62
3
100
AcDbLine
10
403.500100000000
20
15.500000000000
30
0.0
11
400.000100000000
21
21.562200000000
31
0.0
0
LINE
5
460
100
AcDbEntity
8
0-0
6
CONTINUOUS
62
3
100
AcDbLine
10
396.500000000000
20
15.500000000000
30
0.0
11
403.500100000000
21
15.500000000000
31
0.0
0
LINE
5
461
100
AcDbEntity
8
0-0
6
CONTINUOUS
62
3
100
AcDbLine
10
292.340900000000
20
17.994400000000
30
0.0
11
295.605700000000
21
16.109400000000
31
0.0
0
LINE
5
462
100
AcDbEntity
8
0-0
6
CONTINUOUS
62
3
100
AcDbLine
10
293.365400000000
20
18.268900000000
30
0.0
11
296.341400000000
21
16.550700000000
31
0.0
0
LINE
5
463
100
AcDbEntity
8
0-0
6
CONTINUOUS
62
3
100
AcDbLine
10
294.389900000000
20
18.543500000000
30
0.0
11
296.812600000000
21
17.144600000000
31
0.0
0
LINE
5
464
100
AcDbEntity
8
0-0
6
CONTINUOUS
62
3
100
AcDbLine
10
292.623800000000
20
18.070200000000
30
0.0
11
291.999300000000
21
17.902900000000
31
0.0
0
LINE
5
465
100
AcDbEntity
8
0-0
6
CONTINUOUS
62
3
100
AcDbLine
10
293.382600000000
20
17.970300000000
30
0.0
11
296.127800000000
21
16.385400000000
31
0.0
0
LINE
5
466
100
AcDbEntity
8
0-0
6
CONTINUOUS
62
3
100
AcDbLine
10
294.407100000000
20
18.244800000000
30
0.0
11
296.683900000000
21
16.930400000000
31
0.0
0
LINE
5
467
100
AcDbEntity
8
0-0
6
CONTINUOUS
62
3
100
AcDbLine
10
295.431600000000
20
18.519400000000
30
0.0
11
296.975600000000
21
17.627900000000
31
0.0
0
LINE
5
468
100
AcDbEntity
8
0-0
6
CONTINUOUS
62
3
100
AcDbLine
10
293.648200000000
20
18.344700000000
30
0.0
11
292.870900000000
21
18.136500000000
31
0.0
0
LINE
5
469
100
AcDbEntity
8
0-0
6
CONTINUOUS
62
3
100
AcDbLine
10
294.672800000000
20
18.619300000000
30
0.0
11
293.918300000000
21
18.417100000000
31
0.0
0
LINE
5
46a
100
AcDbEntity
8
0-0
6
CONTINUOUS
62
3
100
AcDbLine
10
405.000000000000
20
14.000000000000
30
0.0
11
20.000000000000
21
14.000000000000
31
0.0
0
LINE
5
46b
100
AcDbEntity
8
0-0
6
CONTINUOUS
62
3
100
AcDbLine
10
310.500000000000
20
276.500000000000
30
0.0
11
405.000000000000
21
276.500000000000
31
0.0
0
LINE
5
46c
100
AcDbEntity
8
0-0
6
CONTINUOUS
62
3
100
AcDbLine
10
310.500000000000
20
284.000000000000
30
0.0
11
310.500000000000
21
276.500000000000
31
0.0
0
LINE
5
46d
100
AcDbEntity
8
0-0
6
CONTINUOUS
62
3
100
AcDbLine
10
365.500100000000
20
284.000000000000
30
0.0
11
365.500100000000
21
276.500000000000
31
0.0
0
LINE
5
46e
100
AcDbEntity
8
0-0
6
CONTINUOUS
62
3
100
AcDbLine
10
385.500000000000
20
284.000000000000
30
0.0
11
385.500000000000
21
276.500000000000
31
0.0
0
LINE
5
46f
100
AcDbEntity
8
0-0
6
CONTINUOUS
62
3
100
AcDbLine
10
321.500100000000
20
284.000000000000
30
0.0
11
321.500100000000
21
276.500000000000
31
0.0
0
LINE
5
470
100
AcDbEntity
8
0-0
6
CONTINUOUS
62
3
100
AcDbLine
10
353.250000000000
20
41.000000000000
30
0.0
11
399.250000000000
21
41.000000000000
31
0.0
0
LINE
5
471
100
AcDbEntity
8
0-0
6
CONTINUOUS
62
3
100
AcDbLine
10
361.250000000000
20
48.000000000000
30
0.0
11
392.333800000000
21
48.000000000000
31
0.0
0
POLYLINE
5
472
100
AcDbEntity
8
1-8
6
CONTINUOUS
62
  3
100
AcDb2dPolyline
66
1
10
0.0
20
0.0
30
0.0
70
0
0
VERTEX
5
473
100
AcDbEntity
8
1-8
6
CONTINUOUS
62
  3
100
AcDbVertex
100
AcDb2dVertex
10
320.240400000000
20
136.242700000000
30
0.0
0
VERTEX
5
474
100
AcDbEntity
8
1-8
6
CONTINUOUS
62
  3
100
AcDbVertex
100
AcDb2dVertex
10
345.240300000000
20
136.242700000000
30
0.0
0
VERTEX
5
475
100
AcDbEntity
8
1-8
6
CONTINUOUS
62
  3
100
AcDbVertex
100
AcDb2dVertex
10
345.240300000000
20
126.242700000000
30
0.0
0
VERTEX
5
476
100
AcDbEntity
8
1-8
6
CONTINUOUS
62
  3
100
AcDbVertex
100
AcDb2dVertex
10
320.240400000000
20
126.242700000000
30
0.0
0
VERTEX
5
477
100
AcDbEntity
8
1-8
6
CONTINUOUS
62
  3
100
AcDbVertex
100
AcDb2dVertex
10
320.240400000000
20
136.242700000000
30
0.0
0
SEQEND
5
478
100
AcDbEntity
8
1-8
0
POLYLINE
5
479
100
AcDbEntity
8
1-8
6
CONTINUOUS
62
  3
100
AcDb2dPolyline
66
1
10
0.0
20
0.0
30
0.0
70
0
0
VERTEX
5
47a
100
AcDbEntity
8
1-8
6
CONTINUOUS
62
  3
100
AcDbVertex
100
AcDb2dVertex
10
345.240300000000
20
131.242700000000
30
0.0
0
VERTEX
5
47b
100
AcDbEntity
8
1-8
6
CONTINUOUS
62
  3
100
AcDbVertex
100
AcDb2dVertex
10
370.240200000000
20
131.242700000000
30
0.0
0
VERTEX
5
47c
100
AcDbEntity
8
1-8
6
CONTINUOUS
62
  3
100
AcDbVertex
100
AcDb2dVertex
10
370.240200000000
20
126.242700000000
30
0.0
0
VERTEX
5
47d
100
AcDbEntity
8
1-8
6
CONTINUOUS
62
  3
100
AcDbVertex
100
AcDb2dVertex
10
345.240300000000
20
126.242700000000
30
0.0
0
VERTEX
5
47e
100
AcDbEntity
8
1-8
6
CONTINUOUS
62
  3
100
AcDbVertex
100
AcDb2dVertex
10
345.240300000000
20
131.242700000000
30
0.0
0
SEQEND
5
47f
100
AcDbEntity
8
1-8
0
POLYLINE
5
480
100
AcDbEntity
8
1-8
6
CONTINUOUS
62
  3
100
AcDb2dPolyline
66
1
10
0.0
20
0.0
30
0.0
70
0
0
VERTEX
5
481
100
AcDbEntity
8
1-8
6
CONTINUOUS
62
  3
100
AcDbVertex
100
AcDb2dVertex
10
320.240400000000
20
126.242700000000
30
0.0
0
VERTEX
5
482
100
AcDbEntity
8
1-8
6
CONTINUOUS
62
  3
100
AcDbVertex
100
AcDb2dVertex
10
345.240300000000
20
126.242700000000
30
0.0
0
VERTEX
5
483
100
AcDbEntity
8
1-8
6
CONTINUOUS
62
  3
100
AcDbVertex
100
AcDb2dVertex
10
345.240300000000
20
121.242700000000
30
0.0
0
VERTEX
5
484
100
AcDbEntity
8
1-8
6
CONTINUOUS
62
  3
100
AcDbVertex
100
AcDb2dVertex
10
320.240400000000
20
121.242700000000
30
0.0
0
VERTEX
5
485
100
AcDbEntity
8
1-8
6
CONTINUOUS
62
  3
100
AcDbVertex
100
AcDb2dVertex
10
320.240400000000
20
126.242700000000
30
0.0
0
SEQEND
5
486
100
AcDbEntity
8
1-8
0
POLYLINE
5
487
100
AcDbEntity
8
1-8
6
CONTINUOUS
62
  3
100
AcDb2dPolyline
66
1
10
0.0
20
0.0
30
0.0
70
0
0
VERTEX
5
488
100
AcDbEntity
8
1-8
6
CONTINUOUS
62
  3
100
AcDbVertex
100
AcDb2dVertex
10
345.240300000000
20
126.242700000000
30
0.0
0
VERTEX
5
489
100
AcDbEntity
8
1-8
6
CONTINUOUS
62
  3
100
AcDbVertex
100
AcDb2dVertex
10
370.240200000000
20
126.242700000000
30
0.0
0
VERTEX
5
48a
100
AcDbEntity
8
1-8
6
CONTINUOUS
62
  3
100
AcDbVertex
100
AcDb2dVertex
10
370.240200000000
20
121.242700000000
30
0.0
0
VERTEX
5
48b
100
AcDbEntity
8
1-8
6
CONTINUOUS
62
  3
100
AcDbVertex
100
AcDb2dVertex
10
345.240300000000
20
121.242700000000
30
0.0
0
VERTEX
5
48c
100
AcDbEntity
8
1-8
6
CONTINUOUS
62
  3
100
AcDbVertex
100
AcDb2dVertex
10
345.240300000000
20
126.242700000000
30
0.0
0
SEQEND
5
48d
100
AcDbEntity
8
1-8
0
POLYLINE
5
48e
100
AcDbEntity
8
1-8
6
CONTINUOUS
62
  3
100
AcDb2dPolyline
66
1
10
0.0
20
0.0
30
0.0
70
0
0
VERTEX
5
48f
100
AcDbEntity
8
1-8
6
CONTINUOUS
62
  3
100
AcDbVertex
100
AcDb2dVertex
10
320.240400000000
20
121.242700000000
30
0.0
0
VERTEX
5
490
100
AcDbEntity
8
1-8
6
CONTINUOUS
62
  3
100
AcDbVertex
100
AcDb2dVertex
10
345.240300000000
20
121.242700000000
30
0.0
0
VERTEX
5
491
100
AcDbEntity
8
1-8
6
CONTINUOUS
62
  3
100
AcDbVertex
100
AcDb2dVertex
10
345.240300000000
20
116.242700000000
30
0.0
0
VERTEX
5
492
100
AcDbEntity
8
1-8
6
CONTINUOUS
62
  3
100
AcDbVertex
100
AcDb2dVertex
10
320.240400000000
20
116.242700000000
30
0.0
0
VERTEX
5
493
100
AcDbEntity
8
1-8
6
CONTINUOUS
62
  3
100
AcDbVertex
100
AcDb2dVertex
10
320.240400000000
20
121.242700000000
30
0.0
0
SEQEND
5
494
100
AcDbEntity
8
1-8
0
POLYLINE
5
495
100
AcDbEntity
8
1-8
6
CONTINUOUS
62
  3
100
AcDb2dPolyline
66
1
10
0.0
20
0.0
30
0.0
70
0
0
VERTEX
5
496
100
AcDbEntity
8
1-8
6
CONTINUOUS
62
  3
100
AcDbVertex
100
AcDb2dVertex
10
345.240300000000
20
121.242700000000
30
0.0
0
VERTEX
5
497
100
AcDbEntity
8
1-8
6
CONTINUOUS
62
  3
100
AcDbVertex
100
AcDb2dVertex
10
370.240200000000
20
121.242700000000
30
0.0
0
VERTEX
5
498
100
AcDbEntity
8
1-8
6
CONTINUOUS
62
  3
100
AcDbVertex
100
AcDb2dVertex
10
370.240200000000
20
116.242700000000
30
0.0
0
VERTEX
5
499
100
AcDbEntity
8
1-8
6
CONTINUOUS
62
  3
100
AcDbVertex
100
AcDb2dVertex
10
345.240300000000
20
116.242700000000
30
0.0
0
VERTEX
5
49a
100
AcDbEntity
8
1-8
6
CONTINUOUS
62
  3
100
AcDbVertex
100
AcDb2dVertex
10
345.240300000000
20
121.242700000000
30
0.0
0
SEQEND
5
49b
100
AcDbEntity
8
1-8
0
POLYLINE
5
49c
100
AcDbEntity
8
1-8
6
CONTINUOUS
62
  3
100
AcDb2dPolyline
66
1
10
0.0
20
0.0
30
0.0
70
0
0
VERTEX
5
49d
100
AcDbEntity
8
1-8
6
CONTINUOUS
62
  3
100
AcDbVertex
100
AcDb2dVertex
10
320.240400000000
20
116.242700000000
30
0.0
0
VERTEX
5
49e
100
AcDbEntity
8
1-8
6
CONTINUOUS
62
  3
100
AcDbVertex
100
AcDb2dVertex
10
345.240300000000
20
116.242700000000
30
0.0
0
VERTEX
5
49f
100
AcDbEntity
8
1-8
6
CONTINUOUS
62
  3
100
AcDbVertex
100
AcDb2dVertex
10
345.240300000000
20
111.242700000000
30
0.0
0
VERTEX
5
4a0
100
AcDbEntity
8
1-8
6
CONTINUOUS
62
  3
100
AcDbVertex
100
AcDb2dVertex
10
320.240400000000
20
111.242700000000
30
0.0
0
VERTEX
5
4a1
100
AcDbEntity
8
1-8
6
CONTINUOUS
62
  3
100
AcDbVertex
100
AcDb2dVertex
10
320.240400000000
20
116.242700000000
30
0.0
0
SEQEND
5
4a2
100
AcDbEntity
8
1-8
0
POLYLINE
5
4a3
100
AcDbEntity
8
1-8
6
CONTINUOUS
62
  3
100
AcDb2dPolyline
66
1
10
0.0
20
0.0
30
0.0
70
0
0
VERTEX
5
4a4
100
AcDbEntity
8
1-8
6
CONTINUOUS
62
  3
100
AcDbVertex
100
AcDb2dVertex
10
345.240300000000
20
116.242700000000
30
0.0
0
VERTEX
5
4a5
100
AcDbEntity
8
1-8
6
CONTINUOUS
62
  3
100
AcDbVertex
100
AcDb2dVertex
10
370.240200000000
20
116.242700000000
30
0.0
0
VERTEX
5
4a6
100
AcDbEntity
8
1-8
6
CONTINUOUS
62
  3
100
AcDbVertex
100
AcDb2dVertex
10
370.240200000000
20
111.242700000000
30
0.0
0
VERTEX
5
4a7
100
AcDbEntity
8
1-8
6
CONTINUOUS
62
  3
100
AcDbVertex
100
AcDb2dVertex
10
345.240300000000
20
111.242700000000
30
0.0
0
VERTEX
5
4a8
100
AcDbEntity
8
1-8
6
CONTINUOUS
62
  3
100
AcDbVertex
100
AcDb2dVertex
10
345.240300000000
20
116.242700000000
30
0.0
0
SEQEND
5
4a9
100
AcDbEntity
8
1-8
0
POLYLINE
5
4aa
100
AcDbEntity
8
1-8
6
CONTINUOUS
62
  3
100
AcDb2dPolyline
66
1
10
0.0
20
0.0
30
0.0
70
0
0
VERTEX
5
4ab
100
AcDbEntity
8
1-8
6
CONTINUOUS
62
  3
100
AcDbVertex
100
AcDb2dVertex
10
320.240400000000
20
91.242800000000
30
0.0
0
VERTEX
5
4ac
100
AcDbEntity
8
1-8
6
CONTINUOUS
62
  3
100
AcDbVertex
100
AcDb2dVertex
10
345.240300000000
20
91.242800000000
30
0.0
0
VERTEX
5
4ad
100
AcDbEntity
8
1-8
6
CONTINUOUS
62
  3
100
AcDbVertex
100
AcDb2dVertex
10
345.240300000000
20
86.242800000000
30
0.0
0
VERTEX
5
4ae
100
AcDbEntity
8
1-8
6
CONTINUOUS
62
  3
100
AcDbVertex
100
AcDb2dVertex
10
320.240400000000
20
86.242800000000
30
0.0
0
VERTEX
5
4af
100
AcDbEntity
8
1-8
6
CONTINUOUS
62
  3
100
AcDbVertex
100
AcDb2dVertex
10
320.240400000000
20
91.242800000000
30
0.0
0
SEQEND
5
4b0
100
AcDbEntity
8
1-8
0
POLYLINE
5
4b1
100
AcDbEntity
8
1-8
6
CONTINUOUS
62
  3
100
AcDb2dPolyline
66
1
10
0.0
20
0.0
30
0.0
70
0
0
VERTEX
5
4b2
100
AcDbEntity
8
1-8
6
CONTINUOUS
62
  3
100
AcDbVertex
100
AcDb2dVertex
10
345.240300000000
20
91.242800000000
30
0.0
0
VERTEX
5
4b3
100
AcDbEntity
8
1-8
6
CONTINUOUS
62
  3
100
AcDbVertex
100
AcDb2dVertex
10
370.240200000000
20
91.242800000000
30
0.0
0
VERTEX
5
4b4
100
AcDbEntity
8
1-8
6
CONTINUOUS
62
  3
100
AcDbVertex
100
AcDb2dVertex
10
370.240200000000
20
86.242800000000
30
0.0
0
VERTEX
5
4b5
100
AcDbEntity
8
1-8
6
CONTINUOUS
62
  3
100
AcDbVertex
100
AcDb2dVertex
10
345.240300000000
20
86.242800000000
30
0.0
0
VERTEX
5
4b6
100
AcDbEntity
8
1-8
6
CONTINUOUS
62
  3
100
AcDbVertex
100
AcDb2dVertex
10
345.240300000000
20
91.242800000000
30
0.0
0
SEQEND
5
4b7
100
AcDbEntity
8
1-8
0
POLYLINE
5
4b8
100
AcDbEntity
8
1-8
6
CONTINUOUS
62
  3
100
AcDb2dPolyline
66
1
10
0.0
20
0.0
30
0.0
70
0
0
VERTEX
5
4b9
100
AcDbEntity
8
1-8
6
CONTINUOUS
62
  3
100
AcDbVertex
100
AcDb2dVertex
10
320.240400000000
20
86.242800000000
30
0.0
0
VERTEX
5
4ba
100
AcDbEntity
8
1-8
6
CONTINUOUS
62
  3
100
AcDbVertex
100
AcDb2dVertex
10
345.240300000000
20
86.242800000000
30
0.0
0
VERTEX
5
4bb
100
AcDbEntity
8
1-8
6
CONTINUOUS
62
  3
100
AcDbVertex
100
AcDb2dVertex
10
345.240300000000
20
81.242800000000
30
0.0
0
VERTEX
5
4bc
100
AcDbEntity
8
1-8
6
CONTINUOUS
62
  3
100
AcDbVertex
100
AcDb2dVertex
10
320.240400000000
20
81.242800000000
30
0.0
0
VERTEX
5
4bd
100
AcDbEntity
8
1-8
6
CONTINUOUS
62
  3
100
AcDbVertex
100
AcDb2dVertex
10
320.240400000000
20
86.242800000000
30
0.0
0
SEQEND
5
4be
100
AcDbEntity
8
1-8
0
POLYLINE
5
4bf
100
AcDbEntity
8
1-8
6
CONTINUOUS
62
  3
100
AcDb2dPolyline
66
1
10
0.0
20
0.0
30
0.0
70
0
0
VERTEX
5
4c0
100
AcDbEntity
8
1-8
6
CONTINUOUS
62
  3
100
AcDbVertex
100
AcDb2dVertex
10
345.240300000000
20
86.242800000000
30
0.0
0
VERTEX
5
4c1
100
AcDbEntity
8
1-8
6
CONTINUOUS
62
  3
100
AcDbVertex
100
AcDb2dVertex
10
370.240200000000
20
86.242800000000
30
0.0
0
VERTEX
5
4c2
100
AcDbEntity
8
1-8
6
CONTINUOUS
62
  3
100
AcDbVertex
100
AcDb2dVertex
10
370.240200000000
20
81.242800000000
30
0.0
0
VERTEX
5
4c3
100
AcDbEntity
8
1-8
6
CONTINUOUS
62
  3
100
AcDbVertex
100
AcDb2dVertex
10
345.240300000000
20
81.242800000000
30
0.0
0
VERTEX
5
4c4
100
AcDbEntity
8
1-8
6
CONTINUOUS
62
  3
100
AcDbVertex
100
AcDb2dVertex
10
345.240300000000
20
86.242800000000
30
0.0
0
SEQEND
5
4c5
100
AcDbEntity
8
1-8
0
LINE
5
4c6
100
AcDbEntity
8
1-8
6
CONTINUOUS
62
7
100
AcDbLine
10
346.511600000000
20
139.937600000000
30
0.0
11
368.968900000000
21
139.937600000000
31
0.0
0
LINE
5
4c7
100
AcDbEntity
8
1-8
6
CONTINUOUS
62
7
100
AcDbLine
10
346.511600000000
20
139.477900000000
30
0.0
11
368.968900000000
21
139.477900000000
31
0.0
0
POLYLINE
5
4c8
100
AcDbEntity
8
1-8
6
CONTINUOUS
62
  3
100
AcDb2dPolyline
66
1
10
0.0
20
0.0
30
0.0
70
0
0
VERTEX
5
4c9
100
AcDbEntity
8
1-8
6
CONTINUOUS
62
  3
100
AcDbVertex
100
AcDb2dVertex
10
320.240400000000
20
111.242700000000
30
0.0
0
VERTEX
5
4ca
100
AcDbEntity
8
1-8
6
CONTINUOUS
62
  3
100
AcDbVertex
100
AcDb2dVertex
10
345.240300000000
20
111.242700000000
30
0.0
0
VERTEX
5
4cb
100
AcDbEntity
8
1-8
6
CONTINUOUS
62
  3
100
AcDbVertex
100
AcDb2dVertex
10
345.240300000000
20
106.242800000000
30
0.0
0
VERTEX
5
4cc
100
AcDbEntity
8
1-8
6
CONTINUOUS
62
  3
100
AcDbVertex
100
AcDb2dVertex
10
320.240400000000
20
106.242800000000
30
0.0
0
VERTEX
5
4cd
100
AcDbEntity
8
1-8
6
CONTINUOUS
62
  3
100
AcDbVertex
100
AcDb2dVertex
10
320.240400000000
20
111.242700000000
30
0.0
0
SEQEND
5
4ce
100
AcDbEntity
8
1-8
0
POLYLINE
5
4cf
100
AcDbEntity
8
1-8
6
CONTINUOUS
62
  3
100
AcDb2dPolyline
66
1
10
0.0
20
0.0
30
0.0
70
0
0
VERTEX
5
4d0
100
AcDbEntity
8
1-8
6
CONTINUOUS
62
  3
100
AcDbVertex
100
AcDb2dVertex
10
345.240300000000
20
111.242700000000
30
0.0
0
VERTEX
5
4d1
100
AcDbEntity
8
1-8
6
CONTINUOUS
62
  3
100
AcDbVertex
100
AcDb2dVertex
10
370.240200000000
20
111.242700000000
30
0.0
0
VERTEX
5
4d2
100
AcDbEntity
8
1-8
6
CONTINUOUS
62
  3
100
AcDbVertex
100
AcDb2dVertex
10
370.240200000000
20
106.242800000000
30
0.0
0
VERTEX
5
4d3
100
AcDbEntity
8
1-8
6
CONTINUOUS
62
  3
100
AcDbVertex
100
AcDb2dVertex
10
345.240300000000
20
106.242800000000
30
0.0
0
VERTEX
5
4d4
100
AcDbEntity
8
1-8
6
CONTINUOUS
62
  3
100
AcDbVertex
100
AcDb2dVertex
10
345.240300000000
20
111.242700000000
30
0.0
0
SEQEND
5
4d5
100
AcDbEntity
8
1-8
0
POLYLINE
5
4d6
100
AcDbEntity
8
1-8
6
CONTINUOUS
62
  3
100
AcDb2dPolyline
66
1
10
0.0
20
0.0
30
0.0
70
0
0
VERTEX
5
4d7
100
AcDbEntity
8
1-8
6
CONTINUOUS
62
  3
100
AcDbVertex
100
AcDb2dVertex
10
320.240400000000
20
101.242800000000
30
0.0
0
VERTEX
5
4d8
100
AcDbEntity
8
1-8
6
CONTINUOUS
62
  3
100
AcDbVertex
100
AcDb2dVertex
10
345.240300000000
20
101.242800000000
30
0.0
0
VERTEX
5
4d9
100
AcDbEntity
8
1-8
6
CONTINUOUS
62
  3
100
AcDbVertex
100
AcDb2dVertex
10
345.240300000000
20
96.242800000000
30
0.0
0
VERTEX
5
4da
100
AcDbEntity
8
1-8
6
CONTINUOUS
62
  3
100
AcDbVertex
100
AcDb2dVertex
10
320.240400000000
20
96.242800000000
30
0.0
0
VERTEX
5
4db
100
AcDbEntity
8
1-8
6
CONTINUOUS
62
  3
100
AcDbVertex
100
AcDb2dVertex
10
320.240400000000
20
101.242800000000
30
0.0
0
SEQEND
5
4dc
100
AcDbEntity
8
1-8
0
POLYLINE
5
4dd
100
AcDbEntity
8
1-8
6
CONTINUOUS
62
  3
100
AcDb2dPolyline
66
1
10
0.0
20
0.0
30
0.0
70
0
0
VERTEX
5
4de
100
AcDbEntity
8
1-8
6
CONTINUOUS
62
  3
100
AcDbVertex
100
AcDb2dVertex
10
345.240300000000
20
101.242800000000
30
0.0
0
VERTEX
5
4df
100
AcDbEntity
8
1-8
6
CONTINUOUS
62
  3
100
AcDbVertex
100
AcDb2dVertex
10
370.240200000000
20
101.242800000000
30
0.0
0
VERTEX
5
4e0
100
AcDbEntity
8
1-8
6
CONTINUOUS
62
  3
100
AcDbVertex
100
AcDb2dVertex
10
370.240200000000
20
96.242800000000
30
0.0
0
VERTEX
5
4e1
100
AcDbEntity
8
1-8
6
CONTINUOUS
62
  3
100
AcDbVertex
100
AcDb2dVertex
10
345.240300000000
20
96.242800000000
30
0.0
0
VERTEX
5
4e2
100
AcDbEntity
8
1-8
6
CONTINUOUS
62
  3
100
AcDbVertex
100
AcDb2dVertex
10
345.240300000000
20
101.242800000000
30
0.0
0
SEQEND
5
4e3
100
AcDbEntity
8
1-8
0
POLYLINE
5
4e4
100
AcDbEntity
8
1-8
6
CONTINUOUS
62
  3
100
AcDb2dPolyline
66
1
10
0.0
20
0.0
30
0.0
70
0
0
VERTEX
5
4e5
100
AcDbEntity
8
1-8
6
CONTINUOUS
62
  3
100
AcDbVertex
100
AcDb2dVertex
10
320.240400000000
20
106.242800000000
30
0.0
0
VERTEX
5
4e6
100
AcDbEntity
8
1-8
6
CONTINUOUS
62
  3
100
AcDbVertex
100
AcDb2dVertex
10
345.240300000000
20
106.242800000000
30
0.0
0
VERTEX
5
4e7
100
AcDbEntity
8
1-8
6
CONTINUOUS
62
  3
100
AcDbVertex
100
AcDb2dVertex
10
345.240300000000
20
101.242800000000
30
0.0
0
VERTEX
5
4e8
100
AcDbEntity
8
1-8
6
CONTINUOUS
62
  3
100
AcDbVertex
100
AcDb2dVertex
10
320.240400000000
20
101.242800000000
30
0.0
0
VERTEX
5
4e9
100
AcDbEntity
8
1-8
6
CONTINUOUS
62
  3
100
AcDbVertex
100
AcDb2dVertex
10
320.240400000000
20
106.242800000000
30
0.0
0
SEQEND
5
4ea
100
AcDbEntity
8
1-8
0
POLYLINE
5
4eb
100
AcDbEntity
8
1-8
6
CONTINUOUS
62
  3
100
AcDb2dPolyline
66
1
10
0.0
20
0.0
30
0.0
70
0
0
VERTEX
5
4ec
100
AcDbEntity
8
1-8
6
CONTINUOUS
62
  3
100
AcDbVertex
100
AcDb2dVertex
10
345.240300000000
20
106.242800000000
30
0.0
0
VERTEX
5
4ed
100
AcDbEntity
8
1-8
6
CONTINUOUS
62
  3
100
AcDbVertex
100
AcDb2dVertex
10
370.240200000000
20
106.242800000000
30
0.0
0
VERTEX
5
4ee
100
AcDbEntity
8
1-8
6
CONTINUOUS
62
  3
100
AcDbVertex
100
AcDb2dVertex
10
370.240200000000
20
101.242800000000
30
0.0
0
VERTEX
5
4ef
100
AcDbEntity
8
1-8
6
CONTINUOUS
62
  3
100
AcDbVertex
100
AcDb2dVertex
10
345.240300000000
20
101.242800000000
30
0.0
0
VERTEX
5
4f0
100
AcDbEntity
8
1-8
6
CONTINUOUS
62
  3
100
AcDbVertex
100
AcDb2dVertex
10
345.240300000000
20
106.242800000000
30
0.0
0
SEQEND
5
4f1
100
AcDbEntity
8
1-8
0
POLYLINE
5
4f2
100
AcDbEntity
8
1-8
6
CONTINUOUS
62
  3
100
AcDb2dPolyline
66
1
10
0.0
20
0.0
30
0.0
70
0
0
VERTEX
5
4f3
100
AcDbEntity
8
1-8
6
CONTINUOUS
62
  3
100
AcDbVertex
100
AcDb2dVertex
10
320.240400000000
20
96.242800000000
30
0.0
0
VERTEX
5
4f4
100
AcDbEntity
8
1-8
6
CONTINUOUS
62
  3
100
AcDbVertex
100
AcDb2dVertex
10
345.240300000000
20
96.242800000000
30
0.0
0
VERTEX
5
4f5
100
AcDbEntity
8
1-8
6
CONTINUOUS
62
  3
100
AcDbVertex
100
AcDb2dVertex
10
345.240300000000
20
91.242800000000
30
0.0
0
VERTEX
5
4f6
100
AcDbEntity
8
1-8
6
CONTINUOUS
62
  3
100
AcDbVertex
100
AcDb2dVertex
10
320.240400000000
20
91.242800000000
30
0.0
0
VERTEX
5
4f7
100
AcDbEntity
8
1-8
6
CONTINUOUS
62
  3
100
AcDbVertex
100
AcDb2dVertex
10
320.240400000000
20
96.242800000000
30
0.0
0
SEQEND
5
4f8
100
AcDbEntity
8
1-8
0
POLYLINE
5
4f9
100
AcDbEntity
8
1-8
6
CONTINUOUS
62
  3
100
AcDb2dPolyline
66
1
10
0.0
20
0.0
30
0.0
70
0
0
VERTEX
5
4fa
100
AcDbEntity
8
1-8
6
CONTINUOUS
62
  3
100
AcDbVertex
100
AcDb2dVertex
10
345.240300000000
20
96.242800000000
30
0.0
0
VERTEX
5
4fb
100
AcDbEntity
8
1-8
6
CONTINUOUS
62
  3
100
AcDbVertex
100
AcDb2dVertex
10
370.240200000000
20
96.242800000000
30
0.0
0
VERTEX
5
4fc
100
AcDbEntity
8
1-8
6
CONTINUOUS
62
  3
100
AcDbVertex
100
AcDb2dVertex
10
370.240200000000
20
91.242800000000
30
0.0
0
VERTEX
5
4fd
100
AcDbEntity
8
1-8
6
CONTINUOUS
62
  3
100
AcDbVertex
100
AcDb2dVertex
10
345.240300000000
20
91.242800000000
30
0.0
0
VERTEX
5
4fe
100
AcDbEntity
8
1-8
6
CONTINUOUS
62
  3
100
AcDbVertex
100
AcDb2dVertex
10
345.240300000000
20
96.242800000000
30
0.0
0
SEQEND
5
4ff
100
AcDbEntity
8
1-8
0
POLYLINE
5
500
100
AcDbEntity
8
1-8
6
CONTINUOUS
62
  3
100
AcDb2dPolyline
66
1
10
0.0
20
0.0
30
0.0
70
0
0
VERTEX
5
501
100
AcDbEntity
8
1-8
6
CONTINUOUS
62
  3
100
AcDbVertex
100
AcDb2dVertex
10
370.240200000000
20
126.242700000000
30
0.0
0
VERTEX
5
502
100
AcDbEntity
8
1-8
6
CONTINUOUS
62
  3
100
AcDbVertex
100
AcDb2dVertex
10
395.240200000000
20
126.242700000000
30
0.0
0
VERTEX
5
503
100
AcDbEntity
8
1-8
6
CONTINUOUS
62
  3
100
AcDbVertex
100
AcDb2dVertex
10
395.240200000000
20
121.242700000000
30
0.0
0
VERTEX
5
504
100
AcDbEntity
8
1-8
6
CONTINUOUS
62
  3
100
AcDbVertex
100
AcDb2dVertex
10
370.240200000000
20
121.242700000000
30
0.0
0
VERTEX
5
505
100
AcDbEntity
8
1-8
6
CONTINUOUS
62
  3
100
AcDbVertex
100
AcDb2dVertex
10
370.240200000000
20
126.242700000000
30
0.0
0
SEQEND
5
506
100
AcDbEntity
8
1-8
0
POLYLINE
5
507
100
AcDbEntity
8
1-8
6
CONTINUOUS
62
  3
100
AcDb2dPolyline
66
1
10
0.0
20
0.0
30
0.0
70
0
0
VERTEX
5
508
100
AcDbEntity
8
1-8
6
CONTINUOUS
62
  3
100
AcDbVertex
100
AcDb2dVertex
10
370.240200000000
20
121.242700000000
30
0.0
0
VERTEX
5
509
100
AcDbEntity
8
1-8
6
CONTINUOUS
62
  3
100
AcDbVertex
100
AcDb2dVertex
10
395.240200000000
20
121.242700000000
30
0.0
0
VERTEX
5
50a
100
AcDbEntity
8
1-8
6
CONTINUOUS
62
  3
100
AcDbVertex
100
AcDb2dVertex
10
395.240200000000
20
116.242700000000
30
0.0
0
VERTEX
5
50b
100
AcDbEntity
8
1-8
6
CONTINUOUS
62
  3
100
AcDbVertex
100
AcDb2dVertex
10
370.240200000000
20
116.242700000000
30
0.0
0
VERTEX
5
50c
100
AcDbEntity
8
1-8
6
CONTINUOUS
62
  3
100
AcDbVertex
100
AcDb2dVertex
10
370.240200000000
20
121.242700000000
30
0.0
0
SEQEND
5
50d
100
AcDbEntity
8
1-8
0
POLYLINE
5
50e
100
AcDbEntity
8
1-8
6
CONTINUOUS
62
  3
100
AcDb2dPolyline
66
1
10
0.0
20
0.0
30
0.0
70
0
0
VERTEX
5
50f
100
AcDbEntity
8
1-8
6
CONTINUOUS
62
  3
100
AcDbVertex
100
AcDb2dVertex
10
370.240200000000
20
116.242700000000
30
0.0
0
VERTEX
5
510
100
AcDbEntity
8
1-8
6
CONTINUOUS
62
  3
100
AcDbVertex
100
AcDb2dVertex
10
395.240200000000
20
116.242700000000
30
0.0
0
VERTEX
5
511
100
AcDbEntity
8
1-8
6
CONTINUOUS
62
  3
100
AcDbVertex
100
AcDb2dVertex
10
395.240200000000
20
111.242700000000
30
0.0
0
VERTEX
5
512
100
AcDbEntity
8
1-8
6
CONTINUOUS
62
  3
100
AcDbVertex
100
AcDb2dVertex
10
370.240200000000
20
111.242700000000
30
0.0
0
VERTEX
5
513
100
AcDbEntity
8
1-8
6
CONTINUOUS
62
  3
100
AcDbVertex
100
AcDb2dVertex
10
370.240200000000
20
116.242700000000
30
0.0
0
SEQEND
5
514
100
AcDbEntity
8
1-8
0
POLYLINE
5
515
100
AcDbEntity
8
1-8
6
CONTINUOUS
62
  3
100
AcDb2dPolyline
66
1
10
0.0
20
0.0
30
0.0
70
0
0
VERTEX
5
516
100
AcDbEntity
8
1-8
6
CONTINUOUS
62
  3
100
AcDbVertex
100
AcDb2dVertex
10
370.240200000000
20
91.242800000000
30
0.0
0
VERTEX
5
517
100
AcDbEntity
8
1-8
6
CONTINUOUS
62
  3
100
AcDbVertex
100
AcDb2dVertex
10
395.240200000000
20
91.242800000000
30
0.0
0
VERTEX
5
518
100
AcDbEntity
8
1-8
6
CONTINUOUS
62
  3
100
AcDbVertex
100
AcDb2dVertex
10
395.240200000000
20
86.242800000000
30
0.0
0
VERTEX
5
519
100
AcDbEntity
8
1-8
6
CONTINUOUS
62
  3
100
AcDbVertex
100
AcDb2dVertex
10
370.240200000000
20
86.242800000000
30
0.0
0
VERTEX
5
51a
100
AcDbEntity
8
1-8
6
CONTINUOUS
62
  3
100
AcDbVertex
100
AcDb2dVertex
10
370.240200000000
20
91.242800000000
30
0.0
0
SEQEND
5
51b
100
AcDbEntity
8
1-8
0
POLYLINE
5
51c
100
AcDbEntity
8
1-8
6
CONTINUOUS
62
  3
100
AcDb2dPolyline
66
1
10
0.0
20
0.0
30
0.0
70
0
0
VERTEX
5
51d
100
AcDbEntity
8
1-8
6
CONTINUOUS
62
  3
100
AcDbVertex
100
AcDb2dVertex
10
370.240200000000
20
86.242800000000
30
0.0
0
VERTEX
5
51e
100
AcDbEntity
8
1-8
6
CONTINUOUS
62
  3
100
AcDbVertex
100
AcDb2dVertex
10
395.240200000000
20
86.242800000000
30
0.0
0
VERTEX
5
51f
100
AcDbEntity
8
1-8
6
CONTINUOUS
62
  3
100
AcDbVertex
100
AcDb2dVertex
10
395.240200000000
20
81.242800000000
30
0.0
0
VERTEX
5
520
100
AcDbEntity
8
1-8
6
CONTINUOUS
62
  3
100
AcDbVertex
100
AcDb2dVertex
10
370.240200000000
20
81.242800000000
30
0.0
0
VERTEX
5
521
100
AcDbEntity
8
1-8
6
CONTINUOUS
62
  3
100
AcDbVertex
100
AcDb2dVertex
10
370.240200000000
20
86.242800000000
30
0.0
0
SEQEND
5
522
100
AcDbEntity
8
1-8
0
POLYLINE
5
523
100
AcDbEntity
8
1-8
6
CONTINUOUS
62
  3
100
AcDb2dPolyline
66
1
10
0.0
20
0.0
30
0.0
70
0
0
VERTEX
5
524
100
AcDbEntity
8
1-8
6
CONTINUOUS
62
  3
100
AcDbVertex
100
AcDb2dVertex
10
370.240200000000
20
111.242700000000
30
0.0
0
VERTEX
5
525
100
AcDbEntity
8
1-8
6
CONTINUOUS
62
  3
100
AcDbVertex
100
AcDb2dVertex
10
395.240200000000
20
111.242700000000
30
0.0
0
VERTEX
5
526
100
AcDbEntity
8
1-8
6
CONTINUOUS
62
  3
100
AcDbVertex
100
AcDb2dVertex
10
395.240200000000
20
106.242800000000
30
0.0
0
VERTEX
5
527
100
AcDbEntity
8
1-8
6
CONTINUOUS
62
  3
100
AcDbVertex
100
AcDb2dVertex
10
370.240200000000
20
106.242800000000
30
0.0
0
VERTEX
5
528
100
AcDbEntity
8
1-8
6
CONTINUOUS
62
  3
100
AcDbVertex
100
AcDb2dVertex
10
370.240200000000
20
111.242700000000
30
0.0
0
SEQEND
5
529
100
AcDbEntity
8
1-8
0
POLYLINE
5
52a
100
AcDbEntity
8
1-8
6
CONTINUOUS
62
  3
100
AcDb2dPolyline
66
1
10
0.0
20
0.0
30
0.0
70
0
0
VERTEX
5
52b
100
AcDbEntity
8
1-8
6
CONTINUOUS
62
  3
100
AcDbVertex
100
AcDb2dVertex
10
370.240200000000
20
101.242800000000
30
0.0
0
VERTEX
5
52c
100
AcDbEntity
8
1-8
6
CONTINUOUS
62
  3
100
AcDbVertex
100
AcDb2dVertex
10
395.240200000000
20
101.242800000000
30
0.0
0
VERTEX
5
52d
100
AcDbEntity
8
1-8
6
CONTINUOUS
62
  3
100
AcDbVertex
100
AcDb2dVertex
10
395.240200000000
20
96.242800000000
30
0.0
0
VERTEX
5
52e
100
AcDbEntity
8
1-8
6
CONTINUOUS
62
  3
100
AcDbVertex
100
AcDb2dVertex
10
370.240200000000
20
96.242800000000
30
0.0
0
VERTEX
5
52f
100
AcDbEntity
8
1-8
6
CONTINUOUS
62
  3
100
AcDbVertex
100
AcDb2dVertex
10
370.240200000000
20
101.242800000000
30
0.0
0
SEQEND
5
530
100
AcDbEntity
8
1-8
0
POLYLINE
5
531
100
AcDbEntity
8
1-8
6
CONTINUOUS
62
  3
100
AcDb2dPolyline
66
1
10
0.0
20
0.0
30
0.0
70
0
0
VERTEX
5
532
100
AcDbEntity
8
1-8
6
CONTINUOUS
62
  3
100
AcDbVertex
100
AcDb2dVertex
10
370.240200000000
20
106.242800000000
30
0.0
0
VERTEX
5
533
100
AcDbEntity
8
1-8
6
CONTINUOUS
62
  3
100
AcDbVertex
100
AcDb2dVertex
10
395.240200000000
20
106.242800000000
30
0.0
0
VERTEX
5
534
100
AcDbEntity
8
1-8
6
CONTINUOUS
62
  3
100
AcDbVertex
100
AcDb2dVertex
10
395.240200000000
20
101.242800000000
30
0.0
0
VERTEX
5
535
100
AcDbEntity
8
1-8
6
CONTINUOUS
62
  3
100
AcDbVertex
100
AcDb2dVertex
10
370.240200000000
20
101.242800000000
30
0.0
0
VERTEX
5
536
100
AcDbEntity
8
1-8
6
CONTINUOUS
62
  3
100
AcDbVertex
100
AcDb2dVertex
10
370.240200000000
20
106.242800000000
30
0.0
0
SEQEND
5
537
100
AcDbEntity
8
1-8
0
POLYLINE
5
538
100
AcDbEntity
8
1-8
6
CONTINUOUS
62
  3
100
AcDb2dPolyline
66
1
10
0.0
20
0.0
30
0.0
70
0
0
VERTEX
5
539
100
AcDbEntity
8
1-8
6
CONTINUOUS
62
  3
100
AcDbVertex
100
AcDb2dVertex
10
370.240200000000
20
96.242800000000
30
0.0
0
VERTEX
5
53a
100
AcDbEntity
8
1-8
6
CONTINUOUS
62
  3
100
AcDbVertex
100
AcDb2dVertex
10
395.240200000000
20
96.242800000000
30
0.0
0
VERTEX
5
53b
100
AcDbEntity
8
1-8
6
CONTINUOUS
62
  3
100
AcDbVertex
100
AcDb2dVertex
10
395.240200000000
20
91.242800000000
30
0.0
0
VERTEX
5
53c
100
AcDbEntity
8
1-8
6
CONTINUOUS
62
  3
100
AcDbVertex
100
AcDb2dVertex
10
370.240200000000
20
91.242800000000
30
0.0
0
VERTEX
5
53d
100
AcDbEntity
8
1-8
6
CONTINUOUS
62
  3
100
AcDbVertex
100
AcDb2dVertex
10
370.240200000000
20
96.242800000000
30
0.0
0
SEQEND
5
53e
100
AcDbEntity
8
1-8
0
POLYLINE
5
53f
100
AcDbEntity
8
1-8
6
CONTINUOUS
62
  3
100
AcDb2dPolyline
66
1
10
0.0
20
0.0
30
0.0
70
0
0
VERTEX
5
540
100
AcDbEntity
8
1-8
6
CONTINUOUS
62
  3
100
AcDbVertex
100
AcDb2dVertex
10
345.240300000000
20
136.242700000000
30
0.0
0
VERTEX
5
541
100
AcDbEntity
8
1-8
6
CONTINUOUS
62
  3
100
AcDbVertex
100
AcDb2dVertex
10
395.240200000000
20
136.242700000000
30
0.0
0
VERTEX
5
542
100
AcDbEntity
8
1-8
6
CONTINUOUS
62
  3
100
AcDbVertex
100
AcDb2dVertex
10
395.240200000000
20
131.242700000000
30
0.0
0
VERTEX
5
543
100
AcDbEntity
8
1-8
6
CONTINUOUS
62
  3
100
AcDbVertex
100
AcDb2dVertex
10
345.240300000000
20
131.242700000000
30
0.0
0
VERTEX
5
544
100
AcDbEntity
8
1-8
6
CONTINUOUS
62
  3
100
AcDbVertex
100
AcDb2dVertex
10
345.240300000000
20
136.242700000000
30
0.0
0
SEQEND
5
545
100
AcDbEntity
8
1-8
0
POLYLINE
5
546
100
AcDbEntity
8
1-8
6
CONTINUOUS
62
  3
100
AcDb2dPolyline
66
1
10
0.0
20
0.0
30
0.0
70
0
0
VERTEX
5
547
100
AcDbEntity
8
1-8
6
CONTINUOUS
62
  3
100
AcDbVertex
100
AcDb2dVertex
10
370.240200000000
20
131.242700000000
30
0.0
0
VERTEX
5
548
100
AcDbEntity
8
1-8
6
CONTINUOUS
62
  3
100
AcDbVertex
100
AcDb2dVertex
10
395.240200000000
20
131.242700000000
30
0.0
0
VERTEX
5
549
100
AcDbEntity
8
1-8
6
CONTINUOUS
62
  3
100
AcDbVertex
100
AcDb2dVertex
10
395.240200000000
20
126.242700000000
30
0.0
0
VERTEX
5
54a
100
AcDbEntity
8
1-8
6
CONTINUOUS
62
  3
100
AcDbVertex
100
AcDb2dVertex
10
370.240200000000
20
126.242700000000
30
0.0
0
VERTEX
5
54b
100
AcDbEntity
8
1-8
6
CONTINUOUS
62
  3
100
AcDbVertex
100
AcDb2dVertex
10
370.240200000000
20
131.242700000000
30
0.0
0
SEQEND
5
54c
100
AcDbEntity
8
1-8
0
POLYLINE
5
54d
100
AcDbEntity
8
1-8
6
CONTINUOUS
62
  3
100
AcDb2dPolyline
66
1
10
0.0
20
0.0
30
0.0
70
0
0
VERTEX
5
54e
100
AcDbEntity
8
1-8
6
CONTINUOUS
62
  3
100
AcDbVertex
100
AcDb2dVertex
10
293.639000000000
20
272.000100000000
30
0.0
0
VERTEX
5
54f
100
AcDbEntity
8
1-8
6
CONTINUOUS
62
  3
100
AcDbVertex
100
AcDb2dVertex
10
401.000000000000
20
272.000100000000
30
0.0
0
VERTEX
5
550
100
AcDbEntity
8
1-8
6
CONTINUOUS
62
  3
100
AcDbVertex
100
AcDb2dVertex
10
401.000000000000
20
195.952700000000
30
0.0
0
SEQEND
5
551
100
AcDbEntity
8
1-8
0
LINE
5
552
100
AcDbEntity
8
1-8
6
CONTINUOUS
62
3
100
AcDbLine
10
293.639000000000
20
272.000100000000
30
0.0
11
293.639000000000
21
195.952700000000
31
0.0
0
LINE
5
553
100
AcDbEntity
8
1-8
6
CONTINUOUS
62
3
100
AcDbLine
10
311.532500000000
20
272.000100000000
30
0.0
11
311.532500000000
21
195.952700000000
31
0.0
0
LINE
5
554
100
AcDbEntity
8
1-8
6
CONTINUOUS
62
3
100
AcDbLine
10
320.479300000000
20
272.000100000000
30
0.0
11
320.479300000000
21
195.952700000000
31
0.0
0
LINE
5
555
100
AcDbEntity
8
1-8
6
CONTINUOUS
62
3
100
AcDbLine
10
338.372800000000
20
272.000100000000
30
0.0
11
338.372800000000
21
195.952700000000
31
0.0
0
LINE
5
556
100
AcDbEntity
8
1-8
6
CONTINUOUS
62
3
100
AcDbLine
10
293.639000000000
20
267.526700000000
30
0.0
11
401.000000000000
21
267.526700000000
31
0.0
0
LINE
5
557
100
AcDbEntity
8
1-8
6
CONTINUOUS
62
3
100
AcDbLine
10
293.639000000000
20
263.053300000000
30
0.0
11
401.000000000000
21
263.053300000000
31
0.0
0
LINE
5
558
100
AcDbEntity
8
1-8
6
CONTINUOUS
62
3
100
AcDbLine
10
293.639000000000
20
258.579900000000
30
0.0
11
401.000000000000
21
258.579900000000
31
0.0
0
LINE
5
559
100
AcDbEntity
8
1-8
6
CONTINUOUS
62
3
100
AcDbLine
10
293.639000000000
20
254.106500000000
30
0.0
11
401.000000000000
21
254.106500000000
31
0.0
0
LINE
5
55a
100
AcDbEntity
8
1-8
6
CONTINUOUS
62
3
100
AcDbLine
10
293.639000000000
20
249.633200000000
30
0.0
11
401.000000000000
21
249.633200000000
31
0.0
0
LINE
5
55b
100
AcDbEntity
8
1-8
6
CONTINUOUS
62
3
100
AcDbLine
10
293.639000000000
20
245.159800000000
30
0.0
11
401.000000000000
21
245.159800000000
31
0.0
0
LINE
5
55c
100
AcDbEntity
8
1-8
6
CONTINUOUS
62
3
100
AcDbLine
10
293.639000000000
20
240.686400000000
30
0.0
11
401.000000000000
21
240.686400000000
31
0.0
0
LINE
5
55d
100
AcDbEntity
8
1-8
6
CONTINUOUS
62
3
100
AcDbLine
10
293.639000000000
20
236.213000000000
30
0.0
11
401.000000000000
21
236.213000000000
31
0.0
0
LINE
5
55e
100
AcDbEntity
8
1-8
6
CONTINUOUS
62
3
100
AcDbLine
10
293.639000000000
20
231.739700000000
30
0.0
11
401.000000000000
21
231.739700000000
31
0.0
0
LINE
5
55f
100
AcDbEntity
8
1-8
6
CONTINUOUS
62
3
100
AcDbLine
10
293.639000000000
20
227.266300000000
30
0.0
11
401.000000000000
21
227.266300000000
31
0.0
0
LINE
5
560
100
AcDbEntity
8
1-8
6
CONTINUOUS
62
3
100
AcDbLine
10
293.639000000000
20
222.792900000000
30
0.0
11
401.000000000000
21
222.792900000000
31
0.0
0
LINE
5
561
100
AcDbEntity
8
1-8
6
CONTINUOUS
62
3
100
AcDbLine
10
293.639000000000
20
218.319500000000
30
0.0
11
401.000000000000
21
218.319500000000
31
0.0
0
LINE
5
562
100
AcDbEntity
8
1-8
6
CONTINUOUS
62
3
100
AcDbLine
10
293.639000000000
20
213.846200000000
30
0.0
11
401.000000000000
21
213.846200000000
31
0.0
0
LINE
5
563
100
AcDbEntity
8
1-8
6
CONTINUOUS
62
3
100
AcDbLine
10
347.319500000000
20
272.000100000000
30
0.0
11
347.319500000000
21
195.952700000000
31
0.0
0
LINE
5
564
100
AcDbEntity
8
1-8
6
CONTINUOUS
62
3
100
AcDbLine
10
302.585800000000
20
272.000100000000
30
0.0
11
302.585800000000
21
195.952700000000
31
0.0
0
LINE
5
565
100
AcDbEntity
8
1-8
6
CONTINUOUS
62
3
100
AcDbLine
10
356.266300000000
20
272.000100000000
30
0.0
11
356.266300000000
21
195.952700000000
31
0.0
0
LINE
5
566
100
AcDbEntity
8
1-8
6
CONTINUOUS
62
3
100
AcDbLine
10
365.213000000000
20
272.000100000000
30
0.0
11
365.213000000000
21
195.952700000000
31
0.0
0
LINE
5
567
100
AcDbEntity
8
1-8
6
CONTINUOUS
62
3
100
AcDbLine
10
293.639000000000
20
209.372800000000
30
0.0
11
401.000000000000
21
209.372800000000
31
0.0
0
LINE
5
568
100
AcDbEntity
8
1-8
6
CONTINUOUS
62
3
100
AcDbLine
10
293.639000000000
20
204.899500000000
30
0.0
11
401.000000000000
21
204.899500000000
31
0.0
0
LINE
5
569
100
AcDbEntity
8
1-8
6
CONTINUOUS
62
3
100
AcDbLine
10
293.639000000000
20
200.426100000000
30
0.0
11
401.000000000000
21
200.426100000000
31
0.0
0
LINE
5
56a
100
AcDbEntity
8
1-8
6
CONTINUOUS
62
3
100
AcDbLine
10
365.213000000000
20
195.952700000000
30
0.0
11
293.639000000000
21
195.952700000000
31
0.0
0
POLYLINE
5
56b
100
AcDbEntity
8
1-8
6
CONTINUOUS
62
  3
100
AcDb2dPolyline
66
1
10
0.0
20
0.0
30
0.0
70
0
0
VERTEX
5
56c
100
AcDbEntity
8
1-8
6
CONTINUOUS
62
  3
100
AcDbVertex
100
AcDb2dVertex
10
365.213000000000
20
195.952700000000
30
0.0
0
VERTEX
5
56d
100
AcDbEntity
8
1-8
6
CONTINUOUS
62
  3
100
AcDbVertex
100
AcDb2dVertex
10
293.639000000000
20
195.952700000000
30
0.0
0
VERTEX
5
56e
100
AcDbEntity
8
1-8
6
CONTINUOUS
62
  3
100
AcDbVertex
100
AcDb2dVertex
10
401.000000000000
20
195.952700000000
30
0.0
0
SEQEND
5
56f
100
AcDbEntity
8
1-8
0
LINE
5
570
100
AcDbEntity
8
1-8
6
CONTINUOUS
62
3
100
AcDbLine
10
374.159800000000
20
272.000100000000
30
0.0
11
374.159800000000
21
195.952700000000
31
0.0
0
LINE
5
571
100
AcDbEntity
8
1-8
6
CONTINUOUS
62
3
100
AcDbLine
10
329.426000000000
20
272.000100000000
30
0.0
11
329.426000000000
21
195.952700000000
31
0.0
0
LINE
5
572
100
AcDbEntity
8
1-8
6
CONTINUOUS
62
3
100
AcDbLine
10
383.106500000000
20
272.000100000000
30
0.0
11
383.106500000000
21
195.952700000000
31
0.0
0
LINE
5
573
100
AcDbEntity
8
1-8
6
CONTINUOUS
62
3
100
AcDbLine
10
392.053300000000
20
272.000100000000
30
0.0
11
392.053300000000
21
195.952700000000
31
0.0
0
ELLIPSE
  5
574
100
AcDbEntity
8
0-0
6
CONTINUOUS
62
3
100
AcDbEllipse
10
294.499300000000
20
17.902900000000
30
0.0
11
3.000000000000
21
0.000000000000
31
0.0
210
0.0
220
0.0
230
1.0
40
0.833300000000
41
0.000000000000
42
6.283185307180
0
ARC
5
575
100
AcDbEntity
8
0-0
6
CONTINUOUS
62
3
100
AcDbCircle
10
292.882600000000
20
17.104300000000
30
0.0
40
1.000000000000
100
AcDbArc
50
60.000000000000
51
105.000000000000
0
ARC
5
576
100
AcDbEntity
8
0-0
6
CONTINUOUS
62
3
100
AcDbCircle
10
293.907100000000
20
17.378800000000
30
0.0
40
1.000000000000
100
AcDbArc
50
60.000000000000
51
105.000000000000
0
ARC
5
577
100
AcDbEntity
8
0-0
6
CONTINUOUS
62
3
100
AcDbCircle
10
294.931600000000
20
17.653300000000
30
0.0
40
1.000000000000
100
AcDbArc
50
60.000000000000
51
105.000000000000
0
ELLIPSE
  5
578
100
AcDbEntity
8
0-0
6
CONTINUOUS
62
3
100
AcDbEllipse
10
294.499300000000
20
17.902900000000
30
0.0
11
2.500000000000
21
0.000000000000
31
0.0
210
0.0
220
0.0
230
1.0
40
0.800000000000
41
0.270792616483
42
6.145261525885
0
TEXT
5
579
100
AcDbEntity
8
1-0
62
7
370
-3
100
AcDbText
10
177.391
20
22.167
30
0.0
40
2.719
1
　　　　　を示します。
41
0.856
50
0.000
100
AcDbText
0
TEXT
5
57a
100
AcDbEntity
8
1-0
62
7
370
-3
100
AcDbText
10
177.391
20
28.167
30
0.0
40
2.719
1
　　　２．　　　　部はハツリ後、２次コンクリ－ト埋め戻し
41
0.856
50
0.000
100
AcDbText
0
TEXT
5
57b
100
AcDbEntity
8
1-0
62
7
370
-3
100
AcDbText
10
177.391
20
40.167
30
0.0
40
2.719
1
　　　　　青色（マンセル値１０Ｂ５／１０）と致します。
41
0.856
50
0.000
100
AcDbText
0
TEXT
5
57c
100
AcDbEntity
8
1-0
62
7
370
-3
100
AcDbText
10
177.391
20
34.167
30
0.0
40
2.719
1
　　　　　ＳＵＳ部は、酸洗い後、水洗い処理と致します。
41
0.856
50
0.000
100
AcDbText
0
TEXT
5
57d
100
AcDbEntity
8
1-0
62
7
370
-3
100
AcDbText
10
177.391
20
46.020
30
0.0
40
2.719
1
注記　１．塗装　下地処理後、ポリウレタン樹脂塗装とし色調は
41
0.856
50
0.000
100
AcDbText
0
TEXT
5
57e
100
AcDbEntity
8
0-0
62
7
370
-3
100
AcDbText
10
299.888
20
16.876
30
0.0
40
3.626
1
三重重工業株式会社
41
0.856
50
0.000
100
AcDbText
0
TEXT
5
57f
100
AcDbEntity
8
0-0
62
7
370
-3
100
AcDbText
10
312.879
20
278.876
30
0.0
40
2.719
1
記号
41
0.856
50
0.000
100
AcDbText
0
TEXT
5
580
100
AcDbEntity
8
0-0
62
7
370
-3
100
AcDbText
10
328.129
20
278.876
30
0.0
40
2.719
1
修　　　　　　　正
41
0.856
50
0.000
100
AcDbText
0
TEXT
5
581
100
AcDbEntity
8
0-0
62
7
370
-3
100
AcDbText
10
368.879
20
278.876
30
0.0
40
2.719
1
日　　付
41
0.856
50
0.000
100
AcDbText
0
TEXT
5
582
100
AcDbEntity
8
0-0
62
7
370
-3
100
AcDbText
10
388.629
20
278.876
30
0.0
40
2.719
1
担　　当
41
0.856
50
0.000
100
AcDbText
0
TEXT
5
583
100
AcDbEntity
8
1-8
62
7
370
-3
100
AcDbText
10
324.668
20
130.237
30
0.0
40
2.719
1
部　品　名
41
0.856
50
0.000
100
AcDbText
0
TEXT
5
584
100
AcDbEntity
8
1-8
62
7
370
-3
100
AcDbText
10
324.791
20
122.696
30
0.0
40
2.719
1
扉　　　体
41
0.856
50
0.000
100
AcDbText
0
TEXT
5
585
100
AcDbEntity
8
1-8
62
7
370
-3
100
AcDbText
10
322.111
20
117.688
30
0.0
40
2.585
1
水　密　ゴ　ム
41
0.856
50
0.000
100
AcDbText
0
TEXT
5
586
100
AcDbEntity
8
1-8
62
7
370
-3
100
AcDbText
10
324.791
20
112.696
30
0.0
40
2.719
1
戸　当　り
41
0.856
50
0.000
100
AcDbText
0
TEXT
5
587
100
AcDbEntity
8
1-8
62
7
370
-3
100
AcDbText
10
324.791
20
87.696
30
0.0
40
2.719
1
ク　サ　ビ
41
0.856
50
0.000
100
AcDbText
0
MTEXT
5
588
100
AcDbEntity
8
1-8
62
7
370
-3
100
AcDbMText
10
322.368
20
82.394
30
0.0
40
2.568
41
0.000
71
7
72
1
1
\W0.972;ボルト{\W0.700;･}ナット
7
STANDARD
11
1.00000
21
0.00000
31
0.0
0
TEXT
5
589
100
AcDbEntity
8
1-8
62
7
370
-3
100
AcDbText
10
349.370
20
122.696
30
0.0
40
2.719
1
ＳＳ４００
41
0.856
50
0.000
100
AcDbText
0
TEXT
5
58a
100
AcDbEntity
8
1-8
62
7
370
-3
100
AcDbText
10
349.370
20
112.696
30
0.0
40
2.719
1
ＳＳ４００
41
0.856
50
0.000
100
AcDbText
0
TEXT
5
58b
100
AcDbEntity
8
1-8
62
7
370
-3
100
AcDbText
10
347.110
20
140.906
30
0.0
40
3.626
1
標準材質表
41
0.856
50
0.000
100
AcDbText
0
TEXT
5
58c
100
AcDbEntity
8
1-8
62
7
370
-3
100
AcDbText
10
362.168
20
132.762
30
0.0
40
2.719
1
材　　　質
41
0.856
50
0.000
100
AcDbText
0
TEXT
5
58d
100
AcDbEntity
8
1-8
62
7
370
-3
100
AcDbText
10
354.888
20
117.550
30
0.0
40
2.719
1
ＣＲ
41
0.856
50
0.000
100
AcDbText
0
TEXT
5
58e
100
AcDbEntity
8
1-8
62
7
370
-3
100
AcDbText
10
324.868
20
107.694
30
0.0
40
2.693
1
スピンドル
41
0.856
50
0.000
100
AcDbText
0
TEXT
5
58f
100
AcDbEntity
8
1-8
62
7
370
-3
100
AcDbText
10
348.425
20
107.550
30
0.0
40
2.719
1
ＳＵＳ３０４
41
0.856
50
0.000
100
AcDbText
0
TEXT
5
590
100
AcDbEntity
8
1-8
62
7
370
-3
100
AcDbText
10
323.268
20
97.694
30
0.0
40
2.693
1
平巻式巻上機
41
0.856
50
0.000
100
AcDbText
0
TEXT
5
591
100
AcDbEntity
8
1-8
62
7
370
-3
100
AcDbText
10
350.041
20
97.550
30
0.0
40
2.719
1
ＦＣ２００
41
0.856
50
0.000
100
AcDbText
0
TEXT
5
592
100
AcDbEntity
8
1-8
62
7
370
-3
100
AcDbText
10
322.603
20
102.660
30
0.0
40
2.154
1
スピンドルカバー
41
0.856
50
0.000
100
AcDbText
0
TEXT
5
593
100
AcDbEntity
8
1-8
62
7
370
-3
100
AcDbText
10
353.272
20
102.550
30
0.0
40
2.719
1
ＳＧＰ
41
0.856
50
0.000
100
AcDbText
0
TEXT
5
594
100
AcDbEntity
8
1-8
62
7
370
-3
100
AcDbText
10
326.468
20
92.694
30
0.0
40
2.693
1
ハンドル
41
0.856
50
0.000
100
AcDbText
0
TEXT
5
595
100
AcDbEntity
8
1-8
62
7
370
-3
100
AcDbText
10
350.041
20
92.550
30
0.0
40
2.719
1
ＦＣ２００
41
0.856
50
0.000
100
AcDbText
0
TEXT
5
596
100
AcDbEntity
8
1-8
62
7
370
-3
100
AcDbText
10
379.888
20
117.550
30
0.0
40
2.719
1
ＣＲ
41
0.856
50
0.000
100
AcDbText
0
TEXT
5
597
100
AcDbEntity
8
1-8
62
7
370
-3
100
AcDbText
10
373.425
20
107.550
30
0.0
40
2.719
1
ＳＵＳ３０４
41
0.856
50
0.000
100
AcDbText
0
TEXT
5
598
100
AcDbEntity
8
1-8
62
7
370
-3
100
AcDbText
10
375.041
20
97.550
30
0.0
40
2.719
1
ＦＣ２００
41
0.856
50
0.000
100
AcDbText
0
TEXT
5
599
100
AcDbEntity
8
1-8
62
7
370
-3
100
AcDbText
10
378.272
20
102.550
30
0.0
40
2.719
1
ＳＧＰ
41
0.856
50
0.000
100
AcDbText
0
TEXT
5
59a
100
AcDbEntity
8
1-8
62
7
370
-3
100
AcDbText
10
375.041
20
92.550
30
0.0
40
2.719
1
ＦＣ２００
41
0.856
50
0.000
100
AcDbText
0
TEXT
5
59b
100
AcDbEntity
8
1-8
62
7
370
-3
100
AcDbText
10
373.425
20
122.550
30
0.0
40
2.719
1
ＳＵＳ３０４
41
0.856
50
0.000
100
AcDbText
0
TEXT
5
59c
100
AcDbEntity
8
1-8
62
7
370
-3
100
AcDbText
10
373.425
20
112.550
30
0.0
40
2.719
1
ＳＵＳ３０４
41
0.856
50
0.000
100
AcDbText
0
TEXT
5
59d
100
AcDbEntity
8
1-8
62
7
370
-3
100
AcDbText
10
373.425
20
87.550
30
0.0
40
2.719
1
ＳＵＳ３０４
41
0.856
50
0.000
100
AcDbText
0
TEXT
5
59e
100
AcDbEntity
8
1-8
62
7
370
-3
100
AcDbText
10
352.949
20
127.775
30
0.0
40
2.719
1
鋼　製
41
0.856
50
0.000
100
AcDbText
0
TEXT
5
59f
100
AcDbEntity
8
1-8
62
7
370
-3
100
AcDbText
10
374.668
20
127.852
30
0.0
40
2.719
1
ステンレス
41
0.856
50
0.000
100
AcDbText
0
TEXT
5
5a0
100
AcDbEntity
8
1-8
62
7
370
-3
100
AcDbText
10
294.622
20
268.593
30
0.0
40
3.041
1
Ｎｏ
41
0.856
50
0.000
100
AcDbText
0
TEXT
5
5a1
100
AcDbEntity
8
1-8
62
7
370
-3
100
AcDbText
10
305.526
20
268.593
30
0.0
40
3.041
1
Ａ
41
0.856
50
0.000
100
AcDbText
0
TEXT
5
5a2
100
AcDbEntity
8
1-8
62
7
370
-3
100
AcDbText
10
314.473
20
268.593
30
0.0
40
3.041
1
Ｂ
41
0.856
50
0.000
100
AcDbText
0
TEXT
5
5a3
100
AcDbEntity
8
1-8
62
7
370
-3
100
AcDbText
10
323.420
20
268.593
30
0.0
40
3.041
1
Ｃ
41
0.856
50
0.000
100
AcDbText
0
TEXT
5
5a4
100
AcDbEntity
8
1-8
62
7
370
-3
100
AcDbText
10
341.313
20
268.593
30
0.0
40
3.041
1
Ｅ
41
0.856
50
0.000
100
AcDbText
0
TEXT
5
5a5
100
AcDbEntity
8
1-8
62
7
370
-3
100
AcDbText
10
296.579
20
264.119
30
0.0
40
3.041
1
１
41
0.856
50
0.000
100
AcDbText
0
TEXT
5
5a6
100
AcDbEntity
8
1-8
62
7
370
-3
100
AcDbText
10
296.579
20
259.646
30
0.0
40
3.041
1
２
41
0.856
50
0.000
100
AcDbText
0
TEXT
5
5a7
100
AcDbEntity
8
1-8
62
7
370
-3
100
AcDbText
10
296.579
20
255.173
30
0.0
40
3.041
1
３
41
0.856
50
0.000
100
AcDbText
0
TEXT
5
5a8
100
AcDbEntity
8
1-8
62
7
370
-3
100
AcDbText
10
296.579
20
250.699
30
0.0
40
3.041
1
４
41
0.856
50
0.000
100
AcDbText
0
TEXT
5
5a9
100
AcDbEntity
8
1-8
62
7
370
-3
100
AcDbText
10
296.579
20
246.226
30
0.0
40
3.041
1
５
41
0.856
50
0.000
100
AcDbText
0
TEXT
5
5aa
100
AcDbEntity
8
1-8
62
7
370
-3
100
AcDbText
10
296.579
20
241.753
30
0.0
40
3.041
1
６
41
0.856
50
0.000
100
AcDbText
0
TEXT
5
5ab
100
AcDbEntity
8
1-8
62
7
370
-3
100
AcDbText
10
296.579
20
237.279
30
0.0
40
3.041
1
７
41
0.856
50
0.000
100
AcDbText
0
TEXT
5
5ac
100
AcDbEntity
8
1-8
62
7
370
-3
100
AcDbText
10
296.579
20
232.806
30
0.0
40
3.041
1
８
41
0.856
50
0.000
100
AcDbText
0
TEXT
5
5ad
100
AcDbEntity
8
1-8
62
7
370
-3
100
AcDbText
10
296.579
20
228.332
30
0.0
40
3.041
1
９
41
0.856
50
0.000
100
AcDbText
0
TEXT
5
5ae
100
AcDbEntity
8
1-8
62
7
370
-3
100
AcDbText
10
296.440
20
223.859
30
0.0
40
3.041
1
10
41
0.725
50
0.000
100
AcDbText
0
TEXT
5
5af
100
AcDbEntity
8
1-8
62
7
370
-3
100
AcDbText
10
296.440
20
219.386
30
0.0
40
3.041
1
11
41
0.860
50
0.000
100
AcDbText
0
TEXT
5
5b0
100
AcDbEntity
8
1-8
62
7
370
-3
100
AcDbText
10
296.440
20
214.912
30
0.0
40
3.041
1
12
41
0.600
50
0.000
100
AcDbText
0
TEXT
5
5b1
100
AcDbEntity
8
1-8
62
4
370
-3
100
AcDbText
10
305.083
20
264.315
30
0.0
40
2.534
1
300
41
0.585
50
0.000
100
AcDbText
0
TEXT
5
5b2
100
AcDbEntity
8
1-8
62
4
370
-3
100
AcDbText
10
305.083
20
259.841
30
0.0
40
2.534
1
300
41
0.585
50
0.000
100
AcDbText
0
TEXT
5
5b3
100
AcDbEntity
8
1-8
62
4
370
-3
100
AcDbText
10
305.083
20
255.368
30
0.0
40
2.534
1
400
41
0.598
50
0.000
100
AcDbText
0
TEXT
5
5b4
100
AcDbEntity
8
1-8
62
4
370
-3
100
AcDbText
10
305.083
20
250.894
30
0.0
40
2.534
1
400
41
0.598
50
0.000
100
AcDbText
0
TEXT
5
5b5
100
AcDbEntity
8
1-8
62
4
370
-3
100
AcDbText
10
305.083
20
246.421
30
0.0
40
2.534
1
500
41
0.578
50
0.000
100
AcDbText
0
TEXT
5
5b6
100
AcDbEntity
8
1-8
62
4
370
-3
100
AcDbText
10
305.083
20
241.948
30
0.0
40
2.534
1
500
41
0.578
50
0.000
100
AcDbText
0
TEXT
5
5b7
100
AcDbEntity
8
1-8
62
4
370
-3
100
AcDbText
10
305.083
20
237.474
30
0.0
40
2.534
1
600
41
0.580
50
0.000
100
AcDbText
0
TEXT
5
5b8
100
AcDbEntity
8
1-8
62
4
370
-3
100
AcDbText
10
305.083
20
233.001
30
0.0
40
2.534
1
600
41
0.580
50
0.000
100
AcDbText
0
TEXT
5
5b9
100
AcDbEntity
8
1-8
62
4
370
-3
100
AcDbText
10
305.083
20
228.528
30
0.0
40
2.534
1
700
41
0.596
50
0.000
100
AcDbText
0
TEXT
5
5ba
100
AcDbEntity
8
1-8
62
4
370
-3
100
AcDbText
10
305.083
20
224.054
30
0.0
40
2.534
1
700
41
0.596
50
0.000
100
AcDbText
0
TEXT
5
5bb
100
AcDbEntity
8
1-8
62
4
370
-3
100
AcDbText
10
305.083
20
219.581
30
0.0
40
2.534
1
800
41
0.575
50
0.000
100
AcDbText
0
TEXT
5
5bc
100
AcDbEntity
8
1-8
62
4
370
-3
100
AcDbText
10
305.083
20
215.107
30
0.0
40
2.534
1
800
41
0.575
50
0.000
100
AcDbText
0
TEXT
5
5bd
100
AcDbEntity
8
1-8
62
4
370
-3
100
AcDbText
10
314.029
20
264.315
30
0.0
40
2.534
1
200
41
0.560
50
0.000
100
AcDbText
0
TEXT
5
5be
100
AcDbEntity
8
1-8
62
4
370
-3
100
AcDbText
10
314.029
20
259.841
30
0.0
40
2.534
1
300
41
0.585
50
0.000
100
AcDbText
0
TEXT
5
5bf
100
AcDbEntity
8
1-8
62
4
370
-3
100
AcDbText
10
314.029
20
250.894
30
0.0
40
2.534
1
400
41
0.598
50
0.000
100
AcDbText
0
TEXT
5
5c0
100
AcDbEntity
8
1-8
62
4
370
-3
100
AcDbText
10
314.029
20
246.421
30
0.0
40
2.534
1
300
41
0.585
50
0.000
100
AcDbText
0
TEXT
5
5c1
100
AcDbEntity
8
1-8
62
4
370
-3
100
AcDbText
10
314.029
20
241.948
30
0.0
40
2.534
1
500
41
0.578
50
0.000
100
AcDbText
0
TEXT
5
5c2
100
AcDbEntity
8
1-8
62
4
370
-3
100
AcDbText
10
314.029
20
237.474
30
0.0
40
2.534
1
400
41
0.598
50
0.000
100
AcDbText
0
TEXT
5
5c3
100
AcDbEntity
8
1-8
62
4
370
-3
100
AcDbText
10
314.029
20
233.001
30
0.0
40
2.534
1
600
41
0.580
50
0.000
100
AcDbText
0
TEXT
5
5c4
100
AcDbEntity
8
1-8
62
4
370
-3
100
AcDbText
10
314.029
20
228.528
30
0.0
40
2.534
1
500
41
0.578
50
0.000
100
AcDbText
0
TEXT
5
5c5
100
AcDbEntity
8
1-8
62
4
370
-3
100
AcDbText
10
314.029
20
224.054
30
0.0
40
2.534
1
700
41
0.596
50
0.000
100
AcDbText
0
TEXT
5
5c6
100
AcDbEntity
8
1-8
62
4
370
-3
100
AcDbText
10
314.029
20
219.581
30
0.0
40
2.534
1
500
41
0.578
50
0.000
100
AcDbText
0
TEXT
5
5c7
100
AcDbEntity
8
1-8
62
4
370
-3
100
AcDbText
10
314.029
20
215.107
30
0.0
40
2.534
1
800
41
0.575
50
0.000
100
AcDbText
0
TEXT
5
5c8
100
AcDbEntity
8
1-8
62
4
370
-3
100
AcDbText
10
322.976
20
264.315
30
0.0
40
2.534
1
410
41
0.654
50
0.000
100
AcDbText
0
TEXT
5
5c9
100
AcDbEntity
8
1-8
62
4
370
-3
100
AcDbText
10
322.976
20
259.841
30
0.0
40
2.534
1
410
41
0.654
50
0.000
100
AcDbText
0
TEXT
5
5ca
100
AcDbEntity
8
1-8
62
4
370
-3
100
AcDbText
10
322.976
20
255.368
30
0.0
40
2.534
1
510
41
0.631
50
0.000
100
AcDbText
0
TEXT
5
5cb
100
AcDbEntity
8
1-8
62
4
370
-3
100
AcDbText
10
322.976
20
250.894
30
0.0
40
2.534
1
510
41
0.631
50
0.000
100
AcDbText
0
TEXT
5
5cc
100
AcDbEntity
8
1-8
62
4
370
-3
100
AcDbText
10
322.976
20
246.421
30
0.0
40
2.534
1
610
41
0.633
50
0.000
100
AcDbText
0
TEXT
5
5cd
100
AcDbEntity
8
1-8
62
4
370
-3
100
AcDbText
10
322.976
20
241.948
30
0.0
40
2.534
1
610
41
0.633
50
0.000
100
AcDbText
0
TEXT
5
5ce
100
AcDbEntity
8
1-8
62
4
370
-3
100
AcDbText
10
322.976
20
237.474
30
0.0
40
2.534
1
710
41
0.652
50
0.000
100
AcDbText
0
TEXT
5
5cf
100
AcDbEntity
8
1-8
62
4
370
-3
100
AcDbText
10
322.976
20
233.001
30
0.0
40
2.534
1
710
41
0.652
50
0.000
100
AcDbText
0
TEXT
5
5d0
100
AcDbEntity
8
1-8
62
4
370
-3
100
AcDbText
10
322.976
20
228.528
30
0.0
40
2.534
1
810
41
0.627
50
0.000
100
AcDbText
0
TEXT
5
5d1
100
AcDbEntity
8
1-8
62
4
370
-3
100
AcDbText
10
322.976
20
224.054
30
0.0
40
2.534
1
810
41
0.627
50
0.000
100
AcDbText
0
TEXT
5
5d2
100
AcDbEntity
8
1-8
62
4
370
-3
100
AcDbText
10
322.976
20
219.581
30
0.0
40
2.534
1
910
41
0.654
50
0.000
100
AcDbText
0
TEXT
5
5d3
100
AcDbEntity
8
1-8
62
4
370
-3
100
AcDbText
10
322.976
20
215.107
30
0.0
40
2.534
1
910
41
0.654
50
0.000
100
AcDbText
0
TEXT
5
5d4
100
AcDbEntity
8
1-8
62
4
370
-3
100
AcDbText
10
314.029
20
255.368
30
0.0
40
2.534
1
250
41
0.521
50
0.000
100
AcDbText
0
TEXT
5
5d5
100
AcDbEntity
8
1-8
62
4
370
-3
100
AcDbText
10
331.923
20
264.315
30
0.0
40
2.534
1
440
41
0.571
50
0.000
100
AcDbText
0
TEXT
5
5d6
100
AcDbEntity
8
1-8
62
4
370
-3
100
AcDbText
10
331.923
20
259.841
30
0.0
40
2.534
1
440
41
0.571
50
0.000
100
AcDbText
0
TEXT
5
5d7
100
AcDbEntity
8
1-8
62
4
370
-3
100
AcDbText
10
331.923
20
255.368
30
0.0
40
2.534
1
540
41
0.554
50
0.000
100
AcDbText
0
TEXT
5
5d8
100
AcDbEntity
8
1-8
62
4
370
-3
100
AcDbText
10
331.923
20
250.894
30
0.0
40
2.534
1
540
41
0.554
50
0.000
100
AcDbText
0
TEXT
5
5d9
100
AcDbEntity
8
1-8
62
4
370
-3
100
AcDbText
10
331.923
20
246.421
30
0.0
40
2.534
1
640
41
0.555
50
0.000
100
AcDbText
0
TEXT
5
5da
100
AcDbEntity
8
1-8
62
4
370
-3
100
AcDbText
10
331.923
20
241.948
30
0.0
40
2.534
1
640
41
0.555
50
0.000
100
AcDbText
0
TEXT
5
5db
100
AcDbEntity
8
1-8
62
4
370
-3
100
AcDbText
10
331.923
20
237.474
30
0.0
40
2.534
1
740
41
0.569
50
0.000
100
AcDbText
0
TEXT
5
5dc
100
AcDbEntity
8
1-8
62
4
370
-3
100
AcDbText
10
331.923
20
233.001
30
0.0
40
2.534
1
740
41
0.569
50
0.000
100
AcDbText
0
TEXT
5
5dd
100
AcDbEntity
8
1-8
62
4
370
-3
100
AcDbText
10
331.923
20
228.528
30
0.0
40
2.534
1
840
41
0.550
50
0.000
100
AcDbText
0
TEXT
5
5de
100
AcDbEntity
8
1-8
62
4
370
-3
100
AcDbText
10
331.923
20
224.054
30
0.0
40
2.534
1
840
41
0.550
50
0.000
100
AcDbText
0
TEXT
5
5df
100
AcDbEntity
8
1-8
62
4
370
-3
100
AcDbText
10
331.923
20
219.581
30
0.0
40
2.534
1
940
41
0.571
50
0.000
100
AcDbText
0
TEXT
5
5e0
100
AcDbEntity
8
1-8
62
4
370
-3
100
AcDbText
10
331.923
20
215.107
30
0.0
40
2.534
1
940
41
0.571
50
0.000
100
AcDbText
0
TEXT
5
5e1
100
AcDbEntity
8
1-8
62
7
370
-3
100
AcDbText
10
350.260
20
268.593
30
0.0
40
3.041
1
Ｆ
41
0.856
50
0.000
100
AcDbText
0
TEXT
5
5e2
100
AcDbEntity
8
1-8
62
7
370
-3
100
AcDbText
10
359.207
20
268.593
30
0.0
40
3.041
1
Ｇ
41
0.856
50
0.000
100
AcDbText
0
TEXT
5
5e3
100
AcDbEntity
8
1-8
62
4
370
-3
100
AcDbText
10
349.117
20
264.315
30
0.0
40
2.534
1
----
41
0.525
50
0.000
100
AcDbText
0
TEXT
5
5e4
100
AcDbEntity
8
1-8
62
4
370
-3
100
AcDbText
10
349.117
20
259.841
30
0.0
40
2.534
1
----
41
0.525
50
0.000
100
AcDbText
0
TEXT
5
5e5
100
AcDbEntity
8
1-8
62
4
370
-3
100
AcDbText
10
349.117
20
255.368
30
0.0
40
2.534
1
----
41
0.525
50
0.000
100
AcDbText
0
TEXT
5
5e6
100
AcDbEntity
8
1-8
62
4
370
-3
100
AcDbText
10
349.117
20
250.894
30
0.0
40
2.534
1
----
41
0.525
50
0.000
100
AcDbText
0
TEXT
5
5e7
100
AcDbEntity
8
1-8
62
4
370
-3
100
AcDbText
10
349.117
20
246.421
30
0.0
40
2.534
1
----
41
0.525
50
0.000
100
AcDbText
0
TEXT
5
5e8
100
AcDbEntity
8
1-8
62
4
370
-3
100
AcDbText
10
349.117
20
241.948
30
0.0
40
2.534
1
----
41
0.525
50
0.000
100
AcDbText
0
TEXT
5
5e9
100
AcDbEntity
8
1-8
62
4
370
-3
100
AcDbText
10
349.117
20
237.474
30
0.0
40
2.534
1
----
41
0.525
50
0.000
100
AcDbText
0
TEXT
5
5ea
100
AcDbEntity
8
1-8
62
4
370
-3
100
AcDbText
10
349.117
20
233.001
30
0.0
40
2.534
1
----
41
0.525
50
0.000
100
AcDbText
0
TEXT
5
5eb
100
AcDbEntity
8
1-8
62
4
370
-3
100
AcDbText
10
349.117
20
228.528
30
0.0
40
2.534
1
----
41
0.525
50
0.000
100
AcDbText
0
TEXT
5
5ec
100
AcDbEntity
8
1-8
62
4
370
-3
100
AcDbText
10
349.117
20
224.054
30
0.0
40
2.534
1
----
41
0.525
50
0.000
100
AcDbText
0
TEXT
5
5ed
100
AcDbEntity
8
1-8
62
4
370
-3
100
AcDbText
10
349.117
20
219.581
30
0.0
40
2.534
1
----
41
0.525
50
0.000
100
AcDbText
0
TEXT
5
5ee
100
AcDbEntity
8
1-8
62
4
370
-3
100
AcDbText
10
349.117
20
215.107
30
0.0
40
2.534
1
----
41
0.525
50
0.000
100
AcDbText
0
TEXT
5
5ef
100
AcDbEntity
8
1-8
62
7
370
-3
100
AcDbText
10
296.440
20
210.439
30
0.0
40
3.041
1
13
41
0.645
50
0.000
100
AcDbText
0
TEXT
5
5f0
100
AcDbEntity
8
1-8
62
4
370
-3
100
AcDbText
10
305.083
20
210.634
30
0.0
40
2.534
1
900
41
0.598
50
0.000
100
AcDbText
0
TEXT
5
5f1
100
AcDbEntity
8
1-8
62
4
370
-3
100
AcDbText
10
314.029
20
210.634
30
0.0
40
2.534
1
600
41
0.580
50
0.000
100
AcDbText
0
TEXT
5
5f2
100
AcDbEntity
8
1-8
62
4
370
-3
100
AcDbText
10
322.028
20
210.634
30
0.0
40
2.534
1
1010
41
0.725
50
0.000
100
AcDbText
0
TEXT
5
5f3
100
AcDbEntity
8
1-8
62
4
370
-3
100
AcDbText
10
330.975
20
210.634
30
0.0
40
2.534
1
1040
41
0.647
50
0.000
100
AcDbText
0
TEXT
5
5f4
100
AcDbEntity
8
1-8
62
4
370
-3
100
AcDbText
10
349.117
20
210.634
30
0.0
40
2.534
1
----
41
0.525
50
0.000
100
AcDbText
0
TEXT
5
5f5
100
AcDbEntity
8
1-8
62
7
370
-3
100
AcDbText
10
296.440
20
205.966
30
0.0
40
3.041
1
14
41
0.669
50
0.000
100
AcDbText
0
TEXT
5
5f6
100
AcDbEntity
8
1-8
62
4
370
-3
100
AcDbText
10
305.083
20
206.161
30
0.0
40
2.534
1
900
41
0.598
50
0.000
100
AcDbText
0
TEXT
5
5f7
100
AcDbEntity
8
1-8
62
4
370
-3
100
AcDbText
10
314.029
20
206.161
30
0.0
40
2.534
1
900
41
0.598
50
0.000
100
AcDbText
0
TEXT
5
5f8
100
AcDbEntity
8
1-8
62
4
370
-3
100
AcDbText
10
322.028
20
206.161
30
0.0
40
2.534
1
1010
41
0.725
50
0.000
100
AcDbText
0
TEXT
5
5f9
100
AcDbEntity
8
1-8
62
4
370
-3
100
AcDbText
10
330.975
20
206.161
30
0.0
40
2.534
1
1040
41
0.647
50
0.000
100
AcDbText
0
TEXT
5
5fa
100
AcDbEntity
8
1-8
62
4
370
-3
100
AcDbText
10
349.117
20
206.161
30
0.0
40
2.534
1
----
41
0.525
50
0.000
100
AcDbText
0
TEXT
5
5fb
100
AcDbEntity
8
1-8
62
7
370
-3
100
AcDbText
10
296.440
20
201.492
30
0.0
40
3.041
1
15
41
0.633
50
0.000
100
AcDbText
0
TEXT
5
5fc
100
AcDbEntity
8
1-8
62
4
370
-3
100
AcDbText
10
304.134
20
201.687
30
0.0
40
2.534
1
1000
41
0.672
50
0.000
100
AcDbText
0
TEXT
5
5fd
100
AcDbEntity
8
1-8
62
4
370
-3
100
AcDbText
10
314.029
20
201.687
30
0.0
40
2.534
1
600
41
0.580
50
0.000
100
AcDbText
0
TEXT
5
5fe
100
AcDbEntity
8
1-8
62
4
370
-3
100
AcDbText
10
322.028
20
201.687
30
0.0
40
2.534
1
1110
41
0.787
50
0.000
100
AcDbText
0
TEXT
5
5ff
100
AcDbEntity
8
1-8
62
4
370
-3
100
AcDbText
10
330.975
20
201.687
30
0.0
40
2.534
1
1140
41
0.696
50
0.000
100
AcDbText
0
TEXT
5
600
100
AcDbEntity
8
1-8
62
4
370
-3
100
AcDbText
10
349.117
20
201.687
30
0.0
40
2.534
1
----
41
0.525
50
0.000
100
AcDbText
0
TEXT
5
601
100
AcDbEntity
8
1-8
62
7
370
-3
100
AcDbText
10
296.440
20
197.019
30
0.0
40
3.041
1
16
41
0.636
50
0.000
100
AcDbText
0
TEXT
5
602
100
AcDbEntity
8
1-8
62
4
370
-3
100
AcDbText
10
304.134
20
197.214
30
0.0
40
2.534
1
1000
41
0.672
50
0.000
100
AcDbText
0
TEXT
5
603
100
AcDbEntity
8
1-8
62
4
370
-3
100
AcDbText
10
313.081
20
197.214
30
0.0
40
2.534
1
1000
41
0.672
50
0.000
100
AcDbText
0
TEXT
5
604
100
AcDbEntity
8
1-8
62
4
370
-3
100
AcDbText
10
322.028
20
197.214
30
0.0
40
2.534
1
1110
41
0.787
50
0.000
100
AcDbText
0
TEXT
5
605
100
AcDbEntity
8
1-8
62
4
370
-3
100
AcDbText
10
330.975
20
197.214
30
0.0
40
2.534
1
1140
41
0.696
50
0.000
100
AcDbText
0
TEXT
5
606
100
AcDbEntity
8
1-8
62
4
370
-3
100
AcDbText
10
349.117
20
197.214
30
0.0
40
2.534
1
----
41
0.525
50
0.000
100
AcDbText
0
MTEXT
5
607
100
AcDbEntity
8
1-8
62
4
370
-3
100
AcDbMText
10
329.980
20
190.267
30
0.0
40
2.127
41
0.000
71
7
72
1
1
\W0.972;{\W0.700;[}注意{\W0.700;]}
7
STANDARD
11
1.00000
21
0.00000
31
0.0
0
TEXT
5
608
100
AcDbEntity
8
1-8
62
4
370
-3
100
AcDbText
10
330.007
20
186.941
30
0.0
40
2.253
1
・標記以外の寸法も製作できますので御指定下さい。
41
0.856
50
0.000
100
AcDbText
0
TEXT
5
609
100
AcDbEntity
8
1-8
62
7
370
-3
100
AcDbText
10
368.153
20
268.593
30
0.0
40
3.041
1
Ｈ
41
0.856
50
0.000
100
AcDbText
0
TEXT
5
60a
100
AcDbEntity
8
1-8
62
7
370
-3
100
AcDbText
10
377.100
20
268.593
30
0.0
40
3.041
1
φ
41
0.856
50
0.000
100
AcDbText
0
TEXT
5
60b
100
AcDbEntity
8
1-8
62
4
370
-3
100
AcDbText
10
358.763
20
264.315
30
0.0
40
2.534
1
400
41
0.598
50
0.000
100
AcDbText
0
TEXT
5
60c
100
AcDbEntity
8
1-8
62
4
370
-3
100
AcDbText
10
376.961
20
264.315
30
0.0
40
2.534
1
32
41
0.487
50
0.000
100
AcDbText
0
TEXT
5
60d
100
AcDbEntity
8
1-8
62
4
370
-3
100
AcDbText
10
358.763
20
259.841
30
0.0
40
2.534
1
400
41
0.598
50
0.000
100
AcDbText
0
TEXT
5
60e
100
AcDbEntity
8
1-8
62
4
370
-3
100
AcDbText
10
358.763
20
255.368
30
0.0
40
2.534
1
400
41
0.598
50
0.000
100
AcDbText
0
TEXT
5
60f
100
AcDbEntity
8
1-8
62
4
370
-3
100
AcDbText
10
358.763
20
250.894
30
0.0
40
2.534
1
400
41
0.598
50
0.000
100
AcDbText
0
TEXT
5
610
100
AcDbEntity
8
1-8
62
4
370
-3
100
AcDbText
10
358.763
20
246.421
30
0.0
40
2.534
1
400
41
0.598
50
0.000
100
AcDbText
0
TEXT
5
611
100
AcDbEntity
8
1-8
62
4
370
-3
100
AcDbText
10
358.763
20
241.948
30
0.0
40
2.534
1
400
41
0.598
50
0.000
100
AcDbText
0
TEXT
5
612
100
AcDbEntity
8
1-8
62
4
370
-3
100
AcDbText
10
358.763
20
237.474
30
0.0
40
2.534
1
400
41
0.598
50
0.000
100
AcDbText
0
TEXT
5
613
100
AcDbEntity
8
1-8
62
4
370
-3
100
AcDbText
10
358.763
20
233.001
30
0.0
40
2.534
1
400
41
0.598
50
0.000
100
AcDbText
0
TEXT
5
614
100
AcDbEntity
8
1-8
62
4
370
-3
100
AcDbText
10
358.763
20
228.528
30
0.0
40
2.534
1
400
41
0.598
50
0.000
100
AcDbText
0
TEXT
5
615
100
AcDbEntity
8
1-8
62
4
370
-3
100
AcDbText
10
358.763
20
224.054
30
0.0
40
2.534
1
400
41
0.598
50
0.000
100
AcDbText
0
TEXT
5
616
100
AcDbEntity
8
1-8
62
4
370
-3
100
AcDbText
10
358.763
20
219.581
30
0.0
40
2.534
1
500
41
0.578
50
0.000
100
AcDbText
0
TEXT
5
617
100
AcDbEntity
8
1-8
62
4
370
-3
100
AcDbText
10
358.763
20
215.107
30
0.0
40
2.534
1
500
41
0.578
50
0.000
100
AcDbText
0
TEXT
5
618
100
AcDbEntity
8
1-8
62
4
370
-3
100
AcDbText
10
358.763
20
210.634
30
0.0
40
2.534
1
500
41
0.578
50
0.000
100
AcDbText
0
TEXT
5
619
100
AcDbEntity
8
1-8
62
4
370
-3
100
AcDbText
10
358.763
20
206.161
30
0.0
40
2.534
1
500
41
0.578
50
0.000
100
AcDbText
0
TEXT
5
61a
100
AcDbEntity
8
1-8
62
4
370
-3
100
AcDbText
10
358.763
20
201.687
30
0.0
40
2.534
1
500
41
0.578
50
0.000
100
AcDbText
0
TEXT
5
61b
100
AcDbEntity
8
1-8
62
4
370
-3
100
AcDbText
10
358.763
20
197.214
30
0.0
40
2.534
1
500
41
0.578
50
0.000
100
AcDbText
0
TEXT
5
61c
100
AcDbEntity
8
1-8
62
4
370
-3
100
AcDbText
10
376.961
20
210.634
30
0.0
40
2.534
1
40
41
0.584
50
0.000
100
AcDbText
0
TEXT
5
61d
100
AcDbEntity
8
1-8
62
4
370
-3
100
AcDbText
10
376.961
20
206.161
30
0.0
40
2.534
1
40
41
0.584
50
0.000
100
AcDbText
0
TEXT
5
61e
100
AcDbEntity
8
1-8
62
4
370
-3
100
AcDbText
10
376.961
20
201.687
30
0.0
40
2.534
1
40
41
0.584
50
0.000
100
AcDbText
0
TEXT
5
61f
100
AcDbEntity
8
1-8
62
4
370
-3
100
AcDbText
10
376.961
20
197.214
30
0.0
40
2.534
1
40
41
0.584
50
0.000
100
AcDbText
0
TEXT
5
620
100
AcDbEntity
8
1-8
62
4
370
-3
100
AcDbText
10
376.961
20
259.841
30
0.0
40
2.534
1
32
41
0.487
50
0.000
100
AcDbText
0
TEXT
5
621
100
AcDbEntity
8
1-8
62
4
370
-3
100
AcDbText
10
376.961
20
255.368
30
0.0
40
2.534
1
32
41
0.487
50
0.000
100
AcDbText
0
TEXT
5
622
100
AcDbEntity
8
1-8
62
4
370
-3
100
AcDbText
10
376.961
20
250.894
30
0.0
40
2.534
1
32
41
0.487
50
0.000
100
AcDbText
0
TEXT
5
623
100
AcDbEntity
8
1-8
62
4
370
-3
100
AcDbText
10
376.961
20
246.421
30
0.0
40
2.534
1
32
41
0.487
50
0.000
100
AcDbText
0
TEXT
5
624
100
AcDbEntity
8
1-8
62
4
370
-3
100
AcDbText
10
376.961
20
241.948
30
0.0
40
2.534
1
32
41
0.487
50
0.000
100
AcDbText
0
TEXT
5
625
100
AcDbEntity
8
1-8
62
4
370
-3
100
AcDbText
10
376.961
20
237.474
30
0.0
40
2.534
1
32
41
0.487
50
0.000
100
AcDbText
0
TEXT
5
626
100
AcDbEntity
8
1-8
62
4
370
-3
100
AcDbText
10
376.961
20
233.001
30
0.0
40
2.534
1
32
41
0.487
50
0.000
100
AcDbText
0
TEXT
5
627
100
AcDbEntity
8
1-8
62
4
370
-3
100
AcDbText
10
376.961
20
228.528
30
0.0
40
2.534
1
32
41
0.487
50
0.000
100
AcDbText
0
TEXT
5
628
100
AcDbEntity
8
1-8
62
4
370
-3
100
AcDbText
10
376.961
20
224.054
30
0.0
40
2.534
1
32
41
0.487
50
0.000
100
AcDbText
0
TEXT
5
629
100
AcDbEntity
8
1-8
62
4
370
-3
100
AcDbText
10
376.961
20
219.581
30
0.0
40
2.534
1
40
41
0.584
50
0.000
100
AcDbText
0
TEXT
5
62a
100
AcDbEntity
8
1-8
62
4
370
-3
100
AcDbText
10
376.961
20
215.107
30
0.0
40
2.534
1
40
41
0.584
50
0.000
100
AcDbText
0
TEXT
5
62b
100
AcDbEntity
8
1-8
62
7
370
-3
100
AcDbText
10
332.366
20
268.593
30
0.0
40
3.041
1
Ｄ
41
0.856
50
0.000
100
AcDbText
0
TEXT
5
62c
100
AcDbEntity
8
1-8
62
7
370
-3
100
AcDbText
10
383.674
20
268.975
30
0.0
40
2.216
1
巻上機
41
0.856
50
0.000
100
AcDbText
0
TEXT
5
62d
100
AcDbEntity
8
1-8
62
4
370
-3
100
AcDbText
10
384.689
20
264.315
30
0.0
40
2.534
1
MF30
41
0.541
50
0.000
100
AcDbText
0
TEXT
5
62e
100
AcDbEntity
8
1-8
62
7
370
-3
100
AcDbText
10
393.980
20
270.120
30
0.0
40
1.446
1
スキン
41
0.856
50
0.000
100
AcDbText
0
TEXT
5
62f
100
AcDbEntity
8
1-8
62
4
370
-3
100
AcDbText
10
384.689
20
259.841
30
0.0
40
2.534
1
MF30
41
0.541
50
0.000
100
AcDbText
0
TEXT
5
630
100
AcDbEntity
8
1-8
62
4
370
-3
100
AcDbText
10
384.689
20
255.368
30
0.0
40
2.534
1
MF30
41
0.541
50
0.000
100
AcDbText
0
TEXT
5
631
100
AcDbEntity
8
1-8
62
4
370
-3
100
AcDbText
10
384.689
20
250.894
30
0.0
40
2.534
1
MF30
41
0.541
50
0.000
100
AcDbText
0
TEXT
5
632
100
AcDbEntity
8
1-8
62
4
370
-3
100
AcDbText
10
384.689
20
246.421
30
0.0
40
2.534
1
MF30
41
0.541
50
0.000
100
AcDbText
0
TEXT
5
633
100
AcDbEntity
8
1-8
62
4
370
-3
100
AcDbText
10
384.689
20
241.948
30
0.0
40
2.534
1
MF30
41
0.541
50
0.000
100
AcDbText
0
TEXT
5
634
100
AcDbEntity
8
1-8
62
4
370
-3
100
AcDbText
10
384.689
20
237.474
30
0.0
40
2.534
1
MF30
41
0.541
50
0.000
100
AcDbText
0
TEXT
5
635
100
AcDbEntity
8
1-8
62
4
370
-3
100
AcDbText
10
384.689
20
233.001
30
0.0
40
2.534
1
MF30
41
0.541
50
0.000
100
AcDbText
0
TEXT
5
636
100
AcDbEntity
8
1-8
62
4
370
-3
100
AcDbText
10
384.689
20
228.528
30
0.0
40
2.534
1
MF30
41
0.541
50
0.000
100
AcDbText
0
TEXT
5
637
100
AcDbEntity
8
1-8
62
4
370
-3
100
AcDbText
10
384.689
20
224.054
30
0.0
40
2.534
1
MF30
41
0.541
50
0.000
100
AcDbText
0
TEXT
5
638
100
AcDbEntity
8
1-8
62
4
370
-3
100
AcDbText
10
384.689
20
219.581
30
0.0
40
2.534
1
MF40
41
0.549
50
0.000
100
AcDbText
0
TEXT
5
639
100
AcDbEntity
8
1-8
62
4
370
-3
100
AcDbText
10
384.689
20
215.107
30
0.0
40
2.534
1
MF40
41
0.549
50
0.000
100
AcDbText
0
TEXT
5
63a
100
AcDbEntity
8
1-8
62
4
370
-3
100
AcDbText
10
384.689
20
210.634
30
0.0
40
2.534
1
MF40
41
0.549
50
0.000
100
AcDbText
0
TEXT
5
63b
100
AcDbEntity
8
1-8
62
4
370
-3
100
AcDbText
10
384.689
20
206.161
30
0.0
40
2.534
1
MF40
41
0.549
50
0.000
100
AcDbText
0
TEXT
5
63c
100
AcDbEntity
8
1-8
62
4
370
-3
100
AcDbText
10
384.689
20
201.687
30
0.0
40
2.534
1
MF40
41
0.549
50
0.000
100
AcDbText
0
TEXT
5
63d
100
AcDbEntity
8
1-8
62
4
370
-3
100
AcDbText
10
384.689
20
197.214
30
0.0
40
2.534
1
MF40
41
0.549
50
0.000
100
AcDbText
0
TEXT
5
63e
100
AcDbEntity
8
1-8
62
7
370
-3
100
AcDbText
10
393.108
20
268.249
30
0.0
40
1.446
1
プレート
41
0.856
50
0.000
100
AcDbText
0
TEXT
5
63f
100
AcDbEntity
8
1-8
62
4
370
-3
100
AcDbText
10
393.340
20
264.294
30
0.0
40
2.216
1
PL-9T
41
0.521
50
0.000
100
AcDbText
0
TEXT
5
640
100
AcDbEntity
8
1-8
62
4
370
-3
100
AcDbText
10
393.340
20
259.821
30
0.0
40
2.216
1
PL-9T
41
0.521
50
0.000
100
AcDbText
0
TEXT
5
641
100
AcDbEntity
8
1-8
62
4
370
-3
100
AcDbText
10
393.340
20
255.348
30
0.0
40
2.216
1
PL-9T
41
0.521
50
0.000
100
AcDbText
0
TEXT
5
642
100
AcDbEntity
8
1-8
62
4
370
-3
100
AcDbText
10
393.340
20
250.874
30
0.0
40
2.216
1
PL-9T
41
0.521
50
0.000
100
AcDbText
0
TEXT
5
643
100
AcDbEntity
8
1-8
62
4
370
-3
100
AcDbText
10
393.340
20
246.401
30
0.0
40
2.216
1
PL-9T
41
0.521
50
0.000
100
AcDbText
0
TEXT
5
644
100
AcDbEntity
8
1-8
62
4
370
-3
100
AcDbText
10
393.340
20
241.928
30
0.0
40
2.216
1
PL-9T
41
0.521
50
0.000
100
AcDbText
0
TEXT
5
645
100
AcDbEntity
8
1-8
62
4
370
-3
100
AcDbText
10
392.681
20
237.454
30
0.0
40
2.216
1
PL-12T
41
0.540
50
0.000
100
AcDbText
0
TEXT
5
646
100
AcDbEntity
8
1-8
62
4
370
-3
100
AcDbText
10
392.681
20
232.981
30
0.0
40
2.216
1
PL-12T
41
0.540
50
0.000
100
AcDbText
0
TEXT
5
647
100
AcDbEntity
8
1-8
62
4
370
-3
100
AcDbText
10
392.681
20
228.507
30
0.0
40
2.216
1
PL-12T
41
0.540
50
0.000
100
AcDbText
0
TEXT
5
648
100
AcDbEntity
8
1-8
62
4
370
-3
100
AcDbText
10
392.681
20
224.034
30
0.0
40
2.216
1
PL-12T
41
0.540
50
0.000
100
AcDbText
0
TEXT
5
649
100
AcDbEntity
8
1-8
62
4
370
-3
100
AcDbText
10
392.681
20
219.561
30
0.0
40
2.216
1
PL-12T
41
0.540
50
0.000
100
AcDbText
0
TEXT
5
64a
100
AcDbEntity
8
1-8
62
4
370
-3
100
AcDbText
10
392.681
20
215.087
30
0.0
40
2.216
1
PL-12T
41
0.540
50
0.000
100
AcDbText
0
TEXT
5
64b
100
AcDbEntity
8
1-8
62
4
370
-3
100
AcDbText
10
392.681
20
210.614
30
0.0
40
2.216
1
PL-16T
41
0.550
50
0.000
100
AcDbText
0
TEXT
5
64c
100
AcDbEntity
8
1-8
62
4
370
-3
100
AcDbText
10
392.681
20
206.141
30
0.0
40
2.216
1
PL-16T
41
0.550
50
0.000
100
AcDbText
0
TEXT
5
64d
100
AcDbEntity
8
1-8
62
4
370
-3
100
AcDbText
10
392.681
20
201.667
30
0.0
40
2.216
1
PL-16T
41
0.550
50
0.000
100
AcDbText
0
TEXT
5
64e
100
AcDbEntity
8
1-8
62
4
370
-3
100
AcDbText
10
392.681
20
197.194
30
0.0
40
2.216
1
PL-16T
41
0.550
50
0.000
100
AcDbText
0
TEXT
5
64f
100
AcDbEntity
8
1-8
62
4
370
-3
100
AcDbText
10
367.710
20
264.315
30
0.0
40
2.534
1
350
41
0.543
50
0.000
100
AcDbText
0
TEXT
5
650
100
AcDbEntity
8
1-8
62
4
370
-3
100
AcDbText
10
367.710
20
259.841
30
0.0
40
2.534
1
450
41
0.554
50
0.000
100
AcDbText
0
TEXT
5
651
100
AcDbEntity
8
1-8
62
4
370
-3
100
AcDbText
10
367.710
20
255.368
30
0.0
40
2.534
1
400
41
0.598
50
0.000
100
AcDbText
0
TEXT
5
652
100
AcDbEntity
8
1-8
62
4
370
-3
100
AcDbText
10
367.710
20
250.894
30
0.0
40
2.534
1
550
41
0.537
50
0.000
100
AcDbText
0
TEXT
5
653
100
AcDbEntity
8
1-8
62
4
370
-3
100
AcDbText
10
367.710
20
246.421
30
0.0
40
2.534
1
450
41
0.554
50
0.000
100
AcDbText
0
TEXT
5
654
100
AcDbEntity
8
1-8
62
4
370
-3
100
AcDbText
10
367.710
20
241.948
30
0.0
40
2.534
1
650
41
0.538
50
0.000
100
AcDbText
0
TEXT
5
655
100
AcDbEntity
8
1-8
62
4
370
-3
100
AcDbText
10
367.710
20
237.474
30
0.0
40
2.534
1
550
41
0.537
50
0.000
100
AcDbText
0
TEXT
5
656
100
AcDbEntity
8
1-8
62
4
370
-3
100
AcDbText
10
367.710
20
233.001
30
0.0
40
2.534
1
750
41
0.552
50
0.000
100
AcDbText
0
TEXT
5
657
100
AcDbEntity
8
1-8
62
4
370
-3
100
AcDbText
10
367.710
20
228.528
30
0.0
40
2.534
1
650
41
0.538
50
0.000
100
AcDbText
0
TEXT
5
658
100
AcDbEntity
8
1-8
62
4
370
-3
100
AcDbText
10
367.710
20
224.054
30
0.0
40
2.534
1
850
41
0.534
50
0.000
100
AcDbText
0
TEXT
5
659
100
AcDbEntity
8
1-8
62
4
370
-3
100
AcDbText
10
367.710
20
219.581
30
0.0
40
2.534
1
650
41
0.538
50
0.000
100
AcDbText
0
TEXT
5
65a
100
AcDbEntity
8
1-8
62
4
370
-3
100
AcDbText
10
367.710
20
215.107
30
0.0
40
2.534
1
950
41
0.554
50
0.000
100
AcDbText
0
TEXT
5
65b
100
AcDbEntity
8
1-8
62
4
370
-3
100
AcDbText
10
367.710
20
210.634
30
0.0
40
2.534
1
750
41
0.552
50
0.000
100
AcDbText
0
TEXT
5
65c
100
AcDbEntity
8
1-8
62
4
370
-3
100
AcDbText
10
366.800
20
206.161
30
0.0
40
2.534
1
1050
41
0.630
50
0.000
100
AcDbText
0
TEXT
5
65d
100
AcDbEntity
8
1-8
62
4
370
-3
100
AcDbText
10
367.710
20
201.687
30
0.0
40
2.534
1
750
41
0.552
50
0.000
100
AcDbText
0
TEXT
5
65e
100
AcDbEntity
8
1-8
62
4
370
-3
100
AcDbText
10
366.800
20
197.214
30
0.0
40
2.534
1
1150
41
0.676
50
0.000
100
AcDbText
0
TEXT
5
65f
100
AcDbEntity
8
1-8
62
7
370
-3
100
AcDbText
10
348.425
20
87.550
30
0.0
40
2.719
1
ＳＵＳ３０４
41
0.856
50
0.000
100
AcDbText
0
TEXT
5
660
100
AcDbEntity
8
1-8
62
4
370
-3
100
AcDbText
10
330.007
20
183.941
30
0.0
40
2.253
1
・社内基準により設定しています。
41
0.856
50
0.000
100
AcDbText
0
TEXT
5
661
100
AcDbEntity
8
1-8
62
4
370
-3
100
AcDbText
10
340.171
20
264.315
30
0.0
40
2.534
1
----
41
0.525
50
0.000
100
AcDbText
0
TEXT
5
662
100
AcDbEntity
8
1-8
62
4
370
-3
100
AcDbText
10
340.171
20
259.841
30
0.0
40
2.534
1
----
41
0.525
50
0.000
100
AcDbText
0
TEXT
5
663
100
AcDbEntity
8
1-8
62
4
370
-3
100
AcDbText
10
340.171
20
255.368
30
0.0
40
2.534
1
----
41
0.525
50
0.000
100
AcDbText
0
TEXT
5
664
100
AcDbEntity
8
1-8
62
4
370
-3
100
AcDbText
10
340.171
20
250.894
30
0.0
40
2.534
1
----
41
0.525
50
0.000
100
AcDbText
0
TEXT
5
665
100
AcDbEntity
8
1-8
62
4
370
-3
100
AcDbText
10
340.171
20
246.421
30
0.0
40
2.534
1
----
41
0.525
50
0.000
100
AcDbText
0
TEXT
5
666
100
AcDbEntity
8
1-8
62
4
370
-3
100
AcDbText
10
340.171
20
241.948
30
0.0
40
2.534
1
----
41
0.525
50
0.000
100
AcDbText
0
TEXT
5
667
100
AcDbEntity
8
1-8
62
4
370
-3
100
AcDbText
10
340.171
20
237.474
30
0.0
40
2.534
1
----
41
0.525
50
0.000
100
AcDbText
0
TEXT
5
668
100
AcDbEntity
8
1-8
62
4
370
-3
100
AcDbText
10
340.171
20
233.001
30
0.0
40
2.534
1
----
41
0.525
50
0.000
100
AcDbText
0
TEXT
5
669
100
AcDbEntity
8
1-8
62
4
370
-3
100
AcDbText
10
340.171
20
228.528
30
0.0
40
2.534
1
----
41
0.525
50
0.000
100
AcDbText
0
TEXT
5
66a
100
AcDbEntity
8
1-8
62
4
370
-3
100
AcDbText
10
340.171
20
224.054
30
0.0
40
2.534
1
----
41
0.525
50
0.000
100
AcDbText
0
TEXT
5
66b
100
AcDbEntity
8
1-8
62
4
370
-3
100
AcDbText
10
340.171
20
219.581
30
0.0
40
2.534
1
----
41
0.525
50
0.000
100
AcDbText
0
TEXT
5
66c
100
AcDbEntity
8
1-8
62
4
370
-3
100
AcDbText
10
340.171
20
215.107
30
0.0
40
2.534
1
----
41
0.525
50
0.000
100
AcDbText
0
TEXT
5
66d
100
AcDbEntity
8
1-8
62
4
370
-3
100
AcDbText
10
340.171
20
210.634
30
0.0
40
2.534
1
----
41
0.525
50
0.000
100
AcDbText
0
TEXT
5
66e
100
AcDbEntity
8
1-8
62
4
370
-3
100
AcDbText
10
340.171
20
206.161
30
0.0
40
2.534
1
----
41
0.525
50
0.000
100
AcDbText
0
TEXT
5
66f
100
AcDbEntity
8
1-8
62
4
370
-3
100
AcDbText
10
340.171
20
201.687
30
0.0
40
2.534
1
----
41
0.525
50
0.000
100
AcDbText
0
TEXT
5
670
100
AcDbEntity
8
1-8
62
4
370
-3
100
AcDbText
10
340.171
20
197.214
30
0.0
40
2.534
1
----
41
0.525
50
0.000
100
AcDbText
0
TEXT
5
671
100
AcDbEntity
8
1-8
62
7
370
-3
100
AcDbText
10
302.441
20
26.007
30
0.0
40
3.626
41
0.517
50
0.000
1
NTS
72
1
11
305.500
21
27.500
31
0.0
100
AcDbText
73
2
0
TEXT
5
672
100
AcDbEntity
8
1-8
62
7
370
-3
100
AcDbText
10
301.364
20
35.007
30
0.0
40
3.626
41
0.856
50
0.000
1
図示
72
1
11
305.500
21
36.500
31
0.0
100
AcDbText
73
2
0
TEXT
5
673
100
AcDbEntity
8
0-0
62
7
370
-3
100
AcDbText
10
292.694
20
50.037
30
0.0
40
2.203
1
客先
41
0.856
50
0.000
  7
TATEGAKI
100
AcDbText
0
TEXT
5
674
100
AcDbEntity
8
0-0
62
7
370
-3
100
AcDbText
10
292.694
20
39.537
30
0.0
40
2.203
1
材質
41
0.856
50
0.000
  7
TATEGAKI
100
AcDbText
0
TEXT
5
675
100
AcDbEntity
8
0-0
62
7
370
-3
100
AcDbText
10
292.694
20
30.537
30
0.0
40
2.203
1
尺度
41
0.856
50
0.000
  7
TATEGAKI
100
AcDbText
0
TEXT
5
676
100
AcDbEntity
8
0-0
62
7
370
-3
100
AcDbText
10
344.444
20
47.991
30
0.0
40
2.203
1
名　称
41
0.856
50
0.000
  7
TATEGAKI
100
AcDbText
0
TEXT
5
677
100
AcDbEntity
8
0-0
62
7
370
-3
100
AcDbText
10
318.194
20
39.537
30
0.0
40
2.203
1
数量
41
0.856
50
0.000
  7
TATEGAKI
100
AcDbText
0
TEXT
5
678
100
AcDbEntity
8
0-0
62
7
370
-3
100
AcDbText
10
318.194
20
30.537
30
0.0
40
2.203
1
日付
41
0.856
50
0.000
  7
TATEGAKI
100
AcDbText
0
TEXT
5
679
100
AcDbEntity
8
0-0
62
7
370
-3
100
AcDbText
10
344.444
20
31.537
30
0.0
40
2.203
1
承認
41
0.856
50
0.000
  7
TATEGAKI
100
AcDbText
0
TEXT
5
67a
100
AcDbEntity
8
0-0
62
7
370
-3
100
AcDbText
10
365.944
20
31.537
30
0.0
40
2.203
1
検図
41
0.856
50
0.000
  7
TATEGAKI
100
AcDbText
0
TEXT
5
67b
100
AcDbEntity
8
0-0
62
7
370
-3
100
AcDbText
10
386.444
20
31.537
30
0.0
40
2.203
1
担当
41
0.856
50
0.000
  7
TATEGAKI
100
AcDbText
0
TEXT
5
67c
100
AcDbEntity
8
1-8
62
7
370
-3
100
AcDbText
10
372.114
20
27.007
30
0.0
40
3.626
41
0.856
50
0.000
1
井福
72
1
11
376.250
21
28.500
31
0.0
100
AcDbText
73
2
0
TEXT
5
67d
100
AcDbEntity
8
1-8
62
7
370
-3
100
AcDbText
10
392.864
20
27.007
30
0.0
40
3.626
41
0.856
50
0.000
1
平川
72
1
11
397.000
21
28.500
31
0.0
100
AcDbText
73
2
0
TEXT
5
67e
100
AcDbEntity
8
0-0
62
7
370
-3
100
AcDbText
10
344.444
20
21.537
30
0.0
40
2.203
1
図番
41
0.856
50
0.000
  7
TATEGAKI
100
AcDbText
0
LINE
5
67f
100
AcDbEntity
8
F-E_J_ADD
6
HIDDEN
62
7
100
AcDbLine
10
289.967944597189
20
47.000000000000
30
0.0
11
341.500000000000
21
47.000000000000
31
0.0
0
LINE
5
680
100
AcDbEntity
8
F-E_J_ADD
6
HIDDEN
62
7
100
AcDbLine
10
290.000100000000
20
36.500000000000
30
0.0
11
341.500000000000
21
36.500000000000
31
0.0
0
LINE
5
681
100
AcDbEntity
8
F-E_J_ADD
6
HIDDEN
62
7
100
AcDbLine
10
290.000100000000
20
27.500000000000
30
0.0
11
341.500000000000
21
27.500000000000
31
0.0
0
LINE
5
682
100
AcDbEntity
8
F-E_J_ADD
6
HIDDEN
62
7
100
AcDbLine
10
341.500000000000
20
28.500000000000
30
0.0
11
405.000000000000
21
28.500000000000
31
0.0
0
LINE
5
683
100
AcDbEntity
8
F-E_J_ADD
6
HIDDEN
62
7
100
AcDbLine
10
292.750050000000
20
53.000000000000
30
0.0
11
292.750050000000
21
23.000000000000
31
0.0
0
LINE
5
684
100
AcDbEntity
8
F-E_J_ADD
6
HIDDEN
62
7
100
AcDbLine
10
305.500050000000
20
41.000000000000
30
0.0
11
305.500050000000
21
23.000000000000
31
0.0
0
LINE
5
685
100
AcDbEntity
8
F-E_J_ADD
6
HIDDEN
62
7
100
AcDbLine
10
331.250050000000
20
41.000000000000
30
0.0
11
331.250050000000
21
23.000000000000
31
0.0
0
LINE
5
686
100
AcDbEntity
8
F-E_J_ADD
6
HIDDEN
62
7
100
AcDbLine
10
318.250100000000
20
23.000000000000
30
0.0
11
318.250100000000
21
41.000000000000
31
0.0
0
LINE
5
687
100
AcDbEntity
8
F-E_J_ADD
6
HIDDEN
62
7
100
AcDbLine
10
344.500050000000
20
53.000000000000
30
0.0
11
344.500050000000
21
14.000000000000
31
0.0
0
LINE
5
688
100
AcDbEntity
8
F-E_J_ADD
6
HIDDEN
62
7
100
AcDbLine
10
371.250050000000
20
23.000000000000
30
0.0
11
371.250050000000
21
14.000000000000
31
0.0
0
LINE
5
689
100
AcDbEntity
8
F-E_J_ADD
6
HIDDEN
62
7
100
AcDbLine
10
355.500100000000
20
23.000000000000
30
0.0
11
355.500100000000
21
34.000000000000
31
0.0
0
LINE
5
68a
100
AcDbEntity
8
F-E_J_ADD
6
HIDDEN
62
7
100
AcDbLine
10
366.000050000000
20
23.000000000000
30
0.0
11
366.000050000000
21
34.000000000000
31
0.0
0
LINE
5
68b
100
AcDbEntity
8
F-E_J_ADD
6
HIDDEN
62
7
100
AcDbLine
10
376.250000000000
20
23.000000000000
30
0.0
11
376.250000000000
21
34.000000000000
31
0.0
0
LINE
5
68c
100
AcDbEntity
8
F-E_J_ADD
6
HIDDEN
62
7
100
AcDbLine
10
397.000000000000
20
23.000000000000
30
0.0
11
397.000000000000
21
34.000000000000
31
0.0
0
LINE
5
68d
100
AcDbEntity
8
F-E_J_ADD
6
HIDDEN
62
7
100
AcDbLine
10
386.500000000000
20
23.000000000000
30
0.0
11
386.500000000000
21
34.000000000000
31
0.0
0
LINE
5
68e
100
AcDbEntity
8
F-E_J_ADD
6
HIDDEN
62
7
100
AcDbLine
10
318.500000000000
20
41.000000000000
30
0.0
11
318.500000000000
21
53.000000000000
31
0.0
0
LINE
5
68f
100
AcDbEntity
8
F-E_J_ADD
6
HIDDEN
62
7
100
AcDbLine
10
341.500000000000
20
43.500000000000
30
0.0
11
347.500100000000
21
43.500000000000
31
0.0
0
TEXT
5
690
100
AcDbEntity
8
1-8
62
7
370
-3
100
AcDbText
10
346.118
20
82.561
30
0.0
40
2.693
41
0.803
50
0.000
1
ＳＵＳ３０４相当
72
1
11
357.990
21
83.570
31
0.0
100
AcDbText
73
2
0
TEXT
5
691
100
AcDbEntity
8
1-8
62
7
370
-3
100
AcDbText
10
371.118
20
82.561
30
0.0
40
2.693
41
0.803
50
0.000
1
ＳＵＳ３０４相当
72
1
11
382.990
21
83.570
31
0.0
100
AcDbText
73
2
0
LINE
5
692
100
AcDbEntity
8
3-1
6
CONTINUOUS
62
3
100
AcDbLine
10
88.791256992923
20
150.665036241605
30
0.0
11
89.791256992922
21
150.665036241605
31
0.0
0
ARC
5
693
100
AcDbEntity
8
3-0
6
CONTINUOUS
62
7
100
AcDbCircle
10
182.358027826256
20
83.581598741605
30
0.0
40
0.416666666667
100
AcDbArc
50
180.000000000000
51
270.000000000000
0
ARC
5
694
100
AcDbEntity
8
3-0
6
CONTINUOUS
62
7
100
AcDbCircle
10
182.358027826256
20
83.581598741605
30
0.0
40
0.416666666667
100
AcDbArc
50
180.000000000000
51
270.000000000000
0
TEXT
5
695
100
AcDbEntity
8
3-E
62
7
370
-3
100
AcDbText
10
97.195
20
120.385
30
0.0
40
2.175
1
ｽｷﾝﾌﾟﾚ-ﾄ
41
0.794
50
0.000
100
AcDbText
0
POLYLINE
5
696
100
AcDbEntity
  8
3-E
6
CONTINUOUS
62
4
100
AcDb2dPolyline
66
1
10
0
20
0
70
1
40
0.400
41
0.400
0
VERTEX
5
697
100
AcDbEntity
  8
3-E
6
CONTINUOUS
62
4
100
AcDbVertex
100
AcDb2dVertex
10
93.037
20
219.609
30
0.0
42
1.000
0
VERTEX
5
698
100
AcDbEntity
  8
3-E
6
CONTINUOUS
62
4
100
AcDbVertex
100
AcDb2dVertex
10
93.437
20
219.609
30
0.0
42
1.000
0
SEQEND
5
699
100
AcDbEntity
  8
3-E
0
POLYLINE
5
69a
100
AcDbEntity
  8
3-E
6
CONTINUOUS
62
4
100
AcDb2dPolyline
66
1
10
0
20
0
70
1
40
0.400
41
0.400
0
VERTEX
5
69b
100
AcDbEntity
  8
3-E
6
CONTINUOUS
62
4
100
AcDbVertex
100
AcDb2dVertex
10
93.037
20
219.609
30
0.0
42
1.000
0
VERTEX
5
69c
100
AcDbEntity
  8
3-E
6
CONTINUOUS
62
4
100
AcDbVertex
100
AcDb2dVertex
10
93.437
20
219.609
30
0.0
42
1.000
0
SEQEND
5
69d
100
AcDbEntity
  8
3-E
0
LINE
5
69e
100
AcDbEntity
8
3-1
6
CONTINUOUS
62
3
100
AcDbLine
10
88.541256992923
20
149.415036241605
30
0.0
11
88.541256992923
21
146.498369574938
31
0.0
0
LINE
5
69f
100
AcDbEntity
8
3-1
6
CONTINUOUS
62
3
100
AcDbLine
10
88.541256992923
20
149.415036241605
30
0.0
11
88.791256992923
21
149.415036241605
31
0.0
0
LINE
5
6a0
100
AcDbEntity
8
3-1
6
CONTINUOUS
62
3
100
AcDbLine
10
88.541256992923
20
146.498369574938
30
0.0
11
88.791256992923
21
146.498369574938
31
0.0
0
LINE
5
6a1
100
AcDbEntity
8
3-1
6
CONTINUOUS
62
3
100
AcDbLine
10
87.374590326256
20
148.581702908272
30
0.0
11
87.374590326256
21
146.915036241605
31
0.0
0
LINE
5
6a2
100
AcDbEntity
8
3-1
6
CONTINUOUS
62
3
100
AcDbLine
10
87.374590326256
20
148.581702908272
30
0.0
11
88.541256992923
21
148.581702908272
31
0.0
0
LINE
5
6a3
100
AcDbEntity
8
3-1
6
CONTINUOUS
62
3
100
AcDbLine
10
87.374590326256
20
146.915036241605
30
0.0
11
88.541256992923
21
146.915036241605
31
0.0
0
LINE
5
6a4
100
AcDbEntity
8
3-1
6
CONTINUOUS
62
3
100
AcDbLine
10
89.791256992922
20
148.581702908272
30
0.0
11
89.874590326256
21
148.581702908272
31
0.0
0
LINE
5
6a5
100
AcDbEntity
8
3-1
6
CONTINUOUS
62
3
100
AcDbLine
10
89.791256992922
20
146.915036241605
30
0.0
11
89.874590326256
21
146.915036241605
31
0.0
0
LINE
5
6a6
100
AcDbEntity
8
3-1
6
CONTINUOUS
62
3
100
AcDbLine
10
120.791361159589
20
89.831598741605
30
0.0
11
91.207923659589
21
89.831598741605
31
0.0
0
LINE
5
6a7
100
AcDbEntity
8
3-1
6
CONTINUOUS
62
3
100
AcDbLine
10
93.624590326256
20
150.665036241605
30
0.0
11
92.624694492923
21
150.665036241605
31
0.0
0
LINE
5
6a8
100
AcDbEntity
8
3-1
6
CONTINUOUS
62
3
100
AcDbLine
10
93.874590326256
20
149.415036241605
30
0.0
11
93.874590326256
21
146.498369574938
31
0.0
0
LINE
5
6a9
100
AcDbEntity
8
3-1
6
CONTINUOUS
62
3
100
AcDbLine
10
93.874590326256
20
149.415036241605
30
0.0
11
93.624590326256
21
149.415036241605
31
0.0
0
LINE
5
6aa
100
AcDbEntity
8
3-1
6
CONTINUOUS
62
3
100
AcDbLine
10
93.874590326256
20
146.498369574938
30
0.0
11
93.624590326256
21
146.498369574938
31
0.0
0
LINE
5
6ab
100
AcDbEntity
8
3-1
6
CONTINUOUS
62
3
100
AcDbLine
10
95.041256992923
20
148.581702908272
30
0.0
11
95.041256992923
21
146.915036241605
31
0.0
0
LINE
5
6ac
100
AcDbEntity
8
3-1
6
CONTINUOUS
62
3
100
AcDbLine
10
95.041256992923
20
148.581702908272
30
0.0
11
93.874590326256
21
148.581702908272
31
0.0
0
LINE
5
6ad
100
AcDbEntity
8
3-1
6
CONTINUOUS
62
3
100
AcDbLine
10
95.041256992923
20
146.915036241605
30
0.0
11
93.874590326256
21
146.915036241605
31
0.0
0
LINE
5
6ae
100
AcDbEntity
8
3-1
6
CONTINUOUS
62
3
100
AcDbLine
10
92.624694492923
20
148.581702908272
30
0.0
11
92.541256992922
21
148.581702908272
31
0.0
0
LINE
5
6af
100
AcDbEntity
8
3-1
6
CONTINUOUS
62
3
100
AcDbLine
10
92.624694492923
20
146.915036241605
30
0.0
11
92.541256992922
21
146.915036241605
31
0.0
0
LINE
5
6b0
100
AcDbEntity
8
3-0
6
CONTINUOUS
62
7
100
AcDbLine
10
182.358027826256
20
83.165036241605
30
0.0
11
182.524590326256
21
83.165036241605
31
0.0
0
LINE
5
6b1
100
AcDbEntity
8
3-0
6
CONTINUOUS
62
7
100
AcDbLine
10
181.941465326256
20
87.998265408272
30
0.0
11
181.941465326256
21
83.581598741605
31
0.0
0
POLYLINE
5
6b2
100
AcDbEntity
8
3-0
6
CONTINUOUS
62
  2
100
AcDb2dPolyline
66
1
10
0.0
20
0.0
30
0.0
70
0
0
VERTEX
5
6b3
100
AcDbEntity
8
3-0
6
CONTINUOUS
62
  2
100
AcDbVertex
100
AcDb2dVertex
10
117.624590326256
20
131.081702908272
30
0.0
0
VERTEX
5
6b4
100
AcDbEntity
8
3-0
6
CONTINUOUS
62
  2
100
AcDbVertex
100
AcDb2dVertex
10
117.624590326256
20
122.748369574938
30
0.0
0
VERTEX
5
6b5
100
AcDbEntity
8
3-0
6
CONTINUOUS
62
  2
100
AcDbVertex
100
AcDb2dVertex
10
118.957923659589
20
122.748369574938
30
0.0
0
VERTEX
5
6b6
100
AcDbEntity
8
3-0
6
CONTINUOUS
62
  2
100
AcDbVertex
100
AcDb2dVertex
10
118.957923659589
20
131.081702908272
30
0.0
0
VERTEX
5
6b7
100
AcDbEntity
8
3-0
6
CONTINUOUS
62
  2
100
AcDbVertex
100
AcDb2dVertex
10
117.624590326256
20
131.081702908272
30
0.0
0
SEQEND
5
6b8
100
AcDbEntity
8
3-0
0
LINE
5
6b9
100
AcDbEntity
8
3-0
6
CENTER2
62
2
100
AcDbLine
10
120.003756992922
20
126.914932074938
30
0.0
11
116.459798659589
21
126.914932074938
31
0.0
0
LINE
5
6ba
100
AcDbEntity
8
3-1
6
CONTINUOUS
62
3
100
AcDbLine
10
178.941465326256
20
143.581702908272
30
0.0
11
178.941465326256
21
89.831702908272
31
0.0
0
LINE
5
6bb
100
AcDbEntity
8
3-1
6
CONTINUOUS
62
3
100
AcDbLine
10
179.941361159589
20
88.998265408272
30
0.0
11
180.774694492923
21
88.998265408272
31
0.0
0
POLYLINE
5
6bc
100
AcDbEntity
8
3-1
6
CONTINUOUS
62
  3
100
AcDb2dPolyline
66
1
10
0.0
20
0.0
30
0.0
70
0
0
VERTEX
5
6bd
100
AcDbEntity
8
3-1
6
CONTINUOUS
62
  3
100
AcDbVertex
100
AcDb2dVertex
10
179.941361159589
20
93.998265408272
30
0.0
0
VERTEX
5
6be
100
AcDbEntity
8
3-1
6
CONTINUOUS
62
  3
100
AcDbVertex
100
AcDb2dVertex
10
180.774694492923
20
93.998265408272
30
0.0
0
VERTEX
5
6bf
100
AcDbEntity
8
3-1
6
CONTINUOUS
62
  3
100
AcDbVertex
100
AcDb2dVertex
10
180.774694492923
20
88.998265408272
30
0.0
0
SEQEND
5
6c0
100
AcDbEntity
8
3-1
0
LINE
5
6c1
100
AcDbEntity
8
3-1
6
CONTINUOUS
62
3
100
AcDbLine
10
180.774694492923
20
93.081598741605
30
0.0
11
181.274694492922
21
93.081598741605
31
0.0
0
LINE
5
6c2
100
AcDbEntity
8
3-1
6
CENTER2
62
3
100
AcDbLine
10
177.719798659589
20
91.498265408272
30
0.0
11
181.612298659589
21
91.498265408272
31
0.0
0
LINE
5
6c3
100
AcDbEntity
8
3-1
6
CONTINUOUS
62
3
100
AcDbLine
10
180.774694492923
20
89.914932074938
30
0.0
11
181.274694492922
21
89.914932074938
31
0.0
0
LINE
5
6c4
100
AcDbEntity
8
3-0
6
CENTER2
62
2
100
AcDbLine
10
118.291256992922
20
121.498577908272
30
0.0
11
118.291256992922
21
132.643473741605
31
0.0
0
LINE
5
6c5
100
AcDbEntity
8
3-1
6
CONTINUOUS
62
3
100
AcDbLine
10
88.791256992923
20
150.665036241605
30
0.0
11
88.791256992923
21
141.915036241605
31
0.0
0
LINE
5
6c6
100
AcDbEntity
8
3-1
6
CONTINUOUS
62
3
100
AcDbLine
10
89.791256992922
20
150.665036241605
30
0.0
11
89.791256992922
21
141.915036241605
31
0.0
0
LINE
5
6c7
100
AcDbEntity
8
3-1
6
CONTINUOUS
62
3
100
AcDbLine
10
92.624694492923
20
150.665036241605
30
0.0
11
92.624590326256
21
141.915036241605
31
0.0
0
LINE
5
6c8
100
AcDbEntity
8
3-1
6
CONTINUOUS
62
3
100
AcDbLine
10
93.624590326256
20
150.665036241605
30
0.0
11
93.624590326256
21
141.915036241605
31
0.0
0
LINE
5
6c9
100
AcDbEntity
8
3-A
6
CONTINUOUS
62
2
100
AcDbLine
10
172.143340326256
20
208.545348741605
30
0.0
11
172.539381992923
21
213.071077908272
31
0.0
0
LINE
5
6ca
100
AcDbEntity
8
3-A
6
CONTINUOUS
62
2
100
AcDbLine
10
171.728444492923
20
208.165036241605
30
0.0
11
171.524694492922
21
208.165036241605
31
0.0
0
LINE
5
6cb
100
AcDbEntity
8
3-A
6
CONTINUOUS
62
2
100
AcDbLine
10
185.905944492923
20
208.545348741605
30
0.0
11
185.510006992922
21
213.071077908272
31
0.0
0
LINE
5
6cc
100
AcDbEntity
8
3-A
6
CONTINUOUS
62
2
100
AcDbLine
10
186.321152826256
20
208.165036241605
30
0.0
11
186.524694492923
21
208.165036241605
31
0.0
0
LINE
5
6cd
100
AcDbEntity
8
3-A
6
CONTINUOUS
62
2
100
AcDbLine
10
59.541361159589
20
208.164932074938
30
0.0
11
91.207923659589
21
208.164932074938
31
0.0
0
LINE
5
6ce
100
AcDbEntity
8
3-A
6
CONTINUOUS
62
2
100
AcDbLine
10
59.541361159589
20
214.415036241605
30
0.0
11
59.541361159589
21
208.164932074938
31
0.0
0
LINE
5
6cf
100
AcDbEntity
8
3-0
6
DOT
62
7
100
AcDbLine
10
61.124694492923
20
213.831702908272
30
0.0
11
61.124694492923
21
89.414932074938
31
0.0
0
LINE
5
6d0
100
AcDbEntity
8
3-0
6
CONTINUOUS
62
7
100
AcDbLine
10
121.291361159589
20
213.831702908272
30
0.0
11
121.291361159589
21
89.414932074938
31
0.0
0
LINE
5
6d1
100
AcDbEntity
8
3-A
6
CONTINUOUS
62
2
100
AcDbLine
10
122.874590326256
20
214.415036241605
30
0.0
11
122.874590326256
21
208.164932074938
31
0.0
0
LINE
5
6d2
100
AcDbEntity
8
3-0
6
CONTINUOUS
62
7
100
AcDbLine
10
66.208027826256
20
208.164932074938
30
0.0
11
66.208027826256
21
89.414932074938
31
0.0
0
LINE
5
6d3
100
AcDbEntity
8
3-A
6
CONTINUOUS
62
2
100
AcDbLine
10
172.539381992923
20
213.071077908272
30
0.0
11
172.539381992923
21
207.650348741605
31
0.0
0
LINE
5
6d4
100
AcDbEntity
8
3-A
6
CONTINUOUS
62
2
100
AcDbLine
10
175.524694492922
20
204.665036241605
30
0.0
11
172.539381992923
21
207.650348741605
31
0.0
0
LINE
5
6d5
100
AcDbEntity
8
3-A
6
CONTINUOUS
62
2
100
AcDbLine
10
185.510006992922
20
213.071077908272
30
0.0
11
185.510006992922
21
207.650348741605
31
0.0
0
LINE
5
6d6
100
AcDbEntity
8
3-A
6
CONTINUOUS
62
2
100
AcDbLine
10
182.524590326256
20
204.665036241605
30
0.0
11
185.510006992922
21
207.650348741605
31
0.0
0
LINE
5
6d7
100
AcDbEntity
8
3-A
6
CONTINUOUS
62
2
100
AcDbLine
10
65.708027826256
20
208.164932074938
30
0.0
11
65.708027826256
21
204.664932074939
31
0.0
0
LINE
5
6d8
100
AcDbEntity
8
3-A
6
CONTINUOUS
62
2
100
AcDbLine
10
66.208027826256
20
204.664932074939
30
0.0
11
65.708027826256
21
204.664932074939
31
0.0
0
LINE
5
6d9
100
AcDbEntity
8
3-A
6
DOT
62
2
100
AcDbLine
10
65.207923659589
20
213.331702908272
30
0.0
11
61.124694492923
21
213.331702908272
31
0.0
0
LINE
5
6da
100
AcDbEntity
8
3-A
6
DOT
62
2
100
AcDbLine
10
65.708027826256
20
212.831702908272
30
0.0
11
65.708027826256
21
208.164932074938
31
0.0
0
LINE
5
6db
100
AcDbEntity
8
3-A
6
DOT
62
2
100
AcDbLine
10
65.208027826256
20
213.831702908272
30
0.0
11
59.541361159589
21
213.831702908272
31
0.0
0
LINE
5
6dc
100
AcDbEntity
8
3-A
6
DOT
62
2
100
AcDbLine
10
66.208027826256
20
212.831598741605
30
0.0
11
66.208027826256
21
208.164932074938
31
0.0
0
LINE
5
6dd
100
AcDbEntity
8
3-A
6
DOT
62
2
100
AcDbLine
10
65.208027826256
20
213.831702908272
30
0.0
11
91.207923659589
21
213.831702908272
31
0.0
0
LINE
5
6de
100
AcDbEntity
8
3-A
6
DOT
62
2
100
AcDbLine
10
117.207923659589
20
213.331702908272
30
0.0
11
121.291256992923
21
213.331702908272
31
0.0
0
LINE
5
6df
100
AcDbEntity
8
3-A
6
CONTINUOUS
62
4
100
AcDbLine
10
61.720423659589
20
215.248369574938
30
0.0
11
64.028756992923
21
215.248369574938
31
0.0
0
LINE
5
6e0
100
AcDbEntity
8
3-A
6
CONTINUOUS
62
4
100
AcDbLine
10
61.720423659589
20
214.415036241605
30
0.0
11
61.720423659589
21
215.248369574938
31
0.0
0
LINE
5
6e1
100
AcDbEntity
8
3-A
6
CONTINUOUS
62
4
100
AcDbLine
10
64.028756992923
20
214.415036241605
30
0.0
11
64.028756992923
21
215.248369574938
31
0.0
0
LINE
5
6e2
100
AcDbEntity
8
3-A
6
CONTINUOUS
62
4
100
AcDbLine
10
62.207923659589
20
215.248369574938
30
0.0
11
62.207923659589
21
214.415036241605
31
0.0
0
LINE
5
6e3
100
AcDbEntity
8
3-A
6
CONTINUOUS
62
4
100
AcDbLine
10
63.541256992923
20
215.248369574938
30
0.0
11
63.541256992923
21
214.415036241605
31
0.0
0
LINE
5
6e4
100
AcDbEntity
8
3-A
6
CENTER2
62
2
100
AcDbLine
10
62.874694492923
20
216.035973741605
30
0.0
11
62.874694492923
21
212.310140408272
31
0.0
0
LINE
5
6e5
100
AcDbEntity
8
3-A
6
CONTINUOUS
62
4
100
AcDbLine
10
120.695319492922
20
215.248369574938
30
0.0
11
118.387090326256
21
215.248369574938
31
0.0
0
LINE
5
6e6
100
AcDbEntity
8
3-A
6
CONTINUOUS
62
4
100
AcDbLine
10
120.695319492922
20
214.415036241605
30
0.0
11
120.695319492922
21
215.248369574938
31
0.0
0
LINE
5
6e7
100
AcDbEntity
8
3-A
6
CONTINUOUS
62
4
100
AcDbLine
10
118.387090326256
20
214.415036241605
30
0.0
11
118.387090326256
21
215.248369574938
31
0.0
0
LINE
5
6e8
100
AcDbEntity
8
3-A
6
CONTINUOUS
62
4
100
AcDbLine
10
120.207923659589
20
215.248369574938
30
0.0
11
120.207923659589
21
214.415036241605
31
0.0
0
LINE
5
6e9
100
AcDbEntity
8
3-A
6
CONTINUOUS
62
4
100
AcDbLine
10
118.874486159589
20
215.248369574938
30
0.0
11
118.874486159589
21
214.415036241605
31
0.0
0
LINE
5
6ea
100
AcDbEntity
8
3-A
6
CENTER2
62
2
100
AcDbLine
10
119.541256992923
20
216.035973741605
30
0.0
11
119.541256992923
21
212.310140408272
31
0.0
0
LINE
5
6eb
100
AcDbEntity
8
3-A
6
DOT
62
2
100
AcDbLine
10
116.707923659589
20
212.831702908272
30
0.0
11
116.707923659589
21
204.664932074939
31
0.0
0
LINE
5
6ec
100
AcDbEntity
8
3-A
6
DOT
62
2
100
AcDbLine
10
116.207923659589
20
204.664932074939
30
0.0
11
116.707923659589
21
204.664932074939
31
0.0
0
LINE
5
6ed
100
AcDbEntity
8
3-A
6
CONTINUOUS
62
2
100
AcDbLine
10
122.874590326256
20
208.164932074938
30
0.0
11
122.041256992923
21
208.164932074938
31
0.0
0
LINE
5
6ee
100
AcDbEntity
8
3-A
6
DOT
62
2
100
AcDbLine
10
122.041256992923
20
208.164932074938
30
0.0
11
116.207923659589
21
208.164932074938
31
0.0
0
LINE
5
6ef
100
AcDbEntity
8
3-A
6
CONTINUOUS
62
3
100
AcDbLine
10
88.791256992923
20
141.915036241605
30
0.0
11
89.791256992922
21
141.915036241605
31
0.0
0
LINE
5
6f0
100
AcDbEntity
8
3-A
6
CONTINUOUS
62
3
100
AcDbLine
10
92.624590326256
20
141.915036241605
30
0.0
11
93.624590326256
21
141.915036241605
31
0.0
0
LINE
5
6f1
100
AcDbEntity
8
3-0
6
CONTINUOUS
62
7
100
AcDbLine
10
116.207923659589
20
213.831702908272
30
0.0
11
116.207923659589
21
143.581702908272
31
0.0
0
LINE
5
6f2
100
AcDbEntity
8
3-A
6
DOT
62
3
100
AcDbLine
10
66.208027826256
20
89.831598741605
30
0.0
11
61.624590326256
21
89.831598741605
31
0.0
0
LINE
5
6f3
100
AcDbEntity
8
3-0
6
CONTINUOUS
62
2
100
AcDbLine
10
176.774798659589
20
131.081702908272
30
0.0
11
176.274694492923
21
131.081702908272
31
0.0
0
LINE
5
6f4
100
AcDbEntity
8
3-4
6
CONTINUOUS
62
2
100
AcDbLine
10
176.774798659589
20
131.081702908272
30
0.0
11
177.274798659589
21
129.331702908272
31
0.0
0
LINE
5
6f5
100
AcDbEntity
8
3-0
6
CONTINUOUS
62
2
100
AcDbLine
10
178.941465326256
20
131.081702908272
30
0.0
11
178.108027826256
21
131.081702908272
31
0.0
0
LINE
5
6f6
100
AcDbEntity
8
3-4
6
CONTINUOUS
62
2
100
AcDbLine
10
178.108027826256
20
131.081702908272
30
0.0
11
177.274798659589
21
128.164932074938
31
0.0
0
LINE
5
6f7
100
AcDbEntity
8
3-4
6
CONTINUOUS
62
2
100
AcDbLine
10
177.274798659589
20
129.331702908272
30
0.0
11
177.274798659589
21
126.914932074938
31
0.0
0
LINE
5
6f8
100
AcDbEntity
8
3-0
6
CONTINUOUS
62
2
100
AcDbLine
10
176.774798659589
20
122.748369574938
30
0.0
11
176.274694492923
21
122.748369574938
31
0.0
0
LINE
5
6f9
100
AcDbEntity
8
3-4
6
CONTINUOUS
62
2
100
AcDbLine
10
176.774798659589
20
122.748369574938
30
0.0
11
177.274798659589
21
124.498265408272
31
0.0
0
LINE
5
6fa
100
AcDbEntity
8
3-0
6
CONTINUOUS
62
2
100
AcDbLine
10
178.941465326256
20
122.748369574938
30
0.0
11
178.108027826256
21
122.748369574938
31
0.0
0
LINE
5
6fb
100
AcDbEntity
8
3-4
6
CONTINUOUS
62
2
100
AcDbLine
10
178.108027826256
20
122.748369574938
30
0.0
11
177.274798659589
21
125.664932074938
31
0.0
0
LINE
5
6fc
100
AcDbEntity
8
3-4
6
CONTINUOUS
62
2
100
AcDbLine
10
177.274798659589
20
124.498265408272
30
0.0
11
177.274798659589
21
126.914932074938
31
0.0
0
LINE
5
6fd
100
AcDbEntity
8
3-0
6
CONTINUOUS
62
2
100
AcDbLine
10
177.108131992923
20
102.331598741605
30
0.0
11
176.274694492923
21
102.331598741605
31
0.0
0
LINE
5
6fe
100
AcDbEntity
8
3-4
6
CONTINUOUS
62
2
100
AcDbLine
10
177.108131992923
20
102.331598741605
30
0.0
11
177.608131992922
21
100.581598741605
31
0.0
0
LINE
5
6ff
100
AcDbEntity
8
3-0
6
CONTINUOUS
62
2
100
AcDbLine
10
178.941465326256
20
102.331598741605
30
0.0
11
178.441361159589
21
102.331598741605
31
0.0
0
LINE
5
700
100
AcDbEntity
8
3-4
6
CONTINUOUS
62
2
100
AcDbLine
10
178.441361159589
20
102.331598741605
30
0.0
11
177.608131992922
21
99.414932074938
31
0.0
0
LINE
5
701
100
AcDbEntity
8
3-4
6
CONTINUOUS
62
2
100
AcDbLine
10
177.608131992922
20
100.581598741605
30
0.0
11
177.608131992922
21
98.164932074938
31
0.0
0
LINE
5
702
100
AcDbEntity
8
3-0
6
CONTINUOUS
62
2
100
AcDbLine
10
177.108131992923
20
93.998265408272
30
0.0
11
176.274694492923
21
93.998265408272
31
0.0
0
LINE
5
703
100
AcDbEntity
8
3-4
6
CONTINUOUS
62
2
100
AcDbLine
10
177.108131992923
20
93.998265408272
30
0.0
11
177.608131992922
21
95.748265408272
31
0.0
0
LINE
5
704
100
AcDbEntity
8
3-0
6
CONTINUOUS
62
2
100
AcDbLine
10
178.941465326256
20
93.998265408272
30
0.0
11
178.441361159589
21
93.998265408272
31
0.0
0
LINE
5
705
100
AcDbEntity
8
3-4
6
CONTINUOUS
62
2
100
AcDbLine
10
178.441361159589
20
93.998265408272
30
0.0
11
177.608131992922
21
96.914932074939
31
0.0
0
LINE
5
706
100
AcDbEntity
8
3-4
6
CONTINUOUS
62
2
100
AcDbLine
10
177.608131992922
20
95.748265408272
30
0.0
11
177.608131992922
21
98.164932074938
31
0.0
0
LINE
5
707
100
AcDbEntity
8
3-0
6
CENTER2
62
2
100
AcDbLine
10
179.594694492922
20
98.164932074938
30
0.0
11
175.717506992923
21
98.164932074938
31
0.0
0
LINE
5
708
100
AcDbEntity
8
3-0
6
CENTER2
62
2
100
AcDbLine
10
179.594694492922
20
126.914932074938
30
0.0
11
175.717506992923
21
126.914932074938
31
0.0
0
LINE
5
709
100
AcDbEntity
8
3-1
6
CONTINUOUS
62
3
100
AcDbLine
10
120.791361159589
20
143.581702908272
30
0.0
11
120.791361159589
21
89.831598741605
31
0.0
0
LINE
5
70a
100
AcDbEntity
8
3-6
6
DOT
62
3
100
AcDbLine
10
66.208027826256
20
143.581702908272
30
0.0
11
61.624590326256
21
143.581702908272
31
0.0
0
LINE
5
70b
100
AcDbEntity
8
3-1
6
CONTINUOUS
62
3
100
AcDbLine
10
179.941361159589
20
89.831702908272
30
0.0
11
178.941465326256
21
89.831702908272
31
0.0
0
LINE
5
70c
100
AcDbEntity
8
3-0
6
CONTINUOUS
62
7
100
AcDbLine
10
181.774694492922
20
89.414932074938
30
0.0
11
181.774694492922
21
213.831702908272
31
0.0
0
LINE
5
70d
100
AcDbEntity
8
3-1
6
CONTINUOUS
62
3
100
AcDbLine
10
179.941361159589
20
143.581702908272
30
0.0
11
179.941361159589
21
88.998265408272
31
0.0
0
LINE
5
70e
100
AcDbEntity
8
3-1
6
CONTINUOUS
62
3
100
AcDbLine
10
89.874590326256
20
144.831702908272
30
0.0
11
91.207923659589
21
144.831702908272
31
0.0
0
LINE
5
70f
100
AcDbEntity
8
3-1
6
CONTINUOUS
62
3
100
AcDbLine
10
92.541256992922
20
144.831702908272
30
0.0
11
91.207923659589
21
144.831702908272
31
0.0
0
LINE
5
710
100
AcDbEntity
8
3-1
6
CENTER2
62
3
100
AcDbLine
10
86.820215326256
20
147.748369574938
30
0.0
11
91.207923659589
21
147.748369574938
31
0.0
0
LINE
5
711
100
AcDbEntity
8
3-1
6
CENTER2
62
3
100
AcDbLine
10
95.570736159589
20
147.748369574938
30
0.0
11
91.207923659589
21
147.748369574938
31
0.0
0
LINE
5
712
100
AcDbEntity
8
3-1
6
CONTINUOUS
62
3
100
AcDbLine
10
66.208027826256
20
143.581702908272
30
0.0
11
88.791256992923
21
143.581702908272
31
0.0
0
LINE
5
713
100
AcDbEntity
8
3-1
6
CONTINUOUS
62
3
100
AcDbLine
10
89.791256992922
20
143.581702908272
30
0.0
11
91.207923659589
21
143.581702908272
31
0.0
0
LINE
5
714
100
AcDbEntity
8
3-1
6
CONTINUOUS
62
3
100
AcDbLine
10
92.624694492923
20
143.581702908272
30
0.0
11
91.207923659589
21
143.581702908272
31
0.0
0
LINE
5
715
100
AcDbEntity
8
3-1
6
CONTINUOUS
62
3
100
AcDbLine
10
120.791361159589
20
143.581702908272
30
0.0
11
93.624590326256
21
143.581702908272
31
0.0
0
LINE
5
716
100
AcDbEntity
8
3-A
6
CONTINUOUS
62
2
100
AcDbLine
10
116.207923659589
20
208.164932074938
30
0.0
11
92.541256992922
21
208.164932074938
31
0.0
0
LINE
5
717
100
AcDbEntity
8
3-E
6
CONTINUOUS
62
2
100
AcDbLine
10
90.041256992923
20
208.164932074938
30
0.0
11
90.041256992923
21
172.748265408272
31
0.0
0
LINE
5
718
100
AcDbEntity
8
3-E
6
CONTINUOUS
62
2
100
AcDbLine
10
177.691361159589
20
172.748265408272
30
0.0
11
180.358027826256
21
172.748265408272
31
0.0
0
LINE
5
719
100
AcDbEntity
8
3-E
6
CONTINUOUS
62
2
100
AcDbLine
10
177.858131992922
20
213.831702908272
30
0.0
11
177.858131992922
21
172.748265408272
31
0.0
0
LINE
5
71a
100
AcDbEntity
8
3-E
6
CONTINUOUS
62
2
100
AcDbLine
10
180.191465326256
20
213.831702908272
30
0.0
11
180.191465326256
21
172.748265408272
31
0.0
0
LINE
5
71b
100
AcDbEntity
8
3-A
6
DOT
62
2
100
AcDbLine
10
172.605736159589
20
213.331702908272
30
0.0
11
175.524694492922
21
213.331702908272
31
0.0
0
LINE
5
71c
100
AcDbEntity
8
3-A
6
DOT
62
2
100
AcDbLine
10
185.443652826256
20
213.331702908272
30
0.0
11
182.524590326256
21
213.331702908272
31
0.0
0
LINE
5
71d
100
AcDbEntity
8
3-A
6
CONTINUOUS
62
2
100
AcDbLine
10
59.541361159589
20
214.415036241605
30
0.0
11
91.207923659589
21
214.415036241605
31
0.0
0
LINE
5
71e
100
AcDbEntity
8
3-A
6
CONTINUOUS
62
2
100
AcDbLine
10
122.874590326256
20
214.415036241605
30
0.0
11
91.207923659589
21
214.415036241605
31
0.0
0
LINE
5
71f
100
AcDbEntity
8
3-A
6
CONTINUOUS
62
2
100
AcDbLine
10
122.874590326256
20
213.831702908272
30
0.0
11
92.541256992922
21
213.831702908272
31
0.0
0
LINE
5
720
100
AcDbEntity
8
3-E
6
CONTINUOUS
62
3
100
AcDbLine
10
179.941361159589
20
93.978473741605
30
0.0
11
179.961256992923
21
93.998265408272
31
0.0
0
LINE
5
721
100
AcDbEntity
8
3-E
6
DOT
62
3
100
AcDbLine
10
180.941361159589
20
91.831598741605
30
0.0
11
181.274694492922
21
92.164932074939
31
0.0
0
LINE
5
722
100
AcDbEntity
8
3-E
6
DOT
62
3
100
AcDbLine
10
180.941361159589
20
91.164932074938
30
0.0
11
181.274694492922
21
90.831598741605
31
0.0
0
LINE
5
723
100
AcDbEntity
8
3-E
6
DOT
62
3
100
AcDbLine
10
180.941361159589
20
91.831598741605
30
0.0
11
180.941361159589
21
91.164932074938
31
0.0
0
LINE
5
724
100
AcDbEntity
8
3-E
6
DOT
62
3
100
AcDbLine
10
178.941465326256
20
91.164932074938
30
0.0
11
180.941361159589
21
91.164932074938
31
0.0
0
LINE
5
725
100
AcDbEntity
8
3-E
6
DOT
62
3
100
AcDbLine
10
178.941465326256
20
91.831598741605
30
0.0
11
180.941361159589
21
91.831598741605
31
0.0
0
LINE
5
726
100
AcDbEntity
8
3-A
6
DOT
62
3
100
AcDbLine
10
61.624590326256
20
143.581702908272
30
0.0
11
61.624590326256
21
89.831598741605
31
0.0
0
LINE
5
727
100
AcDbEntity
8
3-E
6
CONTINUOUS
62
2
100
AcDbLine
10
89.874590326256
20
208.164932074938
30
0.0
11
89.874590326256
21
144.831702908272
31
0.0
0
LINE
5
728
100
AcDbEntity
8
3-0
6
CONTINUOUS
62
7
100
AcDbLine
10
175.524694492922
20
213.831702908272
30
0.0
11
175.524694492922
21
89.414932074938
31
0.0
0
LINE
5
729
100
AcDbEntity
8
3-E
6
CONTINUOUS
62
2
100
AcDbLine
10
177.691361159589
20
213.831702908272
30
0.0
11
177.691361159589
21
150.665036241605
31
0.0
0
LINE
5
72a
100
AcDbEntity
8
3-E
6
CONTINUOUS
62
2
100
AcDbLine
10
180.358027826256
20
213.831702908272
30
0.0
11
180.358027826256
21
150.665036241605
31
0.0
0
LINE
5
72b
100
AcDbEntity
8
3-E
6
CONTINUOUS
62
2
100
AcDbLine
10
92.541256992922
20
214.415036241605
30
0.0
11
92.541256992922
21
144.831702908272
31
0.0
0
LINE
5
72c
100
AcDbEntity
8
3-E
6
CONTINUOUS
62
2
100
AcDbLine
10
92.374590326256
20
214.415036241605
30
0.0
11
92.374590326256
21
172.748265408272
31
0.0
0
LINE
5
72d
100
AcDbEntity
8
3-E
6
CONTINUOUS
62
2
100
AcDbLine
10
92.541256992922
20
172.748265408272
30
0.0
11
89.874590326256
21
172.748265408272
31
0.0
0
LINE
5
72e
100
AcDbEntity
8
3-1
6
CONTINUOUS
62
3
100
AcDbLine
10
181.274694492922
20
93.081598741605
30
0.0
11
181.274694492922
21
89.914932074938
31
0.0
0
LINE
5
72f
100
AcDbEntity
8
3-E
6
CONTINUOUS
62
2
100
AcDbLine
10
180.204590326256
20
88.998265408272
30
0.0
11
180.774694492923
21
89.568369574938
31
0.0
0
LINE
5
730
100
AcDbEntity
8
3-E
6
CONTINUOUS
62
2
100
AcDbLine
10
180.086673659589
20
88.998265408272
30
0.0
11
180.774694492923
21
89.686286241605
31
0.0
0
LINE
5
731
100
AcDbEntity
8
3-E
6
CONTINUOUS
62
2
100
AcDbLine
10
179.941361159589
20
89.913577908272
30
0.0
11
180.774694492923
21
90.746911241605
31
0.0
0
LINE
5
732
100
AcDbEntity
8
3-E
6
CONTINUOUS
62
2
100
AcDbLine
10
179.941361159589
20
90.031390408272
30
0.0
11
180.774694492923
21
90.864723741605
31
0.0
0
LINE
5
733
100
AcDbEntity
8
3-E
6
CONTINUOUS
62
2
100
AcDbLine
10
179.941361159589
20
91.092119574939
30
0.0
11
180.774694492923
21
91.925452908272
31
0.0
0
LINE
5
734
100
AcDbEntity
8
3-E
6
CONTINUOUS
62
2
100
AcDbLine
10
179.941361159589
20
91.209932074939
30
0.0
11
180.774694492923
21
92.043265408272
31
0.0
0
LINE
5
735
100
AcDbEntity
8
3-E
6
CONTINUOUS
62
2
100
AcDbLine
10
179.941361159589
20
92.270557074938
30
0.0
11
180.774694492923
21
93.103994574938
31
0.0
0
LINE
5
736
100
AcDbEntity
8
3-E
6
CONTINUOUS
62
2
100
AcDbLine
10
179.941361159589
20
92.388473741605
30
0.0
11
180.774694492923
21
93.221807074939
31
0.0
0
LINE
5
737
100
AcDbEntity
8
3-E
6
CONTINUOUS
62
2
100
AcDbLine
10
179.941361159589
20
93.449098741605
30
0.0
11
180.490631992922
21
93.998265408272
31
0.0
0
LINE
5
738
100
AcDbEntity
8
3-E
6
CONTINUOUS
62
2
100
AcDbLine
10
179.941361159589
20
93.566911241605
30
0.0
11
180.372715326256
21
93.998265408272
31
0.0
0
LINE
5
739
100
AcDbEntity
8
3-A
6
CONTINUOUS
62
2
100
AcDbLine
10
184.679902826256
20
213.831702908272
30
0.0
11
173.369486159589
21
213.831702908272
31
0.0
0
LINE
5
73a
100
AcDbEntity
8
3-0
6
CONTINUOUS
62
7
100
AcDbLine
10
122.041256992923
20
213.831702908272
30
0.0
11
122.041256992923
21
83.165036241605
31
0.0
0
LINE
5
73b
100
AcDbEntity
8
3-E
6
CONTINUOUS
62
2
100
AcDbLine
10
195.024590326256
20
156.081598741605
30
0.0
11
182.524590326256
21
156.081598741605
31
0.0
0
LINE
5
73c
100
AcDbEntity
8
3-0
6
CENTER2
62
7
100
AcDbLine
10
117.457923659589
20
91.498265408272
30
0.0
11
66.208027826256
21
91.498265408272
31
0.0
0
LINE
5
73d
100
AcDbEntity
8
3-E
6
CENTER2
62
2
100
AcDbLine
10
116.207923659589
20
141.081702908272
30
0.0
11
116.207923659589
21
90.248265408272
31
0.0
0
LINE
5
73e
100
AcDbEntity
8
3-E
6
CONTINUOUS
62
2
100
AcDbLine
10
118.957923659589
20
128.165036241605
30
0.0
11
117.624590326256
21
128.165036241605
31
0.0
0
LINE
5
73f
100
AcDbEntity
8
3-E
6
CONTINUOUS
62
2
100
AcDbLine
10
118.957923659589
20
125.664932074938
30
0.0
11
117.624590326256
21
125.664932074938
31
0.0
0
POLYLINE
5
740
100
AcDbEntity
8
3-0
6
CONTINUOUS
62
  2
100
AcDb2dPolyline
66
1
10
0.0
20
0.0
30
0.0
70
0
0
VERTEX
5
741
100
AcDbEntity
8
3-0
6
CONTINUOUS
62
  2
100
AcDbVertex
100
AcDb2dVertex
10
117.624590326256
20
102.331702908272
30
0.0
0
VERTEX
5
742
100
AcDbEntity
8
3-0
6
CONTINUOUS
62
  2
100
AcDbVertex
100
AcDb2dVertex
10
117.624590326256
20
93.998265408272
30
0.0
0
VERTEX
5
743
100
AcDbEntity
8
3-0
6
CONTINUOUS
62
  2
100
AcDbVertex
100
AcDb2dVertex
10
118.957923659589
20
93.998265408272
30
0.0
0
VERTEX
5
744
100
AcDbEntity
8
3-0
6
CONTINUOUS
62
  2
100
AcDbVertex
100
AcDb2dVertex
10
118.957923659589
20
102.331702908272
30
0.0
0
VERTEX
5
745
100
AcDbEntity
8
3-0
6
CONTINUOUS
62
  2
100
AcDbVertex
100
AcDb2dVertex
10
117.624590326256
20
102.331702908272
30
0.0
0
SEQEND
5
746
100
AcDbEntity
8
3-0
0
LINE
5
747
100
AcDbEntity
8
3-0
6
CENTER2
62
2
100
AcDbLine
10
120.003756992922
20
98.164932074938
30
0.0
11
116.459798659589
21
98.164932074938
31
0.0
0
LINE
5
748
100
AcDbEntity
8
3-0
6
CENTER2
62
2
100
AcDbLine
10
118.291256992922
20
92.748577908272
30
0.0
11
118.291256992922
21
103.893369574939
31
0.0
0
LINE
5
749
100
AcDbEntity
8
3-E
6
CONTINUOUS
62
2
100
AcDbLine
10
118.957923659589
20
99.414932074938
30
0.0
11
117.624590326256
21
99.414932074938
31
0.0
0
LINE
5
74a
100
AcDbEntity
8
3-E
6
CONTINUOUS
62
2
100
AcDbLine
10
118.957923659589
20
96.914932074939
30
0.0
11
117.624590326256
21
96.914932074939
31
0.0
0
LINE
5
74b
100
AcDbEntity
8
3-E
6
CONTINUOUS
62
2
100
AcDbLine
10
176.941361159589
20
150.665036241605
30
0.0
11
176.941361159589
21
141.915036241605
31
0.0
0
LINE
5
74c
100
AcDbEntity
8
3-1
6
CONTINUOUS
62
3
100
AcDbLine
10
176.941361159589
20
150.665036241605
30
0.0
11
181.108131992923
21
150.665036241605
31
0.0
0
LINE
5
74d
100
AcDbEntity
8
3-0
6
CONTINUOUS
62
7
100
AcDbLine
10
176.274694492923
20
213.831702908272
30
0.0
11
176.274694492923
21
89.414932074938
31
0.0
0
LINE
5
74e
100
AcDbEntity
8
3-1
6
CENTER2
62
3
100
AcDbLine
10
177.096048659589
20
147.748369574938
30
0.0
11
180.947611159589
21
147.748369574938
31
0.0
0
LINE
5
74f
100
AcDbEntity
8
3-3
6
CONTINUOUS
62
6
100
AcDbLine
10
181.370631992922
20
244.776494574938
30
0.0
11
176.678861159589
21
244.776494574938
31
0.0
0
LINE
5
750
100
AcDbEntity
8
3-E
6
PHANTOM2
62
6
100
AcDbLine
10
174.856048659589
20
235.050036241605
30
0.0
11
183.301465326256
21
235.050036241605
31
0.0
0
LINE
5
751
100
AcDbEntity
8
3-E
6
PHANTOM2
62
6
100
AcDbLine
10
174.856048659589
20
235.897432074938
30
0.0
11
183.301465326256
21
235.897432074938
31
0.0
0
LINE
5
752
100
AcDbEntity
8
3-3
6
CONTINUOUS
62
6
100
AcDbLine
10
175.845527826256
20
235.050036241605
30
0.0
11
175.845527826256
21
226.831702908272
31
0.0
0
LINE
5
753
100
AcDbEntity
8
3-3
6
CONTINUOUS
62
6
100
AcDbLine
10
182.203861159589
20
235.050036241605
30
0.0
11
182.203861159589
21
226.831702908272
31
0.0
0
LINE
5
754
100
AcDbEntity
8
3-3
6
CONTINUOUS
62
6
100
AcDbLine
10
182.203861159589
20
243.943161241605
30
0.0
11
182.203861159589
21
235.897432074938
31
0.0
0
LINE
5
755
100
AcDbEntity
8
3-3
6
CONTINUOUS
62
6
100
AcDbLine
10
175.845527826256
20
243.943161241605
30
0.0
11
175.845527826256
21
235.897432074938
31
0.0
0
LINE
5
756
100
AcDbEntity
8
3-E
6
CONTINUOUS
62
6
100
AcDbLine
10
175.845527826256
20
243.943161241605
30
0.0
11
182.203861159589
21
243.943161241605
31
0.0
0
LINE
5
757
100
AcDbEntity
8
3-A
6
CENTER2
62
6
100
AcDbLine
10
159.438027826256
20
227.257327908272
30
0.0
11
159.438027826256
21
223.791598741605
31
0.0
0
LINE
5
758
100
AcDbEntity
8
3-A
6
CONTINUOUS
62
6
100
AcDbLine
10
159.438027826256
20
224.331702908272
30
0.0
11
179.024798659589
21
224.331702908272
31
0.0
0
LINE
5
759
100
AcDbEntity
8
3-A
6
CENTER2
62
6
100
AcDbLine
10
157.633027826256
20
225.581702908272
30
0.0
11
179.024798659589
21
225.581702908272
31
0.0
0
LINE
5
75a
100
AcDbEntity
8
3-A
6
CONTINUOUS
62
6
100
AcDbLine
10
159.438027826256
20
226.831702908272
30
0.0
11
179.024798659589
21
226.831702908272
31
0.0
0
LINE
5
75b
100
AcDbEntity
8
3-A
6
CONTINUOUS
62
6
100
AcDbLine
10
183.608131992923
20
216.831702908272
30
0.0
11
183.608131992923
21
220.498369574938
31
0.0
0
LINE
5
75c
100
AcDbEntity
8
3-A
6
CONTINUOUS
62
6
100
AcDbLine
10
179.024798659589
20
216.415036241605
30
0.0
11
184.674798659589
21
216.415036241605
31
0.0
0
LINE
5
75d
100
AcDbEntity
8
3-A
6
CONTINUOUS
62
6
100
AcDbLine
10
174.441465326256
20
216.831702908272
30
0.0
11
174.441465326256
21
220.498369574938
31
0.0
0
LINE
5
75e
100
AcDbEntity
8
3-A
6
CONTINUOUS
62
6
100
AcDbLine
10
179.024798659589
20
216.415036241605
30
0.0
11
173.374694492923
21
216.415036241605
31
0.0
0
LINE
5
75f
100
AcDbEntity
8
3-A
6
CONTINUOUS
62
6
100
AcDbLine
10
175.130736159589
20
221.932640408272
30
0.0
11
159.242298659589
21
224.347119574938
31
0.0
0
LINE
5
760
100
AcDbEntity
8
3-A
6
CONTINUOUS
62
6
100
AcDbLine
10
174.901881992923
20
222.812223741605
30
0.0
11
164.696361159589
21
224.331702908272
31
0.0
0
LINE
5
761
100
AcDbEntity
8
3-A
6
CONTINUOUS
62
6
100
AcDbLine
10
183.191465326256
20
220.915036241605
30
0.0
11
174.858027826256
21
220.915036241605
31
0.0
0
LINE
5
762
100
AcDbEntity
8
3-A
6
CONTINUOUS
62
6
100
AcDbLine
10
176.524798659589
20
221.081702908272
30
0.0
11
176.524798659589
21
220.915036241605
31
0.0
0
LINE
5
763
100
AcDbEntity
8
3-A
6
CONTINUOUS
62
6
100
AcDbLine
10
181.524798659589
20
221.081702908272
30
0.0
11
181.524798659589
21
220.915036241605
31
0.0
0
LINE
5
764
100
AcDbEntity
8
3-A
6
CONTINUOUS
62
6
100
AcDbLine
10
172.958027826256
20
215.998369574938
30
0.0
11
172.958027826256
21
214.415036241605
31
0.0
0
LINE
5
765
100
AcDbEntity
8
3-A
6
CONTINUOUS
62
6
100
AcDbLine
10
185.091465326256
20
215.998369574938
30
0.0
11
185.091465326256
21
214.415036241605
31
0.0
0
LINE
5
766
100
AcDbEntity
8
3-A
6
CONTINUOUS
62
6
100
AcDbLine
10
182.418965326256
20
221.081702908272
30
0.0
11
175.630527826256
21
221.081702908272
31
0.0
0
LINE
5
767
100
AcDbEntity
8
3-E
6
CONTINUOUS
62
2
100
AcDbLine
10
172.958027826256
20
215.415036241605
30
0.0
11
179.024798659589
21
215.415036241605
31
0.0
0
LINE
5
768
100
AcDbEntity
8
3-E
6
CONTINUOUS
62
2
100
AcDbLine
10
185.091465326256
20
215.415036241605
30
0.0
11
179.024798659589
21
215.415036241605
31
0.0
0
LINE
5
769
100
AcDbEntity
8
3-E
6
CENTER2
62
2
100
AcDbLine
10
174.458027826256
20
213.443161241605
30
0.0
11
174.458027826256
21
216.569307074939
31
0.0
0
LINE
5
76a
100
AcDbEntity
8
3-E
6
CENTER2
62
2
100
AcDbLine
10
183.591465326256
20
213.665036241605
30
0.0
11
183.591465326256
21
216.569307074939
31
0.0
0
LINE
5
76b
100
AcDbEntity
8
3-3
6
CONTINUOUS
62
6
100
AcDbLine
10
88.861986159589
20
244.776494574938
30
0.0
11
93.553652826256
21
244.776494574938
31
0.0
0
LINE
5
76c
100
AcDbEntity
8
3-E
6
PHANTOM2
62
6
100
AcDbLine
10
95.376569492922
20
235.050036241605
30
0.0
11
86.931048659589
21
235.050036241605
31
0.0
0
LINE
5
76d
100
AcDbEntity
8
3-E
6
PHANTOM2
62
6
100
AcDbLine
10
95.376569492922
20
235.897432074938
30
0.0
11
86.931048659589
21
235.897432074938
31
0.0
0
LINE
5
76e
100
AcDbEntity
8
3-3
6
CONTINUOUS
62
6
100
AcDbLine
10
94.386986159589
20
235.050036241605
30
0.0
11
94.386986159589
21
226.831702908272
31
0.0
0
LINE
5
76f
100
AcDbEntity
8
3-3
6
CONTINUOUS
62
6
100
AcDbLine
10
88.028652826256
20
235.050036241605
30
0.0
11
88.028652826256
21
226.831702908272
31
0.0
0
LINE
5
770
100
AcDbEntity
8
3-3
6
CONTINUOUS
62
6
100
AcDbLine
10
88.028652826256
20
243.943161241605
30
0.0
11
88.028652826256
21
235.897432074938
31
0.0
0
LINE
5
771
100
AcDbEntity
8
3-3
6
CONTINUOUS
62
6
100
AcDbLine
10
94.386986159589
20
243.943161241605
30
0.0
11
94.386986159589
21
235.897432074938
31
0.0
0
LINE
5
772
100
AcDbEntity
8
3-E
6
CONTINUOUS
62
6
100
AcDbLine
10
94.386986159589
20
243.943161241605
30
0.0
11
88.028652826256
21
243.943161241605
31
0.0
0
LINE
5
773
100
AcDbEntity
8
3-A
6
CENTER2
62
6
100
AcDbLine
10
110.794590326256
20
227.257327908272
30
0.0
11
110.794590326256
21
223.791598741605
31
0.0
0
LINE
5
774
100
AcDbEntity
8
3-A
6
CONTINUOUS
62
6
100
AcDbLine
10
110.794590326256
20
224.331702908272
30
0.0
11
91.207819492923
21
224.331702908272
31
0.0
0
LINE
5
775
100
AcDbEntity
8
3-A
6
CENTER2
62
6
100
AcDbLine
10
112.599486159589
20
225.581702908272
30
0.0
11
91.207819492923
21
225.581702908272
31
0.0
0
LINE
5
776
100
AcDbEntity
8
3-A
6
CONTINUOUS
62
6
100
AcDbLine
10
110.794590326256
20
226.831702908272
30
0.0
11
91.207819492923
21
226.831702908272
31
0.0
0
LINE
5
777
100
AcDbEntity
8
3-A
6
CENTER2
62
6
100
AcDbLine
10
71.624486159589
20
227.257327908272
30
0.0
11
71.624486159589
21
223.791598741605
31
0.0
0
LINE
5
778
100
AcDbEntity
8
3-A
6
CONTINUOUS
62
6
100
AcDbLine
10
71.624486159589
20
226.831702908272
30
0.0
11
91.207819492923
21
226.831702908272
31
0.0
0
LINE
5
779
100
AcDbEntity
8
3-A
6
CENTER2
62
6
100
AcDbLine
10
69.182923659589
20
225.581702908272
30
0.0
11
91.207819492923
21
225.581702908272
31
0.0
0
LINE
5
77a
100
AcDbEntity
8
3-A
6
CONTINUOUS
62
6
100
AcDbLine
10
86.624486159589
20
216.831702908272
30
0.0
11
86.624486159589
21
220.498369574938
31
0.0
0
LINE
5
77b
100
AcDbEntity
8
3-A
6
CONTINUOUS
62
6
100
AcDbLine
10
91.207819492923
20
216.415036241605
30
0.0
11
85.557715326256
21
216.415036241605
31
0.0
0
LINE
5
77c
100
AcDbEntity
8
3-A
6
CONTINUOUS
62
6
100
AcDbLine
10
71.624486159589
20
224.331702908272
30
0.0
11
91.207819492923
21
224.331702908272
31
0.0
0
LINE
5
77d
100
AcDbEntity
8
3-A
6
CONTINUOUS
62
6
100
AcDbLine
10
95.791152826256
20
216.831702908272
30
0.0
11
95.791152826256
21
220.498369574938
31
0.0
0
LINE
5
77e
100
AcDbEntity
8
3-A
6
CONTINUOUS
62
6
100
AcDbLine
10
91.207819492923
20
216.415036241605
30
0.0
11
96.857819492922
21
216.415036241605
31
0.0
0
LINE
5
77f
100
AcDbEntity
8
3-A
6
CONTINUOUS
62
6
100
AcDbLine
10
95.101881992923
20
221.932640408272
30
0.0
11
110.990215326256
21
224.347015408272
31
0.0
0
LINE
5
780
100
AcDbEntity
8
3-A
6
CONTINUOUS
62
6
100
AcDbLine
10
95.330631992922
20
222.812223741605
30
0.0
11
105.536152826256
21
224.331702908272
31
0.0
0
LINE
5
781
100
AcDbEntity
8
3-A
6
CONTINUOUS
62
6
100
AcDbLine
10
88.924798659589
20
221.678890408272
30
0.0
11
71.983652826256
21
224.347015408272
31
0.0
0
LINE
5
782
100
AcDbEntity
8
3-A
6
CONTINUOUS
62
6
100
AcDbLine
10
89.054486159589
20
222.502119574938
30
0.0
11
77.437715326256
21
224.331702908272
31
0.0
0
LINE
5
783
100
AcDbEntity
8
3-A
6
CONTINUOUS
62
6
100
AcDbLine
10
87.041152826256
20
220.915036241605
30
0.0
11
95.374486159589
21
220.915036241605
31
0.0
0
LINE
5
784
100
AcDbEntity
8
3-A
6
CONTINUOUS
62
6
100
AcDbLine
10
93.707819492923
20
221.081702908272
30
0.0
11
93.707819492923
21
220.915036241605
31
0.0
0
LINE
5
785
100
AcDbEntity
8
3-A
6
CONTINUOUS
62
6
100
AcDbLine
10
88.707819492923
20
221.081702908272
30
0.0
11
88.707819492923
21
220.915036241605
31
0.0
0
LINE
5
786
100
AcDbEntity
8
3-A
6
CONTINUOUS
62
6
100
AcDbLine
10
97.274486159589
20
215.998369574938
30
0.0
11
97.274486159589
21
214.415036241605
31
0.0
0
LINE
5
787
100
AcDbEntity
8
3-A
6
CONTINUOUS
62
6
100
AcDbLine
10
85.141048659589
20
215.998369574938
30
0.0
11
85.141048659589
21
214.415036241605
31
0.0
0
LINE
5
788
100
AcDbEntity
8
3-A
6
CONTINUOUS
62
6
100
AcDbLine
10
87.813548659589
20
221.081702908272
30
0.0
11
94.601986159589
21
221.081702908272
31
0.0
0
LINE
5
789
100
AcDbEntity
8
3-E
6
CONTINUOUS
62
2
100
AcDbLine
10
97.274486159589
20
215.414932074938
30
0.0
11
91.207819492923
21
215.414932074938
31
0.0
0
LINE
5
78a
100
AcDbEntity
8
3-E
6
CONTINUOUS
62
2
100
AcDbLine
10
85.141048659589
20
215.414932074938
30
0.0
11
91.207819492923
21
215.414932074938
31
0.0
0
LINE
5
78b
100
AcDbEntity
8
3-E
6
CENTER2
62
2
100
AcDbLine
10
95.774486159589
20
213.443161241605
30
0.0
11
95.774486159589
21
216.569307074939
31
0.0
0
LINE
5
78c
100
AcDbEntity
8
3-E
6
CENTER2
62
2
100
AcDbLine
10
86.641152826256
20
213.665036241605
30
0.0
11
86.641152826256
21
216.569307074939
31
0.0
0
LINE
5
78d
100
AcDbEntity
8
3-1
6
CONTINUOUS
62
3
100
AcDbLine
10
179.941361159589
20
143.581702908272
30
0.0
11
181.108131992923
21
144.748369574938
31
0.0
0
LINE
5
78e
100
AcDbEntity
8
3-E
6
CONTINUOUS
62
2
100
AcDbLine
10
181.108131992923
20
150.665036241605
30
0.0
11
181.108131992923
21
144.748369574938
31
0.0
0
LINE
5
78f
100
AcDbEntity
8
3-E
6
CONTINUOUS
62
2
100
AcDbLine
10
176.941361159589
20
141.915036241605
30
0.0
11
178.941465326256
21
141.915036241605
31
0.0
0
LINE
5
790
100
AcDbEntity
8
3-E
6
CONTINUOUS
62
2
100
AcDbLine
10
132.874590326256
20
156.081598741605
30
0.0
11
122.041256992923
21
156.081598741605
31
0.0
0
LINE
5
791
100
AcDbEntity
8
3-1
6
CONTINUOUS
62
3
100
AcDbLine
10
66.208027826256
20
89.831598741605
30
0.0
11
91.207923659589
21
89.831598741605
31
0.0
0
LINE
5
792
100
AcDbEntity
8
3-0
6
CONTINUOUS
62
7
100
AcDbLine
10
66.208027826256
20
89.414932074938
30
0.0
11
122.041256992923
21
89.414932074938
31
0.0
0
LINE
5
793
100
AcDbEntity
8
3-E
6
CONTINUOUS
62
4
100
AcDbLine
10
41.208027826256
20
89.414932074938
30
0.0
11
41.208027826256
21
143.581702908272
31
0.0
0
LINE
5
794
100
AcDbEntity
8
3-E
6
CONTINUOUS
62
4
100
AcDbLine
10
41.208027826256
20
89.414932074938
30
0.0
11
40.776569492922
21
91.024827908272
31
0.0
0
LINE
5
795
100
AcDbEntity
8
3-E
6
CONTINUOUS
62
4
100
AcDbLine
10
41.208027826256
20
89.414932074938
30
0.0
11
41.639381992923
21
91.024827908272
31
0.0
0
LINE
5
796
100
AcDbEntity
8
3-E
6
CONTINUOUS
62
4
100
AcDbLine
10
41.208027826256
20
143.581702908272
30
0.0
11
40.776569492922
21
141.971807074939
31
0.0
0
LINE
5
797
100
AcDbEntity
8
3-E
6
CONTINUOUS
62
4
100
AcDbLine
10
41.208027826256
20
143.581702908272
30
0.0
11
41.639381992923
21
141.971807074939
31
0.0
0
LINE
5
798
100
AcDbEntity
8
3-E
6
CONTINUOUS
62
4
100
AcDbLine
10
34.541361159589
20
89.414932074938
30
0.0
11
34.541361159589
21
156.081598741605
31
0.0
0
LINE
5
799
100
AcDbEntity
8
3-E
6
CONTINUOUS
62
4
100
AcDbLine
10
47.607715326256
20
156.081598741605
30
0.0
11
33.708027826256
21
156.081598741605
31
0.0
0
LINE
5
79a
100
AcDbEntity
8
3-E
6
CONTINUOUS
62
4
100
AcDbLine
10
34.541361159589
20
89.414932074938
30
0.0
11
34.109902826256
21
91.024827908272
31
0.0
0
LINE
5
79b
100
AcDbEntity
8
3-E
6
CONTINUOUS
62
4
100
AcDbLine
10
34.541361159589
20
89.414932074938
30
0.0
11
34.972715326256
21
91.024827908272
31
0.0
0
LINE
5
79c
100
AcDbEntity
8
3-E
6
CONTINUOUS
62
4
100
AcDbLine
10
34.541361159589
20
156.081598741605
30
0.0
11
34.109902826256
21
154.471702908272
31
0.0
0
LINE
5
79d
100
AcDbEntity
8
3-E
6
CONTINUOUS
62
4
100
AcDbLine
10
34.541361159589
20
156.081598741605
30
0.0
11
34.972715326256
21
154.471702908272
31
0.0
0
LINE
5
79e
100
AcDbEntity
8
3-E
6
CONTINUOUS
62
4
100
AcDbLine
10
58.117402826256
20
89.414932074938
30
0.0
11
27.041361159589
21
89.414932074938
31
0.0
0
LINE
5
79f
100
AcDbEntity
8
3-E
6
CONTINUOUS
62
4
100
AcDbLine
10
27.874694492922
20
89.414932074938
30
0.0
11
27.443236159589
21
91.024827908272
31
0.0
0
LINE
5
7a0
100
AcDbEntity
8
3-E
6
CONTINUOUS
62
4
100
AcDbLine
10
27.874694492922
20
89.414932074938
30
0.0
11
28.306048659589
21
91.024827908272
31
0.0
0
LINE
5
7a1
100
AcDbEntity
8
3-E
6
CONTINUOUS
62
4
100
AcDbLine
10
27.874694492922
20
214.415036241605
30
0.0
11
27.443236159589
21
212.805140408272
31
0.0
0
LINE
5
7a2
100
AcDbEntity
8
3-E
6
CONTINUOUS
62
4
100
AcDbLine
10
27.874694492922
20
214.415036241605
30
0.0
11
28.306048659589
21
212.805140408272
31
0.0
0
LINE
5
7a3
100
AcDbEntity
8
3-E
6
CONTINUOUS
62
4
100
AcDbLine
10
27.874694492922
20
214.415036241605
30
0.0
11
27.874694492922
21
89.414932074938
31
0.0
0
LINE
5
7a4
100
AcDbEntity
8
3-E
6
CONTINUOUS
62
4
100
AcDbLine
10
57.451673659589
20
214.415036241605
30
0.0
11
27.041361159589
21
214.415036241605
31
0.0
0
LINE
5
7a5
100
AcDbEntity
8
3-E
6
CONTINUOUS
62
4
100
AcDbLine
10
59.093131992923
20
143.581702908272
30
0.0
11
40.374694492922
21
143.581702908272
31
0.0
0
LINE
5
7a6
100
AcDbEntity
8
3-0
6
CENTER2
62
7
100
AcDbLine
10
179.024694492923
20
247.404098741605
30
0.0
11
179.024694492923
21
145.385869574939
31
0.0
0
LINE
5
7a7
100
AcDbEntity
8
3-E
6
CONTINUOUS
62
4
100
AcDbLine
10
110.932090326256
20
258.208473741605
30
0.0
11
110.932090326256
21
244.875140408272
31
0.0
0
LINE
5
7a8
100
AcDbEntity
8
3-B
6
CONTINUOUS
62
7
100
AcDbLine
10
160.779798659589
20
123.859411241605
30
0.0
11
160.779798659589
21
124.970452908272
31
0.0
0
LINE
5
7a9
100
AcDbEntity
8
3-B
6
CONTINUOUS
62
7
100
AcDbLine
10
160.779798659589
20
121.637119574939
30
0.0
11
160.779798659589
21
120.526077908272
31
0.0
0
LINE
5
7aa
100
AcDbEntity
8
3-B
6
CONTINUOUS
62
7
100
AcDbLine
10
160.779798659589
20
124.970452908272
30
0.0
11
164.628756992923
21
122.748265408272
31
0.0
0
LINE
5
7ab
100
AcDbEntity
8
3-B
6
CONTINUOUS
62
7
100
AcDbLine
10
160.779798659589
20
120.526077908272
30
0.0
11
164.628756992923
21
122.748265408272
31
0.0
0
LINE
5
7ac
100
AcDbEntity
8
3-E
6
CONTINUOUS
62
4
100
AcDbLine
10
141.207923659589
20
89.414932074938
30
0.0
11
141.207923659589
21
156.086598741605
31
0.0
0
LINE
5
7ad
100
AcDbEntity
8
3-E
6
CONTINUOUS
62
4
100
AcDbLine
10
141.207923659589
20
89.414932074938
30
0.0
11
140.776569492923
21
91.024827908272
31
0.0
0
LINE
5
7ae
100
AcDbEntity
8
3-E
6
CONTINUOUS
62
4
100
AcDbLine
10
141.207923659589
20
89.414932074938
30
0.0
11
141.639277826256
21
91.024827908272
31
0.0
0
LINE
5
7af
100
AcDbEntity
8
3-E
6
CONTINUOUS
62
4
100
AcDbLine
10
141.207923659589
20
156.086598741605
30
0.0
11
140.776569492923
21
154.476807074939
31
0.0
0
LINE
5
7b0
100
AcDbEntity
8
3-E
6
CONTINUOUS
62
4
100
AcDbLine
10
141.207923659589
20
156.086598741605
30
0.0
11
141.639277826256
21
154.476807074939
31
0.0
0
LINE
5
7b1
100
AcDbEntity
8
3-E
6
CONTINUOUS
62
4
100
AcDbLine
10
148.411361159589
20
156.086598741605
30
0.0
11
140.374590326256
21
156.086598741605
31
0.0
0
LINE
5
7b2
100
AcDbEntity
8
3-E
6
CONTINUOUS
62
4
100
AcDbLine
10
110.932090326256
20
244.875140408272
30
0.0
11
93.237298659589
21
219.608994574938
31
0.0
0
LINE
5
7b3
100
AcDbEntity
8
3-E
6
CONTINUOUS
62
4
100
AcDbLine
10
71.167090326256
20
214.415036241605
30
0.0
11
70.192298659589
21
215.766807074939
31
0.0
0
LINE
5
7b4
100
AcDbEntity
8
3-E
6
CONTINUOUS
62
4
100
AcDbLine
10
71.167090326256
20
214.415036241605
30
0.0
11
70.998756992923
21
216.073161241605
31
0.0
0
LINE
5
7b5
100
AcDbEntity
8
3-E
6
CONTINUOUS
62
4
100
AcDbLine
10
178.191361159589
20
222.178890408272
30
0.0
11
178.191361159589
21
224.331702908272
31
0.0
0
LINE
5
7b6
100
AcDbEntity
8
3-E
6
CONTINUOUS
62
4
100
AcDbLine
10
179.858027826256
20
222.178890408272
30
0.0
11
179.858027826256
21
224.331702908272
31
0.0
0
LINE
5
7b7
100
AcDbEntity
8
3-E
6
CONTINUOUS
62
3
100
AcDbLine
10
178.808131992923
20
92.248265408272
30
0.0
11
178.941465326256
21
92.248265408272
31
0.0
0
LINE
5
7b8
100
AcDbEntity
8
3-E
6
CONTINUOUS
62
3
100
AcDbLine
10
178.808131992923
20
90.748265408272
30
0.0
11
178.941465326256
21
90.748265408272
31
0.0
0
LINE
5
7b9
100
AcDbEntity
8
3-E
6
CONTINUOUS
62
3
100
AcDbLine
10
177.941361159589
20
91.831598741605
30
0.0
11
177.941361159589
21
91.164932074938
31
0.0
0
LINE
5
7ba
100
AcDbEntity
8
3-E
6
CONTINUOUS
62
3
100
AcDbLine
10
178.808131992923
20
90.748265408272
30
0.0
11
178.808131992923
21
92.248265408272
31
0.0
0
LINE
5
7bb
100
AcDbEntity
8
3-0
6
CONTINUOUS
62
7
100
AcDbLine
10
178.808131992923
20
90.872848741605
30
0.0
11
178.363236159589
21
90.872848741605
31
0.0
0
LINE
5
7bc
100
AcDbEntity
8
3-0
6
CONTINUOUS
62
7
100
AcDbLine
10
178.314798659589
20
90.956598741605
30
0.0
11
178.363236159589
21
90.872848741605
31
0.0
0
LINE
5
7bd
100
AcDbEntity
8
3-0
6
CONTINUOUS
62
7
100
AcDbLine
10
178.808131992923
20
92.123786241605
30
0.0
11
178.363236159589
21
92.123786241605
31
0.0
0
LINE
5
7be
100
AcDbEntity
8
3-0
6
CONTINUOUS
62
7
100
AcDbLine
10
178.314798659589
20
92.039932074938
30
0.0
11
178.363236159589
21
92.123786241605
31
0.0
0
LINE
5
7bf
100
AcDbEntity
8
3-0
6
CONTINUOUS
62
7
100
AcDbLine
10
178.314798659589
20
90.956598741605
30
0.0
11
178.314798659589
21
92.039932074938
31
0.0
0
LINE
5
7c0
100
AcDbEntity
8
3-E
6
CONTINUOUS
62
3
100
AcDbLine
10
178.314798659589
20
91.831598741605
30
0.0
11
177.941361159589
21
91.831598741605
31
0.0
0
LINE
5
7c1
100
AcDbEntity
8
3-E
6
CONTINUOUS
62
3
100
AcDbLine
10
178.314798659589
20
91.164932074938
30
0.0
11
177.941361159589
21
91.164932074938
31
0.0
0
LINE
5
7c2
100
AcDbEntity
8
3-0
6
CONTINUOUS
62
7
100
AcDbLine
10
178.808131992923
20
91.185557074939
30
0.0
11
178.363236159589
21
91.185557074939
31
0.0
0
LINE
5
7c3
100
AcDbEntity
8
3-0
6
CONTINUOUS
62
7
100
AcDbLine
10
178.808131992923
20
91.810973741605
30
0.0
11
178.363236159589
21
91.810973741605
31
0.0
0
LINE
5
7c4
100
AcDbEntity
8
3-E
6
CONTINUOUS
62
4
100
AcDbLine
10
178.314798659589
20
91.748265408272
30
0.0
11
177.941361159589
21
91.748265408272
31
0.0
0
LINE
5
7c5
100
AcDbEntity
8
3-E
6
CONTINUOUS
62
4
100
AcDbLine
10
178.314798659589
20
91.248265408272
30
0.0
11
177.941361159589
21
91.248265408272
31
0.0
0
LINE
5
7c6
100
AcDbEntity
8
3-0
6
CONTINUOUS
62
7
100
AcDbLine
10
174.191465326256
20
88.831598741605
30
0.0
11
174.191465326256
21
89.414932074938
31
0.0
0
LINE
5
7c7
100
AcDbEntity
8
3-0
6
CONTINUOUS
62
7
100
AcDbLine
10
174.191465326256
20
88.831598741605
30
0.0
11
181.108131992923
21
88.831598741605
31
0.0
0
LINE
5
7c8
100
AcDbEntity
8
3-E
6
CONTINUOUS
62
4
100
AcDbLine
10
110.932090326256
20
258.208473741605
30
0.0
11
138.279173659589
21
258.208473741605
31
0.0
0
LINE
5
7c9
100
AcDbEntity
8
3-E
6
CONTINUOUS
62
4
100
AcDbLine
10
110.932090326256
20
251.541807074939
30
0.0
11
138.279173659589
21
251.541807074939
31
0.0
0
LINE
5
7ca
100
AcDbEntity
8
3-E
6
CONTINUOUS
62
4
100
AcDbLine
10
110.932090326256
20
244.875140408272
30
0.0
11
138.279173659589
21
244.875140408272
31
0.0
0
LINE
5
7cb
100
AcDbEntity
8
3-E
6
CONTINUOUS
62
4
100
AcDbLine
10
95.470631992923
20
119.369827908272
30
0.0
11
108.869381992923
21
119.369827908272
31
0.0
0
LINE
5
7cc
100
AcDbEntity
8
3-B
6
CONTINUOUS
62
7
100
AcDbLine
10
148.557611159589
20
123.859411241605
30
0.0
11
160.779798659589
21
123.859411241605
31
0.0
0
LINE
5
7cd
100
AcDbEntity
8
3-B
6
CONTINUOUS
62
7
100
AcDbLine
10
148.557611159589
20
121.637119574939
30
0.0
11
160.779798659589
21
121.637119574939
31
0.0
0
LINE
5
7ce
100
AcDbEntity
8
3-B
6
CONTINUOUS
62
7
100
AcDbLine
10
148.557611159589
20
123.859411241605
30
0.0
11
148.557611159589
21
121.637119574939
31
0.0
0
LINE
5
7cf
100
AcDbEntity
8
3-0
6
CONTINUOUS
62
7
100
AcDbLine
10
182.524590326256
20
213.831702908272
30
0.0
11
182.524590326256
21
83.165036241605
31
0.0
0
LINE
5
7d0
100
AcDbEntity
8
3-E
6
DOT
62
4
100
AcDbLine
10
55.791361159589
20
156.081598741605
30
0.0
11
55.791361159589
21
78.998265408272
31
0.0
0
LINE
5
7d1
100
AcDbEntity
8
3-E
6
CONTINUOUS
62
4
100
AcDbLine
10
126.624590326256
20
156.081598741605
30
0.0
11
126.624590326256
21
78.998265408272
31
0.0
0
LINE
5
7d2
100
AcDbEntity
8
3-E
6
CONTINUOUS
62
2
100
AcDbLine
10
66.208027826256
20
156.081598741605
30
0.0
11
49.541361159589
21
156.081598741605
31
0.0
0
LINE
5
7d3
100
AcDbEntity
8
3-0
6
CONTINUOUS
62
7
100
AcDbLine
10
60.374590326256
20
213.831702908272
30
0.0
11
60.374590326256
21
156.081598741605
31
0.0
0
LINE
5
7d4
100
AcDbEntity
8
3-E
6
DOT
62
4
100
AcDbLine
10
60.374590326256
20
156.081598741605
30
0.0
11
60.374590326256
21
83.165036241605
31
0.0
0
LINE
5
7d5
100
AcDbEntity
8
3-E
6
CONTINUOUS
62
2
100
AcDbLine
10
91.207923659589
20
83.165036241605
30
0.0
11
122.041256992923
21
83.165036241605
31
0.0
0
LINE
5
7d6
100
AcDbEntity
8
3-E
6
DOT
62
4
100
AcDbLine
10
60.374590326256
20
83.165036241605
30
0.0
11
91.207923659589
21
83.165036241605
31
0.0
0
LINE
5
7d7
100
AcDbEntity
8
3-E
6
CONTINUOUS
62
2
100
AcDbLine
10
91.207923659589
20
88.831598741605
30
0.0
11
122.041256992923
21
88.831598741605
31
0.0
0
LINE
5
7d8
100
AcDbEntity
8
3-E
6
DOT
62
4
100
AcDbLine
10
60.374590326256
20
88.831598741605
30
0.0
11
91.207923659589
21
88.831598741605
31
0.0
0
LINE
5
7d9
100
AcDbEntity
8
3-0
6
CENTER2
62
7
100
AcDbLine
10
91.207923659589
20
247.404098741605
30
0.0
11
91.207923659589
21
73.660452908272
31
0.0
0
LINE
5
7da
100
AcDbEntity
8
3-E
6
CONTINUOUS
62
4
100
AcDbLine
10
108.416256992922
20
83.165036241605
30
0.0
11
108.416256992922
21
74.831598741605
31
0.0
0
LINE
5
7db
100
AcDbEntity
8
3-E
6
CONTINUOUS
62
4
100
AcDbLine
10
107.332923659589
20
83.165036241605
30
0.0
11
107.332923659589
21
74.831598741605
31
0.0
0
LINE
5
7dc
100
AcDbEntity
8
3-E
6
CENTER2
62
4
100
AcDbLine
10
107.874590326256
20
84.365452908272
30
0.0
11
107.874590326256
21
73.660452908272
31
0.0
0
LINE
5
7dd
100
AcDbEntity
8
3-E
6
CONTINUOUS
62
2
100
AcDbLine
10
163.024902826256
20
156.081598741605
30
0.0
11
175.524798659589
21
156.081598741605
31
0.0
0
LINE
5
7de
100
AcDbEntity
8
3-E
6
CONTINUOUS
62
4
100
AcDbLine
10
162.435111159589
20
89.414932074938
30
0.0
11
140.374590326256
21
89.414932074938
31
0.0
0
LINE
5
7df
100
AcDbEntity
8
3-0
6
CONTINUOUS
62
7
100
AcDbLine
10
195.024590326256
20
89.414932074938
30
0.0
11
163.024902826256
21
89.414932074938
31
0.0
0
LINE
5
7e0
100
AcDbEntity
8
3-E
6
PHANTOM2
62
4
100
AcDbLine
10
109.399069492923
20
74.831598741605
30
0.0
11
106.501048659589
21
74.831598741605
31
0.0
0
LINE
5
7e1
100
AcDbEntity
8
3-E
6
CONTINUOUS
62
4
100
AcDbLine
10
122.041256992923
20
89.538265408272
30
0.0
11
126.624590326256
21
84.954932074939
31
0.0
0
LINE
5
7e2
100
AcDbEntity
8
3-E
6
CONTINUOUS
62
4
100
AcDbLine
10
122.041256992923
20
95.430869574938
30
0.0
11
126.624590326256
21
90.847536241605
31
0.0
0
LINE
5
7e3
100
AcDbEntity
8
3-E
6
CONTINUOUS
62
4
100
AcDbLine
10
122.041256992923
20
101.323473741605
30
0.0
11
126.624590326256
21
96.740036241605
31
0.0
0
LINE
5
7e4
100
AcDbEntity
8
3-E
6
CONTINUOUS
62
4
100
AcDbLine
10
122.041256992923
20
107.215973741605
30
0.0
11
126.624590326256
21
102.632640408272
31
0.0
0
LINE
5
7e5
100
AcDbEntity
8
3-E
6
CONTINUOUS
62
4
100
AcDbLine
10
122.041256992923
20
113.108577908272
30
0.0
11
126.624590326256
21
108.525244574939
31
0.0
0
LINE
5
7e6
100
AcDbEntity
8
3-E
6
CONTINUOUS
62
4
100
AcDbLine
10
122.041256992923
20
119.001077908272
30
0.0
11
126.624590326256
21
114.417744574938
31
0.0
0
LINE
5
7e7
100
AcDbEntity
8
3-E
6
CONTINUOUS
62
4
100
AcDbLine
10
122.041256992923
20
124.893682074939
30
0.0
11
126.624590326256
21
120.310348741605
31
0.0
0
LINE
5
7e8
100
AcDbEntity
8
3-E
6
CONTINUOUS
62
4
100
AcDbLine
10
122.041256992923
20
130.786286241605
30
0.0
11
126.624590326256
21
126.202848741605
31
0.0
0
LINE
5
7e9
100
AcDbEntity
8
3-E
6
CONTINUOUS
62
4
100
AcDbLine
10
122.041256992923
20
136.678786241605
30
0.0
11
126.624590326256
21
132.095452908272
31
0.0
0
LINE
5
7ea
100
AcDbEntity
8
3-E
6
CONTINUOUS
62
4
100
AcDbLine
10
122.041256992923
20
142.571390408272
30
0.0
11
126.624590326256
21
137.987952908272
31
0.0
0
LINE
5
7eb
100
AcDbEntity
8
3-E
6
CONTINUOUS
62
4
100
AcDbLine
10
122.041256992923
20
148.463890408272
30
0.0
11
126.624590326256
21
143.880557074939
31
0.0
0
LINE
5
7ec
100
AcDbEntity
8
3-E
6
CONTINUOUS
62
4
100
AcDbLine
10
122.041256992923
20
154.356494574938
30
0.0
11
126.624590326256
21
149.773057074938
31
0.0
0
LINE
5
7ed
100
AcDbEntity
8
3-E
6
CONTINUOUS
62
4
100
AcDbLine
10
126.208652826256
20
156.081598741605
30
0.0
11
126.624590326256
21
155.665661241605
31
0.0
0
LINE
5
7ee
100
AcDbEntity
8
3-E
6
CONTINUOUS
62
4
100
AcDbLine
10
173.348965326256
20
156.081598741605
30
0.0
11
175.524694492922
21
153.905869574938
31
0.0
0
LINE
5
7ef
100
AcDbEntity
8
3-E
6
CONTINUOUS
62
4
100
AcDbLine
10
182.524590326256
20
93.873057074938
30
0.0
11
186.982715326256
21
89.414932074938
31
0.0
0
LINE
5
7f0
100
AcDbEntity
8
3-1
6
CONTINUOUS
62
3
100
AcDbLine
10
178.941465326256
20
143.581702908272
30
0.0
11
181.774694492922
21
143.581702908272
31
0.0
0
LINE
5
7f1
100
AcDbEntity
8
3-E
6
CONTINUOUS
62
4
100
AcDbLine
10
175.166361159589
20
78.998265408272
30
0.0
11
185.583027826256
21
89.414932074938
31
0.0
0
LINE
5
7f2
100
AcDbEntity
8
3-E
6
CONTINUOUS
62
4
100
AcDbLine
10
169.273861159589
20
78.998265408272
30
0.0
11
179.690527826256
21
89.414932074938
31
0.0
0
LINE
5
7f3
100
AcDbEntity
8
3-E
6
CONTINUOUS
62
4
100
AcDbLine
10
178.899590326256
20
83.165036241605
30
0.0
11
178.899590326256
21
74.831598741605
31
0.0
0
LINE
5
7f4
100
AcDbEntity
8
3-E
6
CONTINUOUS
62
4
100
AcDbLine
10
177.816256992922
20
83.165036241605
30
0.0
11
177.816256992922
21
74.831598741605
31
0.0
0
LINE
5
7f5
100
AcDbEntity
8
3-E
6
PHANTOM2
62
4
100
AcDbLine
10
179.882506992923
20
74.831598741605
30
0.0
11
176.984486159589
21
74.831598741605
31
0.0
0
LINE
5
7f6
100
AcDbEntity
8
3-E
6
CENTER2
62
4
100
AcDbLine
10
178.357923659589
20
84.393161241605
30
0.0
11
178.357923659589
21
73.652119574938
31
0.0
0
LINE
5
7f7
100
AcDbEntity
8
3-E
6
CONTINUOUS
62
4
100
AcDbLine
10
177.816256992922
20
83.165036241605
30
0.0
11
178.899590326256
21
83.165036241605
31
0.0
0
LINE
5
7f8
100
AcDbEntity
8
3-E
6
CONTINUOUS
62
4
100
AcDbLine
10
201.401777826256
20
89.414932074938
30
0.0
11
201.401777826256
21
97.748265408272
31
0.0
0
LINE
5
7f9
100
AcDbEntity
8
3-E
6
CONTINUOUS
62
4
100
AcDbLine
10
196.172611159589
20
89.414932074938
30
0.0
11
202.235111159589
21
89.414932074938
31
0.0
0
LINE
5
7fa
100
AcDbEntity
8
3-E
6
CONTINUOUS
62
4
100
AcDbLine
10
196.172611159589
20
97.748265408272
30
0.0
11
202.235111159589
21
97.748265408272
31
0.0
0
LINE
5
7fb
100
AcDbEntity
8
3-E
6
CONTINUOUS
62
4
100
AcDbLine
10
201.401777826256
20
89.414932074938
30
0.0
11
200.970423659589
21
91.024827908272
31
0.0
0
LINE
5
7fc
100
AcDbEntity
8
3-E
6
CONTINUOUS
62
4
100
AcDbLine
10
201.401777826256
20
89.414932074938
30
0.0
11
201.833131992923
21
91.024827908272
31
0.0
0
LINE
5
7fd
100
AcDbEntity
8
3-E
6
CONTINUOUS
62
4
100
AcDbLine
10
201.401777826256
20
97.748265408272
30
0.0
11
200.970423659589
21
96.138369574939
31
0.0
0
LINE
5
7fe
100
AcDbEntity
8
3-E
6
CONTINUOUS
62
4
100
AcDbLine
10
201.401777826256
20
97.748265408272
30
0.0
11
201.833131992923
21
96.138369574939
31
0.0
0
LINE
5
7ff
100
AcDbEntity
8
3-E
6
CONTINUOUS
62
4
100
AcDbLine
10
201.401777826256
20
97.748265408272
30
0.0
11
201.401777826256
21
147.748265408272
31
0.0
0
LINE
5
800
100
AcDbEntity
8
3-E
6
CONTINUOUS
62
4
100
AcDbLine
10
196.172611159589
20
147.748265408272
30
0.0
11
202.235111159589
21
147.748265408272
31
0.0
0
LINE
5
801
100
AcDbEntity
8
3-E
6
CONTINUOUS
62
4
100
AcDbLine
10
201.401777826256
20
97.748265408272
30
0.0
11
200.970423659589
21
99.358161241605
31
0.0
0
LINE
5
802
100
AcDbEntity
8
3-E
6
CONTINUOUS
62
4
100
AcDbLine
10
201.401777826256
20
97.748265408272
30
0.0
11
201.833131992923
21
99.358161241605
31
0.0
0
LINE
5
803
100
AcDbEntity
8
3-E
6
CONTINUOUS
62
4
100
AcDbLine
10
201.401777826256
20
147.748265408272
30
0.0
11
200.970423659589
21
146.138369574939
31
0.0
0
LINE
5
804
100
AcDbEntity
8
3-E
6
CONTINUOUS
62
4
100
AcDbLine
10
201.401777826256
20
147.748265408272
30
0.0
11
201.833131992923
21
146.138369574939
31
0.0
0
LINE
5
805
100
AcDbEntity
8
3-E
6
CONTINUOUS
62
4
100
AcDbLine
10
91.207923659589
20
78.998265408272
30
0.0
11
126.624590326256
21
78.998265408272
31
0.0
0
LINE
5
806
100
AcDbEntity
8
3-E
6
DOT
62
4
100
AcDbLine
10
55.791361159589
20
78.998265408272
30
0.0
11
91.207923659589
21
78.998265408272
31
0.0
0
LINE
5
807
100
AcDbEntity
8
3-E
6
CONTINUOUS
62
6
100
AcDbLine
10
161.361881992922
20
156.086598741605
30
0.0
11
149.689277826256
21
156.086598741605
31
0.0
0
LINE
5
808
100
AcDbEntity
8
3-E
6
CONTINUOUS
62
6
100
AcDbLine
10
160.082611159589
20
155.253265408272
30
0.0
11
150.961152826256
21
155.253265408272
31
0.0
0
LINE
5
809
100
AcDbEntity
8
3-E
6
CONTINUOUS
62
6
100
AcDbLine
10
158.692194492923
20
154.419932074938
30
0.0
11
152.351569492923
21
154.419932074938
31
0.0
0
LINE
5
80a
100
AcDbEntity
8
3-E
6
CONTINUOUS
62
6
100
AcDbLine
10
157.190423659589
20
153.586702908272
30
0.0
11
153.853340326256
21
153.586702908272
31
0.0
0
LINE
5
80b
100
AcDbEntity
8
3-E
6
CONTINUOUS
62
4
100
AcDbLine
10
156.467402826256
20
152.753265408272
30
0.0
11
154.687611159589
21
152.753265408272
31
0.0
0
LINE
5
80c
100
AcDbEntity
8
3-A
6
CONTINUOUS
62
2
100
AcDbLine
10
171.524694492922
20
214.415036241605
30
0.0
11
171.524694492922
21
208.165036241605
31
0.0
0
POLYLINE
5
80d
100
AcDbEntity
8
3-A
6
CONTINUOUS
62
  2
100
AcDb2dPolyline
66
1
10
0.0
20
0.0
30
0.0
70
0
0
VERTEX
5
80e
100
AcDbEntity
8
3-A
6
CONTINUOUS
62
  2
100
AcDbVertex
100
AcDb2dVertex
10
171.524694492922
20
214.415036241605
30
0.0
0
VERTEX
5
80f
100
AcDbEntity
8
3-A
6
CONTINUOUS
62
  2
100
AcDbVertex
100
AcDb2dVertex
10
186.524694492923
20
214.415036241605
30
0.0
0
VERTEX
5
810
100
AcDbEntity
8
3-A
6
CONTINUOUS
62
  2
100
AcDbVertex
100
AcDb2dVertex
10
186.524694492923
20
208.165036241605
30
0.0
0
SEQEND
5
811
100
AcDbEntity
8
3-A
0
LINE
5
812
100
AcDbEntity
8
3-E
6
CONTINUOUS
62
4
100
AcDbLine
10
118.957923659589
20
130.498369574938
30
0.0
11
117.624590326256
21
130.498369574938
31
0.0
0
LINE
5
813
100
AcDbEntity
8
3-E
6
CONTINUOUS
62
4
100
AcDbLine
10
118.957923659589
20
129.915036241605
30
0.0
11
117.624590326256
21
129.915036241605
31
0.0
0
LINE
5
814
100
AcDbEntity
8
3-E
6
CONTINUOUS
62
4
100
AcDbLine
10
118.957923659589
20
129.331702908272
30
0.0
11
117.624590326256
21
129.331702908272
31
0.0
0
LINE
5
815
100
AcDbEntity
8
3-E
6
CONTINUOUS
62
4
100
AcDbLine
10
118.957923659589
20
128.748369574938
30
0.0
11
117.624590326256
21
128.748369574938
31
0.0
0
LINE
5
816
100
AcDbEntity
8
3-E
6
CONTINUOUS
62
4
100
AcDbLine
10
118.957923659589
20
125.081598741605
30
0.0
11
117.624590326256
21
125.081598741605
31
0.0
0
LINE
5
817
100
AcDbEntity
8
3-E
6
CONTINUOUS
62
4
100
AcDbLine
10
118.957923659589
20
124.498265408272
30
0.0
11
117.624590326256
21
124.498265408272
31
0.0
0
LINE
5
818
100
AcDbEntity
8
3-E
6
CONTINUOUS
62
4
100
AcDbLine
10
118.957923659589
20
123.915036241605
30
0.0
11
117.624590326256
21
123.915036241605
31
0.0
0
LINE
5
819
100
AcDbEntity
8
3-E
6
CONTINUOUS
62
4
100
AcDbLine
10
118.957923659589
20
123.331702908272
30
0.0
11
117.624590326256
21
123.331702908272
31
0.0
0
LINE
5
81a
100
AcDbEntity
8
3-E
6
CONTINUOUS
62
4
100
AcDbLine
10
118.957923659589
20
101.748369574938
30
0.0
11
117.624590326256
21
101.748369574938
31
0.0
0
LINE
5
81b
100
AcDbEntity
8
3-E
6
CONTINUOUS
62
4
100
AcDbLine
10
118.957923659589
20
101.165036241605
30
0.0
11
117.624590326256
21
101.165036241605
31
0.0
0
LINE
5
81c
100
AcDbEntity
8
3-E
6
CONTINUOUS
62
4
100
AcDbLine
10
118.957923659589
20
100.581702908272
30
0.0
11
117.624590326256
21
100.581702908272
31
0.0
0
LINE
5
81d
100
AcDbEntity
8
3-E
6
CONTINUOUS
62
4
100
AcDbLine
10
118.957923659589
20
99.998369574939
30
0.0
11
117.624590326256
21
99.998369574939
31
0.0
0
LINE
5
81e
100
AcDbEntity
8
3-E
6
CONTINUOUS
62
4
100
AcDbLine
10
118.957923659589
20
96.331598741605
30
0.0
11
117.624590326256
21
96.331598741605
31
0.0
0
LINE
5
81f
100
AcDbEntity
8
3-E
6
CONTINUOUS
62
4
100
AcDbLine
10
118.957923659589
20
95.748265408272
30
0.0
11
117.624590326256
21
95.748265408272
31
0.0
0
LINE
5
820
100
AcDbEntity
8
3-E
6
CONTINUOUS
62
4
100
AcDbLine
10
118.957923659589
20
95.164932074938
30
0.0
11
117.624590326256
21
95.164932074938
31
0.0
0
LINE
5
821
100
AcDbEntity
8
3-E
6
CONTINUOUS
62
4
100
AcDbLine
10
118.957923659589
20
94.581598741605
30
0.0
11
117.624590326256
21
94.581598741605
31
0.0
0
LINE
5
822
100
AcDbEntity
8
3-E
6
CONTINUOUS
62
4
100
AcDbLine
10
67.287611159589
20
224.838786241605
30
0.0
11
71.167090326256
21
214.415036241605
31
0.0
0
LINE
5
823
100
AcDbEntity
8
3-E
6
CONTINUOUS
62
4
100
AcDbLine
10
66.208027826256
20
56.406598741605
30
0.0
11
116.207923659589
21
56.406598741605
31
0.0
0
LINE
5
824
100
AcDbEntity
8
3-E
6
CONTINUOUS
62
4
100
AcDbLine
10
66.208027826256
20
81.832952908272
30
0.0
11
66.208027826256
21
55.573265408272
31
0.0
0
LINE
5
825
100
AcDbEntity
8
3-E
6
CONTINUOUS
62
4
100
AcDbLine
10
116.207923659589
20
81.832952908272
30
0.0
11
116.207923659589
21
55.573265408272
31
0.0
0
LINE
5
826
100
AcDbEntity
8
3-E
6
CONTINUOUS
62
4
100
AcDbLine
10
66.208027826256
20
56.406598741605
30
0.0
11
67.817819492923
21
56.837952908272
31
0.0
0
LINE
5
827
100
AcDbEntity
8
3-E
6
CONTINUOUS
62
4
100
AcDbLine
10
66.208027826256
20
56.406598741605
30
0.0
11
67.817819492923
21
55.975244574939
31
0.0
0
LINE
5
828
100
AcDbEntity
8
3-E
6
CONTINUOUS
62
4
100
AcDbLine
10
116.207923659589
20
56.406598741605
30
0.0
11
114.598027826256
21
56.837952908272
31
0.0
0
LINE
5
829
100
AcDbEntity
8
3-E
6
CONTINUOUS
62
4
100
AcDbLine
10
116.207923659589
20
56.406598741605
30
0.0
11
114.598027826256
21
55.975244574939
31
0.0
0
LINE
5
82a
100
AcDbEntity
8
3-E
6
CONTINUOUS
62
4
100
AcDbLine
10
61.624590326256
20
49.739932074939
30
0.0
11
120.791361159589
21
49.739932074939
31
0.0
0
LINE
5
82b
100
AcDbEntity
8
3-E
6
CONTINUOUS
62
4
100
AcDbLine
10
61.624590326256
20
81.832952908272
30
0.0
11
61.624590326256
21
48.906598741605
31
0.0
0
LINE
5
82c
100
AcDbEntity
8
3-E
6
CONTINUOUS
62
4
100
AcDbLine
10
120.791361159589
20
81.832952908272
30
0.0
11
120.791361159589
21
48.906598741605
31
0.0
0
LINE
5
82d
100
AcDbEntity
8
3-E
6
CONTINUOUS
62
4
100
AcDbLine
10
61.624590326256
20
49.739932074939
30
0.0
11
63.234486159589
21
50.171286241605
31
0.0
0
LINE
5
82e
100
AcDbEntity
8
3-E
6
CONTINUOUS
62
4
100
AcDbLine
10
61.624590326256
20
49.739932074939
30
0.0
11
63.234486159589
21
49.308577908272
31
0.0
0
LINE
5
82f
100
AcDbEntity
8
3-E
6
CONTINUOUS
62
4
100
AcDbLine
10
120.791361159589
20
49.739932074939
30
0.0
11
119.181465326256
21
50.171286241605
31
0.0
0
LINE
5
830
100
AcDbEntity
8
3-E
6
CONTINUOUS
62
4
100
AcDbLine
10
120.791361159589
20
49.739932074939
30
0.0
11
119.181465326256
21
49.308577908272
31
0.0
0
LINE
5
831
100
AcDbEntity
8
3-E
6
CONTINUOUS
62
4
100
AcDbLine
10
60.374590326256
20
43.073265408272
30
0.0
11
122.041256992923
21
43.073265408272
31
0.0
0
LINE
5
832
100
AcDbEntity
8
3-E
6
CONTINUOUS
62
4
100
AcDbLine
10
60.374590326256
20
81.832952908272
30
0.0
11
60.374590326256
21
42.239932074939
31
0.0
0
LINE
5
833
100
AcDbEntity
8
3-E
6
CONTINUOUS
62
4
100
AcDbLine
10
122.041256992923
20
81.832952908272
30
0.0
11
122.041256992923
21
42.239932074939
31
0.0
0
LINE
5
834
100
AcDbEntity
8
3-E
6
CONTINUOUS
62
4
100
AcDbLine
10
60.374590326256
20
43.073265408272
30
0.0
11
61.984486159589
21
43.504619574939
31
0.0
0
LINE
5
835
100
AcDbEntity
8
3-E
6
CONTINUOUS
62
4
100
AcDbLine
10
60.374590326256
20
43.073265408272
30
0.0
11
61.984486159589
21
42.641911241605
31
0.0
0
LINE
5
836
100
AcDbEntity
8
3-E
6
CONTINUOUS
62
4
100
AcDbLine
10
122.041256992923
20
43.073265408272
30
0.0
11
120.431361159589
21
43.504619574939
31
0.0
0
LINE
5
837
100
AcDbEntity
8
3-E
6
CONTINUOUS
62
4
100
AcDbLine
10
122.041256992923
20
43.073265408272
30
0.0
11
120.431361159589
21
42.641911241605
31
0.0
0
LINE
5
838
100
AcDbEntity
8
3-E
6
CONTINUOUS
62
4
100
AcDbLine
10
74.541256992922
20
63.073265408272
30
0.0
11
107.874590326256
21
63.073265408272
31
0.0
0
LINE
5
839
100
AcDbEntity
8
3-E
6
CONTINUOUS
62
4
100
AcDbLine
10
74.541256992922
20
63.073265408272
30
0.0
11
76.151152826256
21
63.504619574938
31
0.0
0
LINE
5
83a
100
AcDbEntity
8
3-E
6
CONTINUOUS
62
4
100
AcDbLine
10
74.541256992922
20
63.073265408272
30
0.0
11
76.151152826256
21
62.641911241605
31
0.0
0
LINE
5
83b
100
AcDbEntity
8
3-E
6
CONTINUOUS
62
4
100
AcDbLine
10
107.874590326256
20
63.073265408272
30
0.0
11
106.264694492923
21
63.504619574938
31
0.0
0
LINE
5
83c
100
AcDbEntity
8
3-E
6
CONTINUOUS
62
4
100
AcDbLine
10
107.874590326256
20
63.073265408272
30
0.0
11
106.264694492923
21
62.641911241605
31
0.0
0
LINE
5
83d
100
AcDbEntity
8
3-E
6
CONTINUOUS
62
4
100
AcDbLine
10
55.791361159589
20
36.406598741605
30
0.0
11
126.624590326256
21
36.406598741605
31
0.0
0
LINE
5
83e
100
AcDbEntity
8
3-E
6
CONTINUOUS
62
4
100
AcDbLine
10
55.791361159589
20
77.908682074938
30
0.0
11
55.791361159589
21
35.573265408272
31
0.0
0
LINE
5
83f
100
AcDbEntity
8
3-E
6
CONTINUOUS
62
4
100
AcDbLine
10
126.624590326256
20
77.908682074938
30
0.0
11
126.624590326256
21
35.573265408272
31
0.0
0
LINE
5
840
100
AcDbEntity
8
3-E
6
CONTINUOUS
62
4
100
AcDbLine
10
55.791361159589
20
36.406598741605
30
0.0
11
57.401152826256
21
36.837952908272
31
0.0
0
LINE
5
841
100
AcDbEntity
8
3-E
6
CONTINUOUS
62
4
100
AcDbLine
10
55.791361159589
20
36.406598741605
30
0.0
11
57.401152826256
21
35.975244574939
31
0.0
0
LINE
5
842
100
AcDbEntity
8
3-E
6
CONTINUOUS
62
4
100
AcDbLine
10
126.624590326256
20
36.406598741605
30
0.0
11
125.014694492923
21
36.837952908272
31
0.0
0
LINE
5
843
100
AcDbEntity
8
3-E
6
CONTINUOUS
62
4
100
AcDbLine
10
126.624590326256
20
36.406598741605
30
0.0
11
125.014694492923
21
35.975244574939
31
0.0
0
LINE
5
844
100
AcDbEntity
8
3-E
6
CONTINUOUS
62
4
100
AcDbLine
10
107.874590326256
20
72.672223741605
30
0.0
11
107.874590326256
21
62.239932074939
31
0.0
0
LINE
5
845
100
AcDbEntity
8
3-E
6
CONTINUOUS
62
4
100
AcDbLine
10
74.541256992922
20
72.672223741605
30
0.0
11
74.541256992922
21
62.239932074939
31
0.0
0
LINE
5
846
100
AcDbEntity
8
3-E
6
CONTINUOUS
62
4
100
AcDbLine
10
70.374486159589
20
238.662952908272
30
0.0
11
112.044590326256
21
238.662952908272
31
0.0
0
LINE
5
847
100
AcDbEntity
8
3-E
6
CONTINUOUS
62
4
100
AcDbLine
10
70.374486159589
20
238.662952908272
30
0.0
11
71.984277826256
21
239.094307074938
31
0.0
0
LINE
5
848
100
AcDbEntity
8
3-E
6
CONTINUOUS
62
4
100
AcDbLine
10
70.374486159589
20
238.662952908272
30
0.0
11
71.984277826256
21
238.231598741605
31
0.0
0
LINE
5
849
100
AcDbEntity
8
3-E
6
CONTINUOUS
62
4
100
AcDbLine
10
112.044590326256
20
238.662952908272
30
0.0
11
110.434694492923
21
239.094307074938
31
0.0
0
LINE
5
84a
100
AcDbEntity
8
3-E
6
CONTINUOUS
62
4
100
AcDbLine
10
112.044590326256
20
238.662952908272
30
0.0
11
110.434694492923
21
238.231598741605
31
0.0
0
LINE
5
84b
100
AcDbEntity
8
3-E
6
CONTINUOUS
62
4
100
AcDbLine
10
70.374486159589
20
227.730765408272
30
0.0
11
70.374486159589
21
239.496286241605
31
0.0
0
LINE
5
84c
100
AcDbEntity
8
3-E
6
CONTINUOUS
62
4
100
AcDbLine
10
112.044590326256
20
227.730765408272
30
0.0
11
112.044590326256
21
239.496286241605
31
0.0
0
LINE
5
84d
100
AcDbEntity
8
3-E
6
CONTINUOUS
62
4
100
AcDbLine
10
209.776152826256
20
89.414932074938
30
0.0
11
209.776152826256
21
156.086598741605
31
0.0
0
LINE
5
84e
100
AcDbEntity
8
3-E
6
CONTINUOUS
62
4
100
AcDbLine
10
197.645006992923
20
156.086598741605
30
0.0
11
210.609486159589
21
156.086598741605
31
0.0
0
LINE
5
84f
100
AcDbEntity
8
3-E
6
CONTINUOUS
62
4
100
AcDbLine
10
199.579277826256
20
89.414932074938
30
0.0
11
210.609486159589
21
89.414932074938
31
0.0
0
LINE
5
850
100
AcDbEntity
8
3-E
6
CONTINUOUS
62
4
100
AcDbLine
10
209.776152826256
20
156.086598741605
30
0.0
11
210.207506992923
21
154.476807074939
31
0.0
0
LINE
5
851
100
AcDbEntity
8
3-E
6
CONTINUOUS
62
4
100
AcDbLine
10
209.776152826256
20
156.086598741605
30
0.0
11
209.344798659589
21
154.476807074939
31
0.0
0
LINE
5
852
100
AcDbEntity
8
3-E
6
CONTINUOUS
62
4
100
AcDbLine
10
209.776152826256
20
89.414932074938
30
0.0
11
209.344798659589
21
91.024827908272
31
0.0
0
LINE
5
853
100
AcDbEntity
8
3-E
6
CONTINUOUS
62
4
100
AcDbLine
10
209.776152826256
20
89.414932074938
30
0.0
11
210.207506992923
21
91.024827908272
31
0.0
0
LINE
5
854
100
AcDbEntity
8
3-E
6
DOT
62
4
100
AcDbLine
10
60.374590326256
20
89.414932074938
30
0.0
11
66.208027826256
21
89.414932074938
31
0.0
0
LINE
5
855
100
AcDbEntity
8
3-E
6
CONTINUOUS
62
4
100
AcDbLine
10
116.271986159589
20
89.414932074938
30
0.0
11
126.624590326256
21
79.062432074938
31
0.0
0
LINE
5
856
100
AcDbEntity
8
3-E
6
CONTINUOUS
62
4
100
AcDbLine
10
110.379486159589
20
89.414932074938
30
0.0
11
120.796152826256
21
78.998265408272
31
0.0
0
LINE
5
857
100
AcDbEntity
8
3-E
6
CONTINUOUS
62
4
100
AcDbLine
10
104.486881992923
20
89.414932074938
30
0.0
11
114.903548659589
21
78.998265408272
31
0.0
0
LINE
5
858
100
AcDbEntity
8
3-E
6
CONTINUOUS
62
4
100
AcDbLine
10
98.594381992923
20
89.414932074938
30
0.0
11
109.011048659589
21
78.998265408272
31
0.0
0
LINE
5
859
100
AcDbEntity
8
3-E
6
CONTINUOUS
62
4
100
AcDbLine
10
92.701777826256
20
89.414932074938
30
0.0
11
103.118444492923
21
78.998265408272
31
0.0
0
LINE
5
85a
100
AcDbEntity
8
3-E
6
CONTINUOUS
62
4
100
AcDbLine
10
91.207923659589
20
85.016286241605
30
0.0
11
97.225944492923
21
78.998265408272
31
0.0
0
LINE
5
85b
100
AcDbEntity
8
3-E
6
CONTINUOUS
62
4
100
AcDbLine
10
91.207923659589
20
79.123786241605
30
0.0
11
91.333340326256
21
78.998265408272
31
0.0
0
ARC
5
85c
100
AcDbEntity
8
3-0
6
CONTINUOUS
62
7
100
AcDbCircle
10
181.108131992923
20
87.998265408272
30
0.0
40
0.833333333333
100
AcDbArc
50
0.000000000000
51
90.000000000000
0
CIRCLE
5
85d
100
AcDbEntity
8
3-1
6
CONTINUOUS
62
3
100
AcDbCircle
10
179.024694492923
20
147.748369574938
30
0.0
40
0.833333333333
0
CIRCLE
5
85e
100
AcDbEntity
8
3-1
6
CONTINUOUS
62
3
100
AcDbCircle
10
179.024694492923
20
147.748369574938
30
0.0
40
1.666666666667
0
ARC
5
85f
100
AcDbEntity
8
3-A
6
CONTINUOUS
62
2
100
AcDbCircle
10
173.369486159589
20
212.998265408272
30
0.0
40
0.833333333333
100
AcDbArc
50
90.000000000000
51
174.999000000000
0
ARC
5
860
100
AcDbEntity
8
3-A
6
CONTINUOUS
62
2
100
AcDbCircle
10
171.728444492923
20
208.581598741605
30
0.0
40
0.416666666667
100
AcDbArc
50
270.000000000000
51
355.001000000000
0
ARC
5
861
100
AcDbEntity
8
3-A
6
CONTINUOUS
62
2
100
AcDbCircle
10
184.679902826256
20
212.998265408272
30
0.0
40
0.833333333333
100
AcDbArc
50
5.001000000000
51
90.000000000000
0
ARC
5
862
100
AcDbEntity
8
3-A
6
CONTINUOUS
62
2
100
AcDbCircle
10
186.321152826256
20
208.581598741605
30
0.0
40
0.416666666667
100
AcDbArc
50
184.999000000000
51
270.000000000000
0
ARC
5
863
100
AcDbEntity
8
3-A
6
DOT
62
2
100
AcDbCircle
10
65.207923659589
20
212.831702908272
30
0.0
40
0.500000000000
100
AcDbArc
50
0.000000000000
51
90.000000000000
0
ARC
5
864
100
AcDbEntity
8
3-A
6
DOT
62
2
100
AcDbCircle
10
65.208027826256
20
212.831598741605
30
0.0
40
1.000000000000
100
AcDbArc
50
0.000000000000
51
90.000000000000
0
ARC
5
865
100
AcDbEntity
8
3-A
6
DOT
62
2
100
AcDbCircle
10
117.207923659589
20
212.831702908272
30
0.0
40
0.500000000000
100
AcDbArc
50
90.000000000000
51
180.000000000000
0
ARC
5
866
100
AcDbEntity
8
3-A
6
DOT
62
2
100
AcDbCircle
10
117.207923659589
20
212.831598741605
30
0.0
40
1.000000000000
100
AcDbArc
50
90.000000000000
51
180.000000000000
0
ARC
5
867
100
AcDbEntity
8
3-3
6
CONTINUOUS
62
6
100
AcDbCircle
10
176.678861159589
20
243.943161241605
30
0.0
40
0.833333333333
100
AcDbArc
50
90.000000000000
51
180.000000000000
0
ARC
5
868
100
AcDbEntity
8
3-3
6
CONTINUOUS
62
6
100
AcDbCircle
10
181.370631992922
20
243.943161241605
30
0.0
40
0.833333333333
100
AcDbArc
50
0.000000000000
51
90.000000000000
0
ARC
5
869
100
AcDbEntity
8
3-A
6
CONTINUOUS
62
6
100
AcDbCircle
10
159.438027826256
20
225.581702908272
30
0.0
40
1.250000000000
100
AcDbArc
50
90.000000000000
51
270.000000000000
0
ARC
5
86a
100
AcDbEntity
8
3-A
6
CONTINUOUS
62
6
100
AcDbCircle
10
183.191465326256
20
220.498369574938
30
0.0
40
0.416666666667
100
AcDbArc
50
359.994000000000
51
450.000000000000
0
ARC
5
86b
100
AcDbEntity
8
3-A
6
CONTINUOUS
62
6
100
AcDbCircle
10
184.674798659589
20
215.998369574938
30
0.0
40
0.416666666667
100
AcDbArc
50
0.000000000000
51
90.000000000000
0
ARC
5
86c
100
AcDbEntity
8
3-A
6
CONTINUOUS
62
6
100
AcDbCircle
10
184.024694492922
20
216.831702908272
30
0.0
40
0.416666666667
100
AcDbArc
50
180.000000000000
51
270.000000000000
0
ARC
5
86d
100
AcDbEntity
8
3-A
6
CONTINUOUS
62
6
100
AcDbCircle
10
174.858027826256
20
220.498369574938
30
0.0
40
0.416666666667
100
AcDbArc
50
90.000000000000
51
180.006000000000
0
ARC
5
86e
100
AcDbEntity
8
3-A
6
CONTINUOUS
62
6
100
AcDbCircle
10
173.374694492923
20
215.998369574938
30
0.0
40
0.416666666667
100
AcDbArc
50
90.000000000000
51
180.000000000000
0
ARC
5
86f
100
AcDbEntity
8
3-A
6
CONTINUOUS
62
6
100
AcDbCircle
10
174.024798659589
20
216.831702908272
30
0.0
40
0.416666666667
100
AcDbArc
50
270.000000000000
51
360.000000000000
0
ARC
5
870
100
AcDbEntity
8
3-3
6
CONTINUOUS
62
6
100
AcDbCircle
10
93.553652826256
20
243.943161241605
30
0.0
40
0.833333333333
100
AcDbArc
50
0.000000000000
51
90.000000000000
0
ARC
5
871
100
AcDbEntity
8
3-3
6
CONTINUOUS
62
6
100
AcDbCircle
10
88.861986159589
20
243.943161241605
30
0.0
40
0.833333333333
100
AcDbArc
50
90.000000000000
51
180.000000000000
0
ARC
5
872
100
AcDbEntity
8
3-A
6
CONTINUOUS
62
6
100
AcDbCircle
10
110.794590326256
20
225.581702908272
30
0.0
40
1.250000000000
100
AcDbArc
50
270.000000000000
51
450.000000000000
0
ARC
5
873
100
AcDbEntity
8
3-A
6
CONTINUOUS
62
6
100
AcDbCircle
10
71.624486159589
20
225.581702908272
30
0.0
40
1.250000000000
100
AcDbArc
50
90.000000000000
51
270.000000000000
0
ARC
5
874
100
AcDbEntity
8
3-A
6
CONTINUOUS
62
6
100
AcDbCircle
10
87.041152826256
20
220.498369574938
30
0.0
40
0.416666666667
100
AcDbArc
50
90.000000000000
51
180.006000000000
0
ARC
5
875
100
AcDbEntity
8
3-A
6
CONTINUOUS
62
6
100
AcDbCircle
10
85.557715326256
20
215.998369574938
30
0.0
40
0.416666666667
100
AcDbArc
50
90.000000000000
51
180.000000000000
0
ARC
5
876
100
AcDbEntity
8
3-A
6
CONTINUOUS
62
6
100
AcDbCircle
10
86.207819492923
20
216.831702908272
30
0.0
40
0.416666666667
100
AcDbArc
50
270.000000000000
51
360.000000000000
0
ARC
5
877
100
AcDbEntity
8
3-A
6
CONTINUOUS
62
6
100
AcDbCircle
10
95.374486159589
20
220.498369574938
30
0.0
40
0.416666666667
100
AcDbArc
50
359.994000000000
51
450.000000000000
0
ARC
5
878
100
AcDbEntity
8
3-A
6
CONTINUOUS
62
6
100
AcDbCircle
10
96.857819492922
20
215.998369574938
30
0.0
40
0.416666666667
100
AcDbArc
50
0.000000000000
51
90.000000000000
0
ARC
5
879
100
AcDbEntity
8
3-A
6
CONTINUOUS
62
6
100
AcDbCircle
10
96.207819492922
20
216.831702908272
30
0.0
40
0.416666666667
100
AcDbArc
50
180.000000000000
51
270.000000000000
0
ARC
5
87a
100
AcDbEntity
8
3-A
6
CONTINUOUS
62
6
100
AcDbCircle
10
91.207819492923
20
223.415036241605
30
0.0
40
4.166666666667
100
AcDbArc
50
351.682000000000
51
372.709000000000
0
ARC
5
87b
100
AcDbEntity
8
3-A
6
CONTINUOUS
62
6
100
AcDbCircle
10
88.989694492922
20
222.090452908272
30
0.0
40
0.416666666667
100
AcDbArc
50
261.049000000000
51
441.049000000000
0
ARC
5
87c
100
AcDbEntity
8
3-A
6
CONTINUOUS
62
6
100
AcDbCircle
10
91.207819492923
20
223.415036241605
30
0.0
40
4.166666666667
100
AcDbArc
50
167.291000000000
51
188.318000000000
0
ARC
5
87d
100
AcDbEntity
8
3-A
6
CONTINUOUS
62
6
100
AcDbCircle
10
91.207819492923
20
223.498369574938
30
0.0
40
4.166666666667
100
AcDbArc
50
324.550000000000
51
339.159000000000
0
ARC
5
87e
100
AcDbEntity
8
3-A
6
CONTINUOUS
62
6
100
AcDbCircle
10
91.207819492923
20
223.498369574938
30
0.0
40
4.166666666667
100
AcDbArc
50
200.841000000000
51
215.450000000000
0
ARC
5
87f
100
AcDbEntity
8
3-A
6
CONTINUOUS
62
6
100
AcDbCircle
10
179.024798659589
20
223.498369574938
30
0.0
40
4.166666666667
100
AcDbArc
50
168.463000000000
51
215.450000000000
0
ARC
5
880
100
AcDbEntity
8
3-A
6
CONTINUOUS
62
6
100
AcDbCircle
10
179.024798659589
20
223.498369574938
30
0.0
40
4.166666666667
100
AcDbArc
50
324.550000000000
51
371.537000000000
0
ELLIPSE
  5
881
100
AcDbEntity
8
3-E
6
CONTINUOUS
62
4
100
AcDbEllipse
10
179.024694492923
20
222.178890408272
30
0.0
11
-0.833333333333
21
0.000000000000
31
0.0
210
0.0
220
0.0
230
1.0
40
0.600000000000
41
0.000000000000
42
3.141592653580
0
ARC
5
882
100
AcDbEntity
8
3-0
6
CONTINUOUS
62
7
100
AcDbCircle
10
179.349798659589
20
91.498265408272
30
0.0
40
1.034895833333
100
AcDbArc
50
162.412000000000
51
197.588000000000
0
ARC
5
883
100
AcDbEntity
8
3-0
6
CONTINUOUS
62
7
100
AcDbCircle
10
178.591673659589
20
91.029202908272
30
0.0
40
0.276875000000
100
AcDbArc
50
145.615000000000
51
205.614000000000
0
ARC
5
884
100
AcDbEntity
8
3-0
6
CONTINUOUS
62
7
100
AcDbCircle
10
178.591673659589
20
91.967327908272
30
0.0
40
0.276875000000
100
AcDbArc
50
154.386000000000
51
214.385000000000
0
MTEXT
5
885
100
AcDbEntity
8
3-A
62
7
370
-3
100
AcDbMText
10
88.662
20
162.811
30
0.0
40
2.054
41
0.000
71
7
72
1
1
\W0.972;{\W0.700;ｽﾋﾟﾝﾄﾞﾙ}φ
7
STANDARD
11
0.00000
21
1.00000
31
0.0
0
TEXT
5
886
100
AcDbEntity
8
3-E
62
7
370
-3
100
AcDbText
10
40.193
20
115.309
30
0.0
40
2.175
1
Ｂ
41
0.856
50
90.000
100
AcDbText
0
TEXT
5
887
100
AcDbEntity
8
3-E
62
7
370
-3
100
AcDbText
10
33.527
20
121.559
30
0.0
40
2.175
1
Ｅ
41
0.856
50
90.000
100
AcDbText
0
TEXT
5
888
100
AcDbEntity
8
3-E
62
7
370
-3
100
AcDbText
10
26.860
20
150.726
30
0.0
40
2.175
1
Ｆ
41
0.856
50
90.000
100
AcDbText
0
TEXT
5
889
100
AcDbEntity
8
3-E
62
7
370
-3
100
AcDbText
10
113.876
20
259.223
30
0.0
40
2.175
1
平巻式巻上機
41
0.856
50
0.000
100
AcDbText
0
TEXT
5
88a
100
AcDbEntity
8
3-E
62
7
370
-3
100
AcDbText
10
113.769
20
252.556
30
0.0
40
2.175
1
ハンドル
41
0.856
50
0.000
100
AcDbText
0
TEXT
5
88b
100
AcDbEntity
8
3-E
62
7
370
-3
100
AcDbText
10
113.984
20
245.890
30
0.0
40
2.175
1
ｽﾋﾟﾝﾄﾞﾙｶﾊﾞｰ  65A
41
0.763
50
0.000
100
AcDbText
0
TEXT
5
88c
100
AcDbEntity
8
3-B
62
7
370
-3
100
AcDbText
10
149.366
20
125.563
30
0.0
40
2.175
1
水圧方向
41
0.856
50
0.000
100
AcDbText
0
MTEXT
5
88d
100
AcDbEntity
8
3-E
62
7
370
-3
100
AcDbMText
10
150.891
20
156.604
30
0.0
40
2.054
41
0.000
71
7
72
1
1
\W0.972;▽{\W0.700;H.W.L}
7
STANDARD
11
1.00000
21
0.00000
31
0.0
0
TEXT
5
88e
100
AcDbEntity
8
3-E
62
7
370
-3
100
AcDbText
10
140.193
20
118.999
30
0.0
40
2.175
1
Ｈ
41
0.856
50
90.000
100
AcDbText
0
TEXT
5
88f
100
AcDbEntity
8
3-E
62
7
370
-3
100
AcDbText
10
90.019
20
50.755
30
0.0
40
2.175
1
Ｃ
41
0.856
50
0.000
100
AcDbText
0
TEXT
5
890
100
AcDbEntity
8
3-E
62
7
370
-3
100
AcDbText
10
90.019
20
44.088
30
0.0
40
2.175
1
Ｄ
41
0.856
50
0.000
100
AcDbText
0
TEXT
5
891
100
AcDbEntity
8
3-E
62
7
370
-3
100
AcDbText
10
90.019
20
57.421
30
0.0
40
2.175
1
Ａ
41
0.856
50
0.000
100
AcDbText
0
MTEXT
5
892
100
AcDbEntity
8
3-E
62
7
370
-3
100
AcDbMText
10
86.787
20
37.180
30
0.0
40
2.054
41
0.000
71
7
72
1
1
\W0.972;箱抜幅{\W0.700; }
7
STANDARD
11
1.00000
21
0.00000
31
0.0
0
MTEXT
5
893
100
AcDbEntity
8
3-E
62
7
370
-3
100
AcDbMText
10
82.368
20
63.846
30
0.0
40
2.054
41
0.000
71
7
72
1
1
\W0.972;挿筋{\W0.700; 300}～{\W0.700;500P}
7
STANDARD
11
1.00000
21
0.00000
31
0.0
0
TEXT
5
894
100
AcDbEntity
8
3-E
62
7
370
-3
100
AcDbText
10
79.625
20
239.678
30
0.0
40
2.175
1
Ｇ
41
0.856
50
0.000
100
AcDbText
0
CIRCLE
5
895
100
AcDbEntity
8
3-0
6
CONTINUOUS
62
4
100
AcDbCircle
10
172.514277826256
20
97.748265408272
30
0.0
40
0.564236111111
0
LINE
5
896
100
AcDbEntity
8
3-0
6
CENTER
62
4
100
AcDbLine
10
172.514277826256
20
97.748265408272
30
0.0
11
172.514277826256
21
98.789932074938
31
0.0
0
LINE
5
897
100
AcDbEntity
8
3-0
6
CENTER
62
4
100
AcDbLine
10
172.514277826256
20
97.748265408272
30
0.0
11
171.472611159589
21
97.748265408272
31
0.0
0
LINE
5
898
100
AcDbEntity
8
3-0
6
CENTER
62
4
100
AcDbLine
10
172.514277826256
20
97.748265408272
30
0.0
11
172.514277826256
21
96.706598741605
31
0.0
0
LINE
5
899
100
AcDbEntity
8
3-0
6
CENTER
62
4
100
AcDbLine
10
172.514277826256
20
97.748265408272
30
0.0
11
173.555944492923
21
97.748265408272
31
0.0
0
LINE
5
89a
100
AcDbEntity
8
3-E
6
CONTINUOUS
62
4
100
AcDbLine
10
122.284312548478
20
148.289932074938
30
0.0
11
130.617645881811
21
148.289932074938
31
0.0
0
LINE
5
89b
100
AcDbEntity
8
3-E
6
CONTINUOUS
62
4
100
AcDbLine
10
122.284312548478
20
147.206598741605
30
0.0
11
130.617645881811
21
147.206598741605
31
0.0
0
LINE
5
89c
100
AcDbEntity
8
3-E
6
PHANTOM2
62
4
100
AcDbLine
10
130.617645881811
20
149.272848741605
30
0.0
11
130.617645881811
21
146.374723741605
31
0.0
0
LINE
5
89d
100
AcDbEntity
8
3-E
6
CENTER2
62
4
100
AcDbLine
10
121.056187548478
20
147.748265408272
30
0.0
11
131.797229215145
21
147.748265408272
31
0.0
0
LINE
5
89e
100
AcDbEntity
8
3-E
6
CONTINUOUS
62
4
100
AcDbLine
10
122.284312548478
20
147.206598741605
30
0.0
11
122.284312548478
21
148.289932074938
31
0.0
0
LINE
5
89f
100
AcDbEntity
8
3-E
6
CENTER2
62
4
100
AcDbLine
10
121.056187548478
20
97.748265408272
30
0.0
11
131.797229215145
21
97.748265408272
31
0.0
0
LINE
5
8a0
100
AcDbEntity
8
3-E
6
CONTINUOUS
62
4
100
AcDbLine
10
122.284312548478
20
98.289932074938
30
0.0
11
130.617645881811
21
98.289932074938
31
0.0
0
LINE
5
8a1
100
AcDbEntity
8
3-E
6
CONTINUOUS
62
4
100
AcDbLine
10
122.284312548478
20
97.206598741605
30
0.0
11
130.617645881811
21
97.206598741605
31
0.0
0
LINE
5
8a2
100
AcDbEntity
8
3-E
6
PHANTOM2
62
4
100
AcDbLine
10
130.617645881811
20
99.272848741605
30
0.0
11
130.617645881811
21
96.374723741605
31
0.0
0
LINE
5
8a3
100
AcDbEntity
8
3-E
6
CONTINUOUS
62
4
100
AcDbLine
10
122.284312548478
20
97.206598741605
30
0.0
11
122.284312548478
21
98.289932074938
31
0.0
0
CIRCLE
5
8a4
100
AcDbEntity
8
3-0
6
CONTINUOUS
62
4
100
AcDbCircle
10
185.535111159589
20
147.748265408272
30
0.0
40
0.564236111111
0
LINE
5
8a5
100
AcDbEntity
8
3-0
6
CENTER
62
4
100
AcDbLine
10
185.535111159589
20
147.748265408272
30
0.0
11
185.535111159589
21
148.789932074938
31
0.0
0
LINE
5
8a6
100
AcDbEntity
8
3-0
6
CENTER
62
4
100
AcDbLine
10
185.535111159589
20
147.748265408272
30
0.0
11
184.493444492923
21
147.748265408272
31
0.0
0
LINE
5
8a7
100
AcDbEntity
8
3-0
6
CENTER
62
4
100
AcDbLine
10
185.535111159589
20
147.748265408272
30
0.0
11
185.535111159589
21
146.706598741605
31
0.0
0
LINE
5
8a8
100
AcDbEntity
8
3-0
6
CENTER
62
4
100
AcDbLine
10
185.535111159589
20
147.748265408272
30
0.0
11
186.576777826256
21
147.748265408272
31
0.0
0
CIRCLE
5
8a9
100
AcDbEntity
8
3-0
6
CONTINUOUS
62
4
100
AcDbCircle
10
172.514277826256
20
147.748265408272
30
0.0
40
0.564236111111
0
LINE
5
8aa
100
AcDbEntity
8
3-0
6
CENTER
62
4
100
AcDbLine
10
172.514277826256
20
147.748265408272
30
0.0
11
172.514277826256
21
148.789932074938
31
0.0
0
LINE
5
8ab
100
AcDbEntity
8
3-0
6
CENTER
62
4
100
AcDbLine
10
172.514277826256
20
147.748265408272
30
0.0
11
171.472611159589
21
147.748265408272
31
0.0
0
LINE
5
8ac
100
AcDbEntity
8
3-0
6
CENTER
62
4
100
AcDbLine
10
172.514277826256
20
147.748265408272
30
0.0
11
172.514277826256
21
146.706598741605
31
0.0
0
LINE
5
8ad
100
AcDbEntity
8
3-0
6
CENTER
62
4
100
AcDbLine
10
172.514277826256
20
147.748265408272
30
0.0
11
173.555944492923
21
147.748265408272
31
0.0
0
CIRCLE
5
8ae
100
AcDbEntity
8
3-0
6
CONTINUOUS
62
4
100
AcDbCircle
10
185.535111159589
20
97.748265408272
30
0.0
40
0.564236111111
0
LINE
5
8af
100
AcDbEntity
8
3-0
6
CENTER
62
4
100
AcDbLine
10
185.535111159589
20
97.748265408272
30
0.0
11
185.535111159589
21
98.789932074938
31
0.0
0
LINE
5
8b0
100
AcDbEntity
8
3-0
6
CENTER
62
4
100
AcDbLine
10
185.535111159589
20
97.748265408272
30
0.0
11
184.493444492923
21
97.748265408272
31
0.0
0
LINE
5
8b1
100
AcDbEntity
8
3-0
6
CENTER
62
4
100
AcDbLine
10
185.535111159589
20
97.748265408272
30
0.0
11
185.535111159589
21
96.706598741605
31
0.0
0
LINE
5
8b2
100
AcDbEntity
8
3-0
6
CENTER
62
4
100
AcDbLine
10
185.535111159589
20
97.748265408272
30
0.0
11
186.576777826256
21
97.748265408272
31
0.0
0
MTEXT
5
8b3
100
AcDbEntity
8
3-E
62
7
370
-3
100
AcDbMText
10
200.629
20
113.596
30
0.0
40
2.054
41
0.000
71
7
72
1
1
\W0.972;挿筋{\W0.700; 300}～{\W0.700;500P}
7
STANDARD
11
0.00000
21
1.00000
31
0.0
0
TEXT
5
8b4
100
AcDbEntity
8
3-E
62
7
370
-3
100
AcDbText
10
208.761
20
118.999
30
0.0
40
2.175
1
Ｅ
41
0.856
50
90.000
100
AcDbText
0
TEXT
5
8b5
100
AcDbEntity
8
3-E
62
7
370
-3
100
AcDbText
10
200.387
20
91.850
30
0.0
40
2.175
1
100
41
0.689
50
90.000
100
AcDbText
0
LINE
5
8b6
100
AcDbEntity
8
3-A
6
CENTER2
62
6
100
AcDbLine
10
201.049694492923
20
225.581702908272
30
0.0
11
179.024798659589
21
225.581702908272
31
0.0
0
ARC
5
8b7
100
AcDbEntity
8
3-A
6
CONTINUOUS
62
6
100
AcDbCircle
10
198.608131992923
20
225.581702908272
30
0.0
40
1.250000000000
100
AcDbArc
50
270.000000000000
51
450.000000000000
0
LINE
5
8b8
100
AcDbEntity
8
3-A
6
CENTER2
62
6
100
AcDbLine
10
198.608131992923
20
227.257327908272
30
0.0
11
198.608131992923
21
223.791598741605
31
0.0
0
LINE
5
8b9
100
AcDbEntity
8
3-A
6
CONTINUOUS
62
6
100
AcDbLine
10
198.608131992923
20
226.831702908272
30
0.0
11
179.024798659589
21
226.831702908272
31
0.0
0
LINE
5
8ba
100
AcDbEntity
8
3-A
6
CONTINUOUS
62
6
100
AcDbLine
10
198.608131992923
20
224.331702908272
30
0.0
11
179.024798659589
21
224.331702908272
31
0.0
0
LINE
5
8bb
100
AcDbEntity
8
3-A
6
CONTINUOUS
62
6
100
AcDbLine
10
183.134173659589
20
222.810140408272
30
0.0
11
192.794798659589
21
224.331702908272
31
0.0
0
LINE
5
8bc
100
AcDbEntity
8
3-A
6
CONTINUOUS
62
6
100
AcDbLine
10
182.883861159589
20
221.927119574938
30
0.0
11
198.151256992923
21
224.331702908272
31
0.0
0
LINE
5
8bd
100
AcDbEntity
8
9-E
6
CONTINUOUS
62
4
100
AcDbLine
10
246.894575170844
20
202.033406250000
30
0.0
11
262.763731420844
21
202.033406250000
31
0.0
0
POLYLINE
5
8be
100
AcDbEntity
8
9-0
6
CONTINUOUS
62
  4
100
AcDb2dPolyline
66
1
10
0.0
20
0.0
30
0.0
70
0
0
VERTEX
5
8bf
100
AcDbEntity
8
9-0
6
CONTINUOUS
62
  4
100
AcDbVertex
100
AcDb2dVertex
10
246.894575170844
20
202.033406250000
30
0.0
0
VERTEX
5
8c0
100
AcDbEntity
8
9-0
6
CONTINUOUS
62
  4
100
AcDbVertex
100
AcDb2dVertex
10
240.778887670843
20
216.400687500000
30
0.0
0
VERTEX
5
8c1
100
AcDbEntity
8
9-0
6
CONTINUOUS
62
  4
100
AcDbVertex
100
AcDb2dVertex
10
241.703637670843
20
215.219625000000
30
0.0
0
SEQEND
5
8c2
100
AcDbEntity
8
9-0
0
LINE
5
8c3
100
AcDbEntity
8
9-0
6
CONTINUOUS
62
4
100
AcDbLine
10
240.778887670843
20
216.400687500000
30
0.0
11
240.989168920843
21
214.915500000000
31
0.0
0
LINE
5
8c4
100
AcDbEntity
8
9-0
6
CONTINUOUS
62
7
100
AcDbLine
10
233.153918920843
20
218.775656250000
30
0.0
11
233.153918920843
21
224.525718750000
31
0.0
0
LINE
5
8c5
100
AcDbEntity
8
9-1
6
CONTINUOUS
62
3
100
AcDbLine
10
243.278918920843
20
223.025718750000
30
0.0
11
243.278918920843
21
224.275687500000
31
0.0
0
POLYLINE
5
8c6
100
AcDbEntity
8
9-1
6
CONTINUOUS
62
  3
100
AcDb2dPolyline
66
1
10
0.0
20
0.0
30
0.0
70
0
0
VERTEX
5
8c7
100
AcDbEntity
8
9-1
6
CONTINUOUS
62
  3
100
AcDbVertex
100
AcDb2dVertex
10
238.278950170843
20
224.588156250000
30
0.0
0
VERTEX
5
8c8
100
AcDbEntity
8
9-1
6
CONTINUOUS
62
  3
100
AcDbVertex
100
AcDb2dVertex
10
238.278950170843
20
224.275687500000
30
0.0
0
VERTEX
5
8c9
100
AcDbEntity
8
9-1
6
CONTINUOUS
62
  3
100
AcDbVertex
100
AcDb2dVertex
10
243.278918920843
20
224.275687500000
30
0.0
0
SEQEND
5
8ca
100
AcDbEntity
8
9-1
0
LINE
5
8cb
100
AcDbEntity
8
9-1
6
CONTINUOUS
62
3
100
AcDbLine
10
238.403825170843
20
225.025687500000
30
0.0
11
243.153950170843
21
225.025687500000
31
0.0
0
LINE
5
8cc
100
AcDbEntity
8
9-1
6
CONTINUOUS
62
3
100
AcDbLine
10
238.403825170843
20
224.275687500000
30
0.0
11
238.403825170843
21
225.025687500000
31
0.0
0
LINE
5
8cd
100
AcDbEntity
8
9-1
6
CONTINUOUS
62
3
100
AcDbLine
10
243.153950170843
20
224.275687500000
30
0.0
11
243.153950170843
21
225.025687500000
31
0.0
0
LINE
5
8ce
100
AcDbEntity
8
9-0
6
CONTINUOUS
62
7
100
AcDbLine
10
234.403887670843
20
217.525687500000
30
0.0
11
240.778887670843
21
217.525687500000
31
0.0
0
LINE
5
8cf
100
AcDbEntity
8
9-0
6
CONTINUOUS
62
7
100
AcDbLine
10
234.403887670843
20
225.775687500000
30
0.0
11
240.778887670843
21
225.775687500000
31
0.0
0
LINE
5
8d0
100
AcDbEntity
8
9-1
6
DOT
62
3
100
AcDbLine
10
241.278856420843
20
224.525718750000
30
0.0
11
241.778918920843
21
225.025687500000
31
0.0
0
LINE
5
8d1
100
AcDbEntity
8
9-1
6
DOT
62
3
100
AcDbLine
10
240.778887670843
20
224.525718750000
30
0.0
11
241.278856420843
21
224.525718750000
31
0.0
0
LINE
5
8d2
100
AcDbEntity
8
9-1
6
DOT
62
3
100
AcDbLine
10
241.278856420843
20
221.525625000000
30
0.0
11
241.278856420843
21
224.525718750000
31
0.0
0
LINE
5
8d3
100
AcDbEntity
8
9-1
6
CONTINUOUS
62
3
100
AcDbLine
10
241.903887670843
20
221.325656250000
30
0.0
11
241.903887670843
21
221.525625000000
31
0.0
0
LINE
5
8d4
100
AcDbEntity
8
9-1
6
CONTINUOUS
62
3
100
AcDbLine
10
240.778887670843
20
220.025718750000
30
0.0
11
241.278856420843
21
220.025718750000
31
0.0
0
LINE
5
8d5
100
AcDbEntity
8
9-1
6
CONTINUOUS
62
3
100
AcDbLine
10
241.153887670843
20
220.513218750000
30
0.0
11
241.153887670843
21
220.025718750000
31
0.0
0
LINE
5
8d6
100
AcDbEntity
8
9-1
6
CONTINUOUS
62
3
100
AcDbLine
10
240.778887670843
20
221.325656250000
30
0.0
11
241.903887670843
21
221.325656250000
31
0.0
0
LINE
5
8d7
100
AcDbEntity
8
9-1
6
DOT
62
3
100
AcDbLine
10
240.278918920843
20
224.525718750000
30
0.0
11
239.778950170843
21
225.025687500000
31
0.0
0
LINE
5
8d8
100
AcDbEntity
8
9-1
6
DOT
62
3
100
AcDbLine
10
240.778887670843
20
224.525718750000
30
0.0
11
240.278918920843
21
224.525718750000
31
0.0
0
LINE
5
8d9
100
AcDbEntity
8
9-1
6
DOT
62
3
100
AcDbLine
10
240.278918920843
20
221.525625000000
30
0.0
11
240.278918920843
21
224.525718750000
31
0.0
0
LINE
5
8da
100
AcDbEntity
8
9-1
6
CONTINUOUS
62
3
100
AcDbLine
10
239.653887670843
20
221.325656250000
30
0.0
11
239.653887670843
21
221.525625000000
31
0.0
0
LINE
5
8db
100
AcDbEntity
8
9-1
6
CONTINUOUS
62
3
100
AcDbLine
10
240.778887670843
20
220.025718750000
30
0.0
11
240.278918920843
21
220.025718750000
31
0.0
0
LINE
5
8dc
100
AcDbEntity
8
9-1
6
CONTINUOUS
62
3
100
AcDbLine
10
240.403887670843
20
220.513218750000
30
0.0
11
240.403887670843
21
220.025718750000
31
0.0
0
LINE
5
8dd
100
AcDbEntity
8
9-1
6
CONTINUOUS
62
3
100
AcDbLine
10
240.778887670843
20
221.325656250000
30
0.0
11
239.653887670843
21
221.325656250000
31
0.0
0
POLYLINE
5
8de
100
AcDbEntity
8
9-1
6
CONTINUOUS
62
  3
100
AcDb2dPolyline
66
1
10
0.0
20
0.0
30
0.0
70
0
0
VERTEX
5
8df
100
AcDbEntity
8
9-1
6
CONTINUOUS
62
  3
100
AcDbVertex
100
AcDb2dVertex
10
233.903918920843
20
221.525625000000
30
0.0
0
VERTEX
5
8e0
100
AcDbEntity
8
9-1
6
CONTINUOUS
62
  3
100
AcDbVertex
100
AcDb2dVertex
10
233.903918920843
20
223.025718750000
30
0.0
0
VERTEX
5
8e1
100
AcDbEntity
8
9-1
6
CONTINUOUS
62
  3
100
AcDbVertex
100
AcDb2dVertex
10
252.028887670843
20
223.025718750000
30
0.0
0
SEQEND
5
8e2
100
AcDbEntity
8
9-1
0
LINE
5
8e3
100
AcDbEntity
8
9-1
6
CONTINUOUS
62
3
100
AcDbLine
10
233.903918920843
20
221.525625000000
30
0.0
11
252.028887670843
21
221.525625000000
31
0.0
0
LINE
5
8e4
100
AcDbEntity
8
9-2
6
CONTINUOUS
62
7
100
AcDbLine
10
237.778887670843
20
221.525625000000
30
0.0
11
237.778887670843
21
219.025687500000
31
0.0
0
LINE
5
8e5
100
AcDbEntity
8
9-2
6
CONTINUOUS
62
7
100
AcDbLine
10
236.278887670843
20
221.525625000000
30
0.0
11
236.278887670843
21
219.025687500000
31
0.0
0
LINE
5
8e6
100
AcDbEntity
8
9-2
6
CONTINUOUS
62
7
100
AcDbLine
10
234.528856420843
20
219.025687500000
30
0.0
11
239.528918920843
21
219.025687500000
31
0.0
0
LINE
5
8e7
100
AcDbEntity
8
9-2
6
CONTINUOUS
62
7
100
AcDbLine
10
234.528856420843
20
219.025687500000
30
0.0
11
234.528856420843
21
217.525687500000
31
0.0
0
LINE
5
8e8
100
AcDbEntity
8
9-2
6
CONTINUOUS
62
7
100
AcDbLine
10
239.528918920843
20
219.025687500000
30
0.0
11
239.528918920843
21
217.525687500000
31
0.0
0
LINE
5
8e9
100
AcDbEntity
8
9-2
6
CONTINUOUS
62
7
100
AcDbLine
10
234.528856420843
20
218.400656250000
30
0.0
11
239.528918920843
21
218.400656250000
31
0.0
0
LINE
5
8ea
100
AcDbEntity
8
9-2
6
CONTINUOUS
62
7
100
AcDbLine
10
234.528856420843
20
218.775656250000
30
0.0
11
239.528918920843
21
218.775656250000
31
0.0
0
LINE
5
8eb
100
AcDbEntity
8
9-2
6
CONTINUOUS
62
7
100
AcDbLine
10
236.278887670843
20
219.650718750000
30
0.0
11
237.778887670843
21
219.650718750000
31
0.0
0
LINE
5
8ec
100
AcDbEntity
8
9-2
6
CENTER2
62
7
100
AcDbLine
10
237.028887670843
20
222.133218750000
30
0.0
11
237.028887670843
21
216.859500000000
31
0.0
0
LINE
5
8ed
100
AcDbEntity
8
9-5
6
CONTINUOUS
62
4
100
AcDbLine
10
252.580793920843
20
223.025718750000
30
0.0
11
260.521043920843
21
223.025718750000
31
0.0
0
LINE
5
8ee
100
AcDbEntity
8
9-5
6
CONTINUOUS
62
4
100
AcDbLine
10
252.580793920843
20
221.525625000000
30
0.0
11
260.521043920843
21
221.525625000000
31
0.0
0
LINE
5
8ef
100
AcDbEntity
8
9-1
6
CENTER2
62
3
100
AcDbLine
10
240.778887670843
20
219.783750000000
30
0.0
11
240.778887670843
21
225.490500000000
31
0.0
0
LINE
5
8f0
100
AcDbEntity
8
9-0
6
CONTINUOUS
62
7
100
AcDbLine
10
234.403887670843
20
216.400687500000
30
0.0
11
240.778887670843
21
216.400687500000
31
0.0
0
LINE
5
8f1
100
AcDbEntity
8
9-6
6
PHANTOM2
62
4
100
AcDbLine
10
252.028887670843
20
226.984593750000
30
0.0
11
252.028887670843
21
216.685875000000
31
0.0
0
LINE
5
8f2
100
AcDbEntity
8
9-0
6
CONTINUOUS
62
2
100
AcDbLine
10
243.049700170843
20
223.025718750000
30
0.0
11
243.278918920843
21
223.254843750000
31
0.0
0
LINE
5
8f3
100
AcDbEntity
8
9-0
6
CONTINUOUS
62
2
100
AcDbLine
10
242.961293920843
20
223.025718750000
30
0.0
11
243.278918920843
21
223.343250000000
31
0.0
0
LINE
5
8f4
100
AcDbEntity
8
9-0
6
CONTINUOUS
62
2
100
AcDbLine
10
242.165825170843
20
223.025718750000
30
0.0
11
243.278918920843
21
224.138812500000
31
0.0
0
LINE
5
8f5
100
AcDbEntity
8
9-0
6
CONTINUOUS
62
2
100
AcDbLine
10
242.077418920843
20
223.025718750000
30
0.0
11
243.278918920843
21
224.227125000000
31
0.0
0
LINE
5
8f6
100
AcDbEntity
8
9-0
6
CONTINUOUS
62
2
100
AcDbLine
10
241.281950170843
20
223.025718750000
30
0.0
11
242.532012670843
21
224.275687500000
31
0.0
0
LINE
5
8f7
100
AcDbEntity
8
9-0
6
CONTINUOUS
62
2
100
AcDbLine
10
241.193543920843
20
223.025718750000
30
0.0
11
242.443606420843
21
224.275687500000
31
0.0
0
LINE
5
8f8
100
AcDbEntity
8
9-0
6
CONTINUOUS
62
2
100
AcDbLine
10
240.398075170843
20
223.025718750000
30
0.0
11
241.648043920843
21
224.275687500000
31
0.0
0
LINE
5
8f9
100
AcDbEntity
8
9-0
6
CONTINUOUS
62
2
100
AcDbLine
10
240.309668920843
20
223.025718750000
30
0.0
11
241.559637670843
21
224.275687500000
31
0.0
0
LINE
5
8fa
100
AcDbEntity
8
9-0
6
CONTINUOUS
62
2
100
AcDbLine
10
239.514200170843
20
223.025718750000
30
0.0
11
240.764168920843
21
224.275687500000
31
0.0
0
LINE
5
8fb
100
AcDbEntity
8
9-0
6
CONTINUOUS
62
2
100
AcDbLine
10
239.425793920843
20
223.025718750000
30
0.0
11
240.675762670843
21
224.275687500000
31
0.0
0
LINE
5
8fc
100
AcDbEntity
8
9-0
6
CONTINUOUS
62
2
100
AcDbLine
10
238.630325170843
20
223.025718750000
30
0.0
11
239.880293920843
21
224.275687500000
31
0.0
0
LINE
5
8fd
100
AcDbEntity
8
9-0
6
CONTINUOUS
62
2
100
AcDbLine
10
238.541918920843
20
223.025718750000
30
0.0
11
239.791887670843
21
224.275687500000
31
0.0
0
LINE
5
8fe
100
AcDbEntity
8
9-0
6
CONTINUOUS
62
2
100
AcDbLine
10
237.746450170843
20
223.025718750000
30
0.0
11
238.996418920844
21
224.275687500000
31
0.0
0
LINE
5
8ff
100
AcDbEntity
8
9-0
6
CONTINUOUS
62
2
100
AcDbLine
10
237.658043920843
20
223.025718750000
30
0.0
11
238.908012670843
21
224.275687500000
31
0.0
0
LINE
5
900
100
AcDbEntity
8
9-0
6
CONTINUOUS
62
2
100
AcDbLine
10
236.862575170843
20
223.025718750000
30
0.0
11
238.278950170843
21
224.442093750000
31
0.0
0
LINE
5
901
100
AcDbEntity
8
9-0
6
CONTINUOUS
62
2
100
AcDbLine
10
236.774075170843
20
223.025718750000
30
0.0
11
238.278950170843
21
224.530500000000
31
0.0
0
LINE
5
902
100
AcDbEntity
8
9-0
6
CONTINUOUS
62
2
100
AcDbLine
10
235.245762670843
20
224.060531250000
30
0.0
11
237.244043920843
21
226.058906250000
31
0.0
0
LINE
5
903
100
AcDbEntity
8
9-0
6
CONTINUOUS
62
2
100
AcDbLine
10
235.223543920844
20
224.126812500000
30
0.0
11
237.177856420843
21
226.081031250000
31
0.0
0
LINE
5
904
100
AcDbEntity
8
9-0
6
CONTINUOUS
62
2
100
AcDbLine
10
235.181450170843
20
224.880093750000
30
0.0
11
236.424481420843
21
226.123125000000
31
0.0
0
LINE
5
905
100
AcDbEntity
8
9-0
6
CONTINUOUS
62
2
100
AcDbLine
10
235.207793920843
20
224.994843750000
30
0.0
11
236.309731420843
21
226.096781250000
31
0.0
0
LINE
5
906
100
AcDbEntity
8
9-0
6
CONTINUOUS
62
2
100
AcDbLine
10
235.540231420843
20
223.559531250000
30
0.0
11
236.206887670843
21
224.226187500000
31
0.0
0
LINE
5
907
100
AcDbEntity
8
9-0
6
CONTINUOUS
62
2
100
AcDbLine
10
237.078387670843
20
225.097687500000
30
0.0
11
237.745043920843
21
225.764343750000
31
0.0
0
LINE
5
908
100
AcDbEntity
8
9-0
6
CONTINUOUS
62
2
100
AcDbLine
10
235.582418920843
20
223.513312500000
30
0.0
11
236.245887670843
21
224.176781250000
31
0.0
0
LINE
5
909
100
AcDbEntity
8
9-0
6
CONTINUOUS
62
2
100
AcDbLine
10
237.127793920843
20
225.058687500000
30
0.0
11
237.791262670843
21
225.722250000000
31
0.0
0
LINE
5
90a
100
AcDbEntity
8
9-0
6
CONTINUOUS
62
2
100
AcDbLine
10
236.042825170843
20
223.178343750000
30
0.0
11
236.840075170843
21
223.975500000000
31
0.0
0
LINE
5
90b
100
AcDbEntity
8
9-0
6
CONTINUOUS
62
2
100
AcDbLine
10
237.329075170843
20
224.464500000000
30
0.0
11
238.126325170843
21
225.261750000000
31
0.0
0
LINE
5
90c
100
AcDbEntity
8
9-0
6
CONTINUOUS
62
2
100
AcDbLine
10
236.103762670843
20
223.150781250000
30
0.0
11
236.969731420843
21
224.016843750000
31
0.0
0
LINE
5
90d
100
AcDbEntity
8
9-0
6
CONTINUOUS
62
2
100
AcDbLine
10
237.287825170843
20
224.334937500000
30
0.0
11
238.153793920843
21
225.200906250000
31
0.0
0
LINE
5
90e
100
AcDbEntity
8
9-5
6
CONTINUOUS
62
4
100
AcDbLine
10
259.896012670844
20
225.913593750000
30
0.0
11
259.896012670844
21
223.025718750000
31
0.0
0
LINE
5
90f
100
AcDbEntity
8
9-0
6
CONTINUOUS
62
4
100
AcDbLine
10
259.896012670844
20
223.025718750000
30
0.0
11
259.507700170843
21
224.474531250000
31
0.0
0
LINE
5
910
100
AcDbEntity
8
9-0
6
CONTINUOUS
62
4
100
AcDbLine
10
259.896012670844
20
223.025718750000
30
0.0
11
260.284231420843
21
224.474531250000
31
0.0
0
LINE
5
911
100
AcDbEntity
8
9-0
6
CONTINUOUS
62
4
100
AcDbLine
10
259.896012670844
20
221.525625000000
30
0.0
11
260.284231420843
21
220.076812500000
31
0.0
0
LINE
5
912
100
AcDbEntity
8
9-0
6
CONTINUOUS
62
4
100
AcDbLine
10
259.896012670844
20
221.525625000000
30
0.0
11
259.507700170843
21
220.076812500000
31
0.0
0
LINE
5
913
100
AcDbEntity
8
9-0
6
CONTINUOUS
62
4
100
AcDbLine
10
246.967887670843
20
197.631375000000
30
0.0
11
238.328168920844
21
217.928343750000
31
0.0
0
LINE
5
914
100
AcDbEntity
8
9-0
6
CONTINUOUS
62
7
100
AcDbLine
10
241.591418920843
20
220.513218750000
30
0.0
11
241.717137670843
21
220.585781250000
31
0.0
0
LINE
5
915
100
AcDbEntity
8
9-0
6
CONTINUOUS
62
7
100
AcDbLine
10
239.966450170843
20
220.513218750000
30
0.0
11
239.840731420844
21
220.585781250000
31
0.0
0
LINE
5
916
100
AcDbEntity
8
9-0
6
CONTINUOUS
62
7
100
AcDbLine
10
241.591418920843
20
220.513218750000
30
0.0
11
239.966450170843
21
220.513218750000
31
0.0
0
LINE
5
917
100
AcDbEntity
8
9-0
6
CONTINUOUS
62
7
100
AcDbLine
10
239.840731420844
20
221.325656250000
30
0.0
11
239.840731420844
21
220.585781250000
31
0.0
0
LINE
5
918
100
AcDbEntity
8
9-0
6
CONTINUOUS
62
7
100
AcDbLine
10
241.717137670843
20
221.325656250000
30
0.0
11
241.717137670843
21
220.585781250000
31
0.0
0
LINE
5
919
100
AcDbEntity
8
9-1
6
CONTINUOUS
62
3
100
AcDbLine
10
240.278918920843
20
220.513218750000
30
0.0
11
240.278918920843
21
220.025718750000
31
0.0
0
LINE
5
91a
100
AcDbEntity
8
9-1
6
CONTINUOUS
62
3
100
AcDbLine
10
241.278856420843
20
220.513218750000
30
0.0
11
241.278856420843
21
220.025718750000
31
0.0
0
LINE
5
91b
100
AcDbEntity
8
9-0
6
CONTINUOUS
62
7
100
AcDbLine
10
240.309856420843
20
221.325656250000
30
0.0
11
240.309856420843
21
220.585781250000
31
0.0
0
LINE
5
91c
100
AcDbEntity
8
9-0
6
CONTINUOUS
62
7
100
AcDbLine
10
241.248012670843
20
221.325656250000
30
0.0
11
241.248012670843
21
220.585781250000
31
0.0
0
LINE
5
91d
100
AcDbEntity
8
9-5
6
CONTINUOUS
62
4
100
AcDbLine
10
259.896012670844
20
223.025718750000
30
0.0
11
259.896012670844
21
213.565312500000
31
0.0
0
LINE
5
91e
100
AcDbEntity
8
9-B
6
CONTINUOUS
62
7
100
AcDbLine
10
272.051356420843
20
216.916875000000
30
0.0
11
271.051325170843
21
216.916875000000
31
0.0
0
LINE
5
91f
100
AcDbEntity
8
9-B
6
CONTINUOUS
62
7
100
AcDbLine
10
274.051325170843
20
216.916875000000
30
0.0
11
275.051356420843
21
216.916875000000
31
0.0
0
LINE
5
920
100
AcDbEntity
8
9-B
6
CONTINUOUS
62
7
100
AcDbLine
10
271.051325170843
20
216.916875000000
30
0.0
11
273.051387670844
21
220.381031250000
31
0.0
0
LINE
5
921
100
AcDbEntity
8
9-B
6
CONTINUOUS
62
7
100
AcDbLine
10
275.051356420843
20
216.916875000000
30
0.0
11
273.051387670844
21
220.381031250000
31
0.0
0
LINE
5
922
100
AcDbEntity
8
9-B
6
CONTINUOUS
62
7
100
AcDbLine
10
272.051356420843
20
205.916906250000
30
0.0
11
272.051356420843
21
216.916875000000
31
0.0
0
LINE
5
923
100
AcDbEntity
8
9-B
6
CONTINUOUS
62
7
100
AcDbLine
10
274.051325170843
20
205.916906250000
30
0.0
11
274.051325170843
21
216.916875000000
31
0.0
0
LINE
5
924
100
AcDbEntity
8
9-B
6
CONTINUOUS
62
7
100
AcDbLine
10
272.051356420843
20
205.916906250000
30
0.0
11
274.051325170843
21
205.916906250000
31
0.0
0
LINE
5
925
100
AcDbEntity
8
9-B
6
CONTINUOUS
62
4
100
AcDbLine
10
246.967887670843
20
197.631375000000
30
0.0
11
257.748481420844
21
197.631375000000
31
0.0
0
LINE
5
926
100
AcDbEntity
8
9-0
6
CONTINUOUS
62
7
100
AcDbLine
10
240.778887670843
20
241.095187500000
30
0.0
11
240.778887670843
21
225.775687500000
31
0.0
0
LINE
5
927
100
AcDbEntity
8
9-0
6
CONTINUOUS
62
7
100
AcDbLine
10
234.403887670843
20
226.900687500000
30
0.0
11
240.778887670843
21
226.900687500000
31
0.0
0
LINE
5
928
100
AcDbEntity
8
9-0
6
CONTINUOUS
62
4
100
AcDbLine
10
225.153950170843
20
222.579375000000
30
0.0
11
240.778887670843
21
206.954343750000
31
0.0
0
LINE
5
929
100
AcDbEntity
8
9-0
6
CONTINUOUS
62
4
100
AcDbLine
10
225.153950170843
20
227.882625000000
30
0.0
11
232.028918920843
21
221.007562500000
31
0.0
0
LINE
5
92a
100
AcDbEntity
8
9-0
6
CONTINUOUS
62
4
100
AcDbLine
10
236.635887670843
20
216.400687500000
30
0.0
11
240.778887670843
21
212.257593750000
31
0.0
0
LINE
5
92b
100
AcDbEntity
8
9-0
6
CONTINUOUS
62
4
100
AcDbLine
10
225.153950170843
20
233.185968750000
30
0.0
11
232.455762670843
21
225.884062500000
31
0.0
0
LINE
5
92c
100
AcDbEntity
8
9-0
6
CONTINUOUS
62
4
100
AcDbLine
10
219.153856420843
20
216.400687500000
30
0.0
11
219.153856420843
21
226.900687500000
31
0.0
0
LINE
5
92d
100
AcDbEntity
8
9-0
6
CONTINUOUS
62
4
100
AcDbLine
10
219.153856420843
20
216.400687500000
30
0.0
11
218.765637670843
21
217.849593750000
31
0.0
0
LINE
5
92e
100
AcDbEntity
8
9-0
6
CONTINUOUS
62
4
100
AcDbLine
10
219.153856420843
20
216.400687500000
30
0.0
11
219.542168920843
21
217.849593750000
31
0.0
0
LINE
5
92f
100
AcDbEntity
8
9-0
6
CONTINUOUS
62
4
100
AcDbLine
10
219.153856420843
20
226.900687500000
30
0.0
11
218.765637670843
21
225.451781250000
31
0.0
0
LINE
5
930
100
AcDbEntity
8
9-0
6
CONTINUOUS
62
4
100
AcDbLine
10
219.153856420843
20
226.900687500000
30
0.0
11
219.542168920843
21
225.451781250000
31
0.0
0
LINE
5
931
100
AcDbEntity
8
9-0
6
CONTINUOUS
62
4
100
AcDbLine
10
219.153856420843
20
226.900687500000
30
0.0
11
218.765637670843
21
228.349593750000
31
0.0
0
LINE
5
932
100
AcDbEntity
8
9-0
6
CONTINUOUS
62
4
100
AcDbLine
10
219.153856420843
20
226.900687500000
30
0.0
11
219.542168920843
21
228.349593750000
31
0.0
0
LINE
5
933
100
AcDbEntity
8
9-0
6
CONTINUOUS
62
4
100
AcDbLine
10
231.129387670843
20
226.900687500000
30
0.0
11
218.403856420843
21
226.900687500000
31
0.0
0
LINE
5
934
100
AcDbEntity
8
9-0
6
CONTINUOUS
62
4
100
AcDbLine
10
231.129387670843
20
216.400687500000
30
0.0
11
218.403856420843
21
216.400687500000
31
0.0
0
LINE
5
935
100
AcDbEntity
8
9-E
6
CONTINUOUS
62
4
100
AcDbLine
10
245.266512670843
20
242.230312500000
30
0.0
11
245.266512670843
21
230.230312500000
31
0.0
0
LINE
5
936
100
AcDbEntity
8
9-E
6
CONTINUOUS
62
4
100
AcDbLine
10
245.266512670843
20
242.230312500000
30
0.0
11
278.991481420843
21
242.230312500000
31
0.0
0
LINE
5
937
100
AcDbEntity
8
9-E
6
CONTINUOUS
62
4
100
AcDbLine
10
245.266512670843
20
236.230312500000
30
0.0
11
278.991481420843
21
236.230312500000
31
0.0
0
LINE
5
938
100
AcDbEntity
8
9-E
6
CONTINUOUS
62
4
100
AcDbLine
10
245.266512670843
20
230.230312500000
30
0.0
11
278.991481420843
21
230.230312500000
31
0.0
0
LINE
5
939
100
AcDbEntity
8
9-0
6
CONTINUOUS
62
4
100
AcDbLine
10
245.266512670843
20
230.230312500000
30
0.0
11
242.459075170843
21
223.667343750000
31
0.0
0
LINE
5
93a
100
AcDbEntity
8
9-0
6
CONTINUOUS
62
4
100
AcDbLine
10
232.028918920843
20
245.065500000000
30
0.0
11
240.778887670843
21
245.065500000000
31
0.0
0
LINE
5
93b
100
AcDbEntity
8
9-0
6
CONTINUOUS
62
4
100
AcDbLine
10
232.028918920843
20
245.065500000000
30
0.0
11
233.477825170843
21
245.453718750000
31
0.0
0
LINE
5
93c
100
AcDbEntity
8
9-0
6
CONTINUOUS
62
4
100
AcDbLine
10
232.028918920843
20
245.065500000000
30
0.0
11
233.477825170843
21
244.677281250000
31
0.0
0
LINE
5
93d
100
AcDbEntity
8
9-0
6
CONTINUOUS
62
4
100
AcDbLine
10
240.778887670843
20
245.065500000000
30
0.0
11
239.329981420843
21
245.453718750000
31
0.0
0
LINE
5
93e
100
AcDbEntity
8
9-0
6
CONTINUOUS
62
4
100
AcDbLine
10
240.778887670843
20
245.065500000000
30
0.0
11
239.329981420843
21
244.677281250000
31
0.0
0
LINE
5
93f
100
AcDbEntity
8
9-0
6
CONTINUOUS
62
4
100
AcDbLine
10
232.028918920843
20
227.675156250000
30
0.0
11
232.028918920843
21
245.815500000000
31
0.0
0
LINE
5
940
100
AcDbEntity
8
9-0
6
CONTINUOUS
62
4
100
AcDbLine
10
240.778887670843
20
251.065500000000
30
0.0
11
242.227793920843
21
251.453812500000
31
0.0
0
LINE
5
941
100
AcDbEntity
8
9-0
6
CONTINUOUS
62
4
100
AcDbLine
10
240.778887670843
20
251.065500000000
30
0.0
11
242.227793920843
21
250.677281250000
31
0.0
0
LINE
5
942
100
AcDbEntity
8
9-0
6
CONTINUOUS
62
4
100
AcDbLine
10
240.778887670843
20
251.065500000000
30
0.0
11
275.777168920843
21
251.065500000000
31
0.0
0
LINE
5
943
100
AcDbEntity
8
9-0
6
CONTINUOUS
62
4
100
AcDbLine
10
225.153950170843
20
251.065500000000
30
0.0
11
240.778887670843
21
251.065500000000
31
0.0
0
LINE
5
944
100
AcDbEntity
8
9-0
6
CONTINUOUS
62
4
100
AcDbLine
10
240.778887670843
20
241.900687500000
30
0.0
11
240.778887670843
21
251.815500000000
31
0.0
0
LINE
5
945
100
AcDbEntity
8
9-0
6
CONTINUOUS
62
4
100
AcDbLine
10
225.153950170843
20
251.065500000000
30
0.0
11
226.602762670843
21
251.453812500000
31
0.0
0
LINE
5
946
100
AcDbEntity
8
9-0
6
CONTINUOUS
62
4
100
AcDbLine
10
225.153950170843
20
251.065500000000
30
0.0
11
226.602762670843
21
250.677281250000
31
0.0
0
LINE
5
947
100
AcDbEntity
8
9-0
6
CONTINUOUS
62
4
100
AcDbLine
10
240.778887670843
20
251.065500000000
30
0.0
11
239.330075170843
21
251.453812500000
31
0.0
0
LINE
5
948
100
AcDbEntity
8
9-0
6
CONTINUOUS
62
4
100
AcDbLine
10
240.778887670843
20
251.065500000000
30
0.0
11
239.330075170843
21
250.677281250000
31
0.0
0
LINE
5
949
100
AcDbEntity
8
9-0
6
CONTINUOUS
62
4
100
AcDbLine
10
225.153950170843
20
237.658125000000
30
0.0
11
225.153950170843
21
251.815500000000
31
0.0
0
LINE
5
94a
100
AcDbEntity
8
9-0
6
CONTINUOUS
62
4
100
AcDbLine
10
225.671356420843
20
256.150500000000
30
0.0
11
247.679262670843
21
256.150500000000
31
0.0
0
POLYLINE
5
94b
100
AcDbEntity
8
9-0
6
CONTINUOUS
62
  7
100
AcDb2dPolyline
66
1
10
0.0
20
0.0
30
0.0
70
0
0
VERTEX
5
94c
100
AcDbEntity
8
9-0
6
CONTINUOUS
62
  7
100
AcDbVertex
100
AcDb2dVertex
10
230.403950170843
20
213.838218750000
30
0.0
0
VERTEX
5
94d
100
AcDbEntity
8
9-0
6
CONTINUOUS
62
  7
100
AcDbVertex
100
AcDb2dVertex
10
230.403950170843
20
229.463156250000
30
0.0
0
VERTEX
5
94e
100
AcDbEntity
8
9-0
6
CONTINUOUS
62
  7
100
AcDbVertex
100
AcDb2dVertex
10
232.028918920843
20
229.463156250000
30
0.0
0
SEQEND
5
94f
100
AcDbEntity
8
9-0
0
LINE
5
950
100
AcDbEntity
8
9-0
6
CONTINUOUS
62
7
100
AcDbLine
10
232.028918920843
20
213.838218750000
30
0.0
11
232.028918920843
21
229.463156250000
31
0.0
0
LINE
5
951
100
AcDbEntity
8
9-0
6
CONTINUOUS
62
7
100
AcDbLine
10
230.403950170843
20
213.838218750000
30
0.0
11
232.028918920843
21
213.838218750000
31
0.0
0
LINE
5
952
100
AcDbEntity
8
9-0
6
CONTINUOUS
62
7
100
AcDbLine
10
231.216481420843
20
212.821031250000
30
0.0
11
231.216481420843
21
230.803406250000
31
0.0
0
LINE
5
953
100
AcDbEntity
8
9-0
6
CONTINUOUS
62
4
100
AcDbLine
10
230.821981420843
20
228.845812500000
30
0.0
11
222.819481420843
21
241.675312500000
31
0.0
0
ARC
5
954
100
AcDbEntity
8
9-0
6
CONTINUOUS
62
7
100
AcDbCircle
10
234.403887670843
20
224.525718750000
30
0.0
40
1.249968750000
100
AcDbArc
50
90.000000000000
51
180.000000000000
0
ARC
5
955
100
AcDbEntity
8
9-0
6
CONTINUOUS
62
7
100
AcDbCircle
10
234.403887670843
20
218.775656250000
30
0.0
40
1.249968750000
100
AcDbArc
50
180.000000000000
51
270.000000000000
0
ARC
5
956
100
AcDbEntity
8
9-0
6
CONTINUOUS
62
7
100
AcDbCircle
10
234.403887670843
20
218.775656250000
30
0.0
40
2.374968750000
100
AcDbArc
50
180.000000000000
51
270.000000000000
0
CIRCLE
5
957
100
AcDbEntity
8
9-1
6
CONTINUOUS
62
3
100
AcDbCircle
10
236.716418920843
20
224.588156250000
30
0.0
40
0.625031250000
0
ARC
5
958
100
AcDbEntity
8
9-1
6
CONTINUOUS
62
3
100
AcDbCircle
10
236.716418920843
20
224.588156250000
30
0.0
40
1.562531250000
100
AcDbArc
50
0.000000000000
51
270.000000000000
0
ARC
5
959
100
AcDbEntity
8
9-0
6
CONTINUOUS
62
7
100
AcDbCircle
10
234.403887670843
20
224.525718750000
30
0.0
40
2.374968750000
100
AcDbArc
50
90.000000000000
51
180.000000000000
0
ARC
5
95a
100
AcDbEntity
8
9-0
6
CONTINUOUS
62
7
100
AcDbCircle
10
240.778887670843
20
222.065625000000
30
0.0
40
1.552406250000
100
AcDbArc
50
252.412000000000
51
287.588000000000
0
ARC
5
95b
100
AcDbEntity
8
9-0
6
CONTINUOUS
62
7
100
AcDbCircle
10
241.482575170843
20
220.928531250000
30
0.0
40
0.415312500000
100
AcDbArc
50
235.615000000000
51
295.614000000000
0
ARC
5
95c
100
AcDbEntity
8
9-0
6
CONTINUOUS
62
7
100
AcDbCircle
10
240.075293920843
20
220.928531250000
30
0.0
40
0.415312500000
100
AcDbArc
50
244.386000000000
51
304.385000000000
0
POLYLINE
5
95d
100
AcDbEntity
  8
9-0
6
CONTINUOUS
62
4
100
AcDb2dPolyline
66
1
10
0
20
0
70
1
40
0.400
41
0.400
0
VERTEX
5
95e
100
AcDbEntity
  8
9-0
6
CONTINUOUS
62
4
100
AcDbVertex
100
AcDb2dVertex
10
238.128
20
217.928
30
0.0
42
1.000
0
VERTEX
5
95f
100
AcDbEntity
  8
9-0
6
CONTINUOUS
62
4
100
AcDbVertex
100
AcDb2dVertex
10
238.528
20
217.928
30
0.0
42
1.000
0
SEQEND
5
960
100
AcDbEntity
  8
9-0
0
POLYLINE
5
961
100
AcDbEntity
  8
9-0
6
CONTINUOUS
62
4
100
AcDb2dPolyline
66
1
10
0
20
0
70
1
40
0.400
41
0.400
0
VERTEX
5
962
100
AcDbEntity
  8
9-0
6
CONTINUOUS
62
4
100
AcDbVertex
100
AcDb2dVertex
10
242.259
20
223.667
30
0.0
42
1.000
0
VERTEX
5
963
100
AcDbEntity
  8
9-0
6
CONTINUOUS
62
4
100
AcDbVertex
100
AcDb2dVertex
10
242.659
20
223.667
30
0.0
42
1.000
0
SEQEND
5
964
100
AcDbEntity
  8
9-0
0
POLYLINE
5
965
100
AcDbEntity
  8
9-0
6
CONTINUOUS
62
7
100
AcDb2dPolyline
66
1
10
0
20
0
70
1
40
0.400
41
0.400
0
VERTEX
5
966
100
AcDbEntity
  8
9-0
6
CONTINUOUS
62
7
100
AcDbVertex
100
AcDb2dVertex
10
230.622
20
228.846
30
0.0
42
1.000
0
VERTEX
5
967
100
AcDbEntity
  8
9-0
6
CONTINUOUS
62
7
100
AcDbVertex
100
AcDb2dVertex
10
231.022
20
228.846
30
0.0
42
1.000
0
SEQEND
5
968
100
AcDbEntity
  8
9-0
0
TEXT
5
969
100
AcDbEntity
8
9-E
62
7
370
-3
100
AcDbText
10
248.651
20
202.524
30
0.0
40
2.175
1
C84x70x9x9
41
0.531
50
0.000
100
AcDbText
0
TEXT
5
96a
100
AcDbEntity
8
9-B
62
7
370
-3
100
AcDbText
10
248.734
20
198.388
30
0.0
40
2.175
1
クサビ
41
0.856
50
0.000
100
AcDbText
0
TEXT
5
96b
100
AcDbEntity
8
9-5
62
7
370
-3
100
AcDbText
10
259.287
20
215.751
30
0.0
40
2.175
1
 t
41
0.651
50
90.000
100
AcDbText
0
TEXT
5
96c
100
AcDbEntity
8
9-B
62
7
370
-3
100
AcDbText
10
270.608
20
206.137
30
0.0
40
2.175
1
水圧方向
41
0.856
50
90.000
100
AcDbText
0
TEXT
5
96d
100
AcDbEntity
8
9-0
62
7
370
-3
100
AcDbText
10
218.330
20
220.555
30
0.0
40
2.175
1
84
41
0.518
50
90.000
100
AcDbText
0
MTEXT
5
96e
100
AcDbEntity
8
9-E
62
7
370
-3
100
AcDbMText
10
250.993
20
230.812
30
0.0
40
2.054
41
0.000
71
7
72
1
1
\W0.972;皿ＢＴ＆ＮＴ{\W0.700;  M8}
7
STANDARD
11
1.00000
21
0.00000
31
0.0
0
MTEXT
5
96f
100
AcDbEntity
8
9-E
62
7
370
-3
100
AcDbMText
10
247.151
20
242.812
30
0.0
40
2.054
41
0.000
71
7
72
1
1
\W0.972;水密ゴム　{\W0.700;P}型{\W0.700; }φ{\W0.700;25x65x10}
7
STANDARD
11
1.00000
21
0.00000
31
0.0
0
TEXT
5
970
100
AcDbEntity
8
9-0
62
7
370
-3
100
AcDbText
10
235.309
20
245.889
30
0.0
40
2.175
1
70
41
0.581
50
0.000
100
AcDbText
0
TEXT
5
971
100
AcDbEntity
8
9-0
62
7
370
-3
100
AcDbText
10
257.089
20
251.889
30
0.0
40
2.175
1
Ａ
41
0.856
50
0.000
100
AcDbText
0
TEXT
5
972
100
AcDbEntity
8
9-0
62
7
370
-3
100
AcDbText
10
231.225
20
251.889
30
0.0
40
2.175
1
125
41
0.563
50
0.000
100
AcDbText
0
LINE
5
973
100
AcDbEntity
8
9-0
6
CONTINUOUS
62
4
100
AcDbLine
10
231.013325170843
20
229.627218750000
30
0.0
11
231.013325170843
21
231.252281250000
31
0.0
0
LINE
5
974
100
AcDbEntity
8
9-0
6
CONTINUOUS
62
4
100
AcDbLine
10
221.147025238301
20
231.252281250000
30
0.0
11
231.013325170843
21
231.252281250000
31
0.0
0
LINE
5
975
100
AcDbEntity
8
9-0
6
CONTINUOUS
62
4
100
AcDbLine
10
221.147025238301
20
229.627218750000
30
0.0
11
231.013325170843
21
229.627218750000
31
0.0
0
LINE
5
976
100
AcDbEntity
8
9-0
6
CENTER2
62
4
100
AcDbLine
10
220.335712738301
20
230.439750000000
30
0.0
11
231.676137670844
21
230.439750000000
31
0.0
0
LINE
5
977
100
AcDbEntity
8
9-0
6
PHANTOM2
62
4
100
AcDbLine
10
221.147025238301
20
228.049125000000
30
0.0
11
221.147025238301
21
232.444500000000
31
0.0
0
LINE
5
978
100
AcDbEntity
8
9-0
6
CONTINUOUS
62
4
100
AcDbLine
10
231.013325170843
20
212.049093750000
30
0.0
11
231.013325170843
21
213.674156250000
31
0.0
0
LINE
5
979
100
AcDbEntity
8
9-0
6
CONTINUOUS
62
4
100
AcDbLine
10
221.147025238301
20
213.674156250000
30
0.0
11
231.013325170843
21
213.674156250000
31
0.0
0
LINE
5
97a
100
AcDbEntity
8
9-0
6
CONTINUOUS
62
4
100
AcDbLine
10
221.147025238301
20
212.049093750000
30
0.0
11
231.013325170843
21
212.049093750000
31
0.0
0
LINE
5
97b
100
AcDbEntity
8
9-0
6
CENTER2
62
4
100
AcDbLine
10
220.335712738301
20
212.861625000000
30
0.0
11
231.676137670844
21
212.861625000000
31
0.0
0
LINE
5
97c
100
AcDbEntity
8
9-0
6
PHANTOM2
62
4
100
AcDbLine
10
221.147025238301
20
210.471000000000
30
0.0
11
221.147025238301
21
214.866375000000
31
0.0
0
MTEXT
5
97d
100
AcDbEntity
8
9-E
62
7
370
-3
100
AcDbMText
10
246.211
20
236.812
30
0.0
40
2.054
41
0.000
71
7
72
1
1
\W0.972;ゴム押え　{\W0.700;PL-6t(SUS304)}
7
STANDARD
11
1.00000
21
0.00000
31
0.0
0
MTEXT
5
97e
100
AcDbEntity
8
9-B
62
7
370
-3
100
AcDbMText
10
201.634
20
242.080
30
0.0
40
2.054
41
0.000
71
7
72
1
1
\W0.972;{\W0.700;RB-}φ{\W0.700;13}（{\W0.700;SS400)}
7
STANDARD
11
1.00000
21
0.00000
31
0.0
0
LINE
5
97f
100
AcDbEntity
8
9-0
6
CONTINUOUS
62
4
100
AcDbLine
10
201.440825170843
20
241.675312500000
30
0.0
11
222.819481420843
21
241.675312500000
31
0.0
0
LINE
5
980
100
AcDbEntity
8
B-0
6
CONTINUOUS
62
7
100
AcDbLine
10
280.879266022888
20
91.651781250000
30
0.0
11
281.129109772889
21
91.651781250000
31
0.0
0
LINE
5
981
100
AcDbEntity
8
B-0
6
CONTINUOUS
62
7
100
AcDbLine
10
280.254328522888
20
98.901750000000
30
0.0
11
280.254328522888
21
92.276812500000
31
0.0
0
LINE
5
982
100
AcDbEntity
8
B-1
6
CONTINUOUS
62
3
100
AcDbLine
10
277.254234772888
20
100.401750000000
30
0.0
11
278.504203522888
21
100.401750000000
31
0.0
0
POLYLINE
5
983
100
AcDbEntity
8
B-1
6
CONTINUOUS
62
  3
100
AcDb2dPolyline
66
1
10
0.0
20
0.0
30
0.0
70
0
0
VERTEX
5
984
100
AcDbEntity
8
B-1
6
CONTINUOUS
62
  3
100
AcDbVertex
100
AcDb2dVertex
10
277.254234772888
20
107.901750000000
30
0.0
0
VERTEX
5
985
100
AcDbEntity
8
B-1
6
CONTINUOUS
62
  3
100
AcDbVertex
100
AcDb2dVertex
10
278.504203522888
20
107.901750000000
30
0.0
0
VERTEX
5
986
100
AcDbEntity
8
B-1
6
CONTINUOUS
62
  3
100
AcDbVertex
100
AcDb2dVertex
10
278.504203522888
20
100.401750000000
30
0.0
0
SEQEND
5
987
100
AcDbEntity
8
B-1
0
LINE
5
988
100
AcDbEntity
8
B-1
6
CONTINUOUS
62
3
100
AcDbLine
10
278.504203522888
20
106.526812500000
30
0.0
11
279.254109772888
21
106.526812500000
31
0.0
0
LINE
5
989
100
AcDbEntity
8
B-1
6
CENTER2
62
3
100
AcDbLine
10
273.921891022888
20
104.151750000000
30
0.0
11
279.760547272888
21
104.151750000000
31
0.0
0
LINE
5
98a
100
AcDbEntity
8
B-1
6
CONTINUOUS
62
3
100
AcDbLine
10
278.504203522888
20
101.776781250000
30
0.0
11
279.254109772888
21
101.776781250000
31
0.0
0
LINE
5
98b
100
AcDbEntity
8
B-0
6
CONTINUOUS
62
2
100
AcDbLine
10
272.504297272888
20
141.026906250000
30
0.0
11
271.754297272888
21
141.026906250000
31
0.0
0
LINE
5
98c
100
AcDbEntity
8
B-4
6
CONTINUOUS
62
2
100
AcDbLine
10
272.504297272888
20
141.026906250000
30
0.0
11
273.254391022888
21
138.401906250000
31
0.0
0
LINE
5
98d
100
AcDbEntity
8
B-0
6
CONTINUOUS
62
2
100
AcDbLine
10
275.754328522889
20
141.026906250000
30
0.0
11
274.504266022888
21
141.026906250000
31
0.0
0
LINE
5
98e
100
AcDbEntity
8
B-4
6
CONTINUOUS
62
2
100
AcDbLine
10
274.504266022888
20
141.026906250000
30
0.0
11
273.254391022888
21
136.651781250000
31
0.0
0
LINE
5
98f
100
AcDbEntity
8
B-4
6
CONTINUOUS
62
2
100
AcDbLine
10
273.254391022888
20
138.401906250000
30
0.0
11
273.254391022888
21
134.776781250000
31
0.0
0
LINE
5
990
100
AcDbEntity
8
B-0
6
CONTINUOUS
62
2
100
AcDbLine
10
272.504297272888
20
128.526843750000
30
0.0
11
271.754297272888
21
128.526843750000
31
0.0
0
LINE
5
991
100
AcDbEntity
8
B-4
6
CONTINUOUS
62
2
100
AcDbLine
10
272.504297272888
20
128.526843750000
30
0.0
11
273.254391022888
21
131.151843750000
31
0.0
0
LINE
5
992
100
AcDbEntity
8
B-0
6
CONTINUOUS
62
2
100
AcDbLine
10
275.754328522889
20
128.526843750000
30
0.0
11
274.504266022888
21
128.526843750000
31
0.0
0
LINE
5
993
100
AcDbEntity
8
B-4
6
CONTINUOUS
62
2
100
AcDbLine
10
274.504266022888
20
128.526843750000
30
0.0
11
273.254391022888
21
132.901781250000
31
0.0
0
LINE
5
994
100
AcDbEntity
8
B-4
6
CONTINUOUS
62
2
100
AcDbLine
10
273.254391022888
20
131.151843750000
30
0.0
11
273.254391022888
21
134.776781250000
31
0.0
0
LINE
5
995
100
AcDbEntity
8
B-0
6
CONTINUOUS
62
2
100
AcDbLine
10
273.004359772889
20
120.401812500000
30
0.0
11
271.754297272888
21
120.401812500000
31
0.0
0
LINE
5
996
100
AcDbEntity
8
B-4
6
CONTINUOUS
62
2
100
AcDbLine
10
273.004359772889
20
120.401812500000
30
0.0
11
273.754359772889
21
117.776718750000
31
0.0
0
LINE
5
997
100
AcDbEntity
8
B-0
6
CONTINUOUS
62
2
100
AcDbLine
10
275.754328522889
20
120.401812500000
30
0.0
11
275.004234772888
21
120.401812500000
31
0.0
0
LINE
5
998
100
AcDbEntity
8
B-4
6
CONTINUOUS
62
2
100
AcDbLine
10
275.004234772888
20
120.401812500000
30
0.0
11
273.754359772889
21
116.026781250000
31
0.0
0
LINE
5
999
100
AcDbEntity
8
B-4
6
CONTINUOUS
62
2
100
AcDbLine
10
273.754359772889
20
117.776718750000
30
0.0
11
273.754359772889
21
114.151687500000
31
0.0
0
LINE
5
99a
100
AcDbEntity
8
B-0
6
CONTINUOUS
62
2
100
AcDbLine
10
273.004359772889
20
107.901750000000
30
0.0
11
271.754297272888
21
107.901750000000
31
0.0
0
LINE
5
99b
100
AcDbEntity
8
B-4
6
CONTINUOUS
62
2
100
AcDbLine
10
273.004359772889
20
107.901750000000
30
0.0
11
273.754359772889
21
110.526750000000
31
0.0
0
LINE
5
99c
100
AcDbEntity
8
B-0
6
CONTINUOUS
62
2
100
AcDbLine
10
275.754328522889
20
107.901750000000
30
0.0
11
275.004234772888
21
107.901750000000
31
0.0
0
LINE
5
99d
100
AcDbEntity
8
B-4
6
CONTINUOUS
62
2
100
AcDbLine
10
275.004234772888
20
107.901750000000
30
0.0
11
273.754359772889
21
112.276781250000
31
0.0
0
LINE
5
99e
100
AcDbEntity
8
B-4
6
CONTINUOUS
62
2
100
AcDbLine
10
273.754359772889
20
110.526750000000
30
0.0
11
273.754359772889
21
114.151687500000
31
0.0
0
LINE
5
99f
100
AcDbEntity
8
B-0
6
CENTER2
62
2
100
AcDbLine
10
276.734297272889
20
114.151687500000
30
0.0
11
270.918422272889
21
114.151687500000
31
0.0
0
LINE
5
9a0
100
AcDbEntity
8
B-0
6
CENTER2
62
2
100
AcDbLine
10
276.734297272889
20
134.776781250000
30
0.0
11
270.918422272889
21
134.776781250000
31
0.0
0
LINE
5
9a1
100
AcDbEntity
8
B-1
6
CONTINUOUS
62
3
100
AcDbLine
10
277.254234772888
20
101.651812500000
30
0.0
11
275.754328522889
21
101.651812500000
31
0.0
0
LINE
5
9a2
100
AcDbEntity
8
B-E
6
CONTINUOUS
62
3
100
AcDbLine
10
277.254234772888
20
107.872031250000
30
0.0
11
277.284047272888
21
107.901750000000
31
0.0
0
LINE
5
9a3
100
AcDbEntity
8
B-E
6
DOT
62
3
100
AcDbLine
10
278.754234772888
20
104.651718750000
30
0.0
11
279.254109772888
21
105.151687500000
31
0.0
0
LINE
5
9a4
100
AcDbEntity
8
B-E
6
DOT
62
3
100
AcDbLine
10
278.754234772888
20
103.651781250000
30
0.0
11
279.254109772888
21
103.151718750000
31
0.0
0
LINE
5
9a5
100
AcDbEntity
8
B-E
6
DOT
62
3
100
AcDbLine
10
278.754234772888
20
104.651718750000
30
0.0
11
278.754234772888
21
103.651781250000
31
0.0
0
LINE
5
9a6
100
AcDbEntity
8
B-E
6
DOT
62
3
100
AcDbLine
10
275.754328522889
20
103.651781250000
30
0.0
11
278.754234772888
21
103.651781250000
31
0.0
0
LINE
5
9a7
100
AcDbEntity
8
B-E
6
DOT
62
3
100
AcDbLine
10
275.754328522889
20
104.651718750000
30
0.0
11
278.754234772888
21
104.651718750000
31
0.0
0
LINE
5
9a8
100
AcDbEntity
8
B-E
6
CONTINUOUS
62
2
100
AcDbLine
10
273.879328522889
20
162.735750000000
30
0.0
11
273.879328522889
21
157.901812500000
31
0.0
0
LINE
5
9a9
100
AcDbEntity
8
B-E
6
CONTINUOUS
62
2
100
AcDbLine
10
277.879266022888
20
162.735750000000
30
0.0
11
277.879266022888
21
157.901812500000
31
0.0
0
LINE
5
9aa
100
AcDbEntity
8
B-1
6
CONTINUOUS
62
3
100
AcDbLine
10
279.254109772888
20
106.526812500000
30
0.0
11
279.254109772888
21
101.776781250000
31
0.0
0
LINE
5
9ab
100
AcDbEntity
8
B-E
6
CONTINUOUS
62
2
100
AcDbLine
10
272.754328522889
20
157.901812500000
30
0.0
11
272.754328522889
21
144.776812500000
31
0.0
0
LINE
5
9ac
100
AcDbEntity
8
B-1
6
CONTINUOUS
62
3
100
AcDbLine
10
272.754328522889
20
157.901812500000
30
0.0
11
279.004266022888
21
157.901812500000
31
0.0
0
LINE
5
9ad
100
AcDbEntity
8
B-1
6
CENTER2
62
3
100
AcDbLine
10
272.986266022888
20
153.526781250000
30
0.0
11
278.763609772888
21
153.526781250000
31
0.0
0
LINE
5
9ae
100
AcDbEntity
8
B-1
6
CONTINUOUS
62
3
100
AcDbLine
10
277.254234772888
20
147.276843750000
30
0.0
11
279.004266022888
21
149.026875000000
31
0.0
0
LINE
5
9af
100
AcDbEntity
8
B-E
6
CONTINUOUS
62
2
100
AcDbLine
10
279.004266022888
20
157.901812500000
30
0.0
11
279.004266022888
21
149.026875000000
31
0.0
0
LINE
5
9b0
100
AcDbEntity
8
B-E
6
CONTINUOUS
62
2
100
AcDbLine
10
272.754328522889
20
144.776812500000
30
0.0
11
275.754328522889
21
144.776812500000
31
0.0
0
LINE
5
9b1
100
AcDbEntity
8
B-0
6
CENTER2
62
7
100
AcDbLine
10
275.879297272888
20
162.735750000000
30
0.0
11
275.879297272888
21
149.983218750000
31
0.0
0
LINE
5
9b2
100
AcDbEntity
8
B-0
6
CONTINUOUS
62
7
100
AcDbLine
10
270.629203522888
20
162.735750000000
30
0.0
11
270.629203522888
21
124.839281250000
31
0.0
0
LINE
5
9b3
100
AcDbEntity
8
B-0
6
CONTINUOUS
62
7
100
AcDbLine
10
270.629203522888
20
124.089281250000
30
0.0
11
270.629203522888
21
101.026781250000
31
0.0
0
LINE
5
9b4
100
AcDbEntity
8
B-0
6
CONTINUOUS
62
7
100
AcDbLine
10
271.754297272888
20
162.735750000000
30
0.0
11
271.754297272888
21
124.839281250000
31
0.0
0
LINE
5
9b5
100
AcDbEntity
8
B-0
6
CONTINUOUS
62
7
100
AcDbLine
10
271.754297272888
20
124.089281250000
30
0.0
11
271.754297272888
21
101.026781250000
31
0.0
0
LINE
5
9b6
100
AcDbEntity
8
B-1
6
CONTINUOUS
62
3
100
AcDbLine
10
275.754328522889
20
147.276843750000
30
0.0
11
275.754328522889
21
124.839281250000
31
0.0
0
LINE
5
9b7
100
AcDbEntity
8
B-1
6
CONTINUOUS
62
3
100
AcDbLine
10
275.754328522889
20
124.089281250000
30
0.0
11
275.754328522889
21
101.651812500000
31
0.0
0
LINE
5
9b8
100
AcDbEntity
8
B-1
6
CONTINUOUS
62
3
100
AcDbLine
10
277.254234772888
20
147.276843750000
30
0.0
11
277.254234772888
21
124.839281250000
31
0.0
0
LINE
5
9b9
100
AcDbEntity
8
B-1
6
CONTINUOUS
62
3
100
AcDbLine
10
277.254234772888
20
124.089281250000
30
0.0
11
277.254234772888
21
100.401750000000
31
0.0
0
LINE
5
9ba
100
AcDbEntity
8
B-0
6
CONTINUOUS
62
7
100
AcDbLine
10
280.004297272888
20
101.026781250000
30
0.0
11
280.004297272888
21
124.089281250000
31
0.0
0
LINE
5
9bb
100
AcDbEntity
8
B-0
6
CONTINUOUS
62
7
100
AcDbLine
10
280.004297272888
20
124.839281250000
30
0.0
11
280.004297272888
21
162.735750000000
31
0.0
0
LINE
5
9bc
100
AcDbEntity
8
B-0
6
PHANTOM2
62
4
100
AcDbLine
10
268.516828522888
20
124.839281250000
30
0.0
11
288.625266022888
21
124.839281250000
31
0.0
0
LINE
5
9bd
100
AcDbEntity
8
B-0
6
PHANTOM2
62
4
100
AcDbLine
10
268.516828522888
20
124.089281250000
30
0.0
11
288.625266022888
21
124.089281250000
31
0.0
0
LINE
5
9be
100
AcDbEntity
8
B-0
6
PHANTOM2
62
4
100
AcDbLine
10
268.516828522888
20
162.735750000000
30
0.0
11
282.640266022888
21
162.735750000000
31
0.0
0
LINE
5
9bf
100
AcDbEntity
8
B-1
6
CONTINUOUS
62
3
100
AcDbLine
10
275.554266022889
20
103.026750000000
30
0.0
11
275.754328522889
21
103.026750000000
31
0.0
0
LINE
5
9c0
100
AcDbEntity
8
B-1
6
CONTINUOUS
62
3
100
AcDbLine
10
274.254328522889
20
104.151750000000
30
0.0
11
274.254328522889
21
103.651781250000
31
0.0
0
LINE
5
9c1
100
AcDbEntity
8
B-1
6
CONTINUOUS
62
3
100
AcDbLine
10
274.741828522888
20
103.776750000000
30
0.0
11
274.254328522889
21
103.776750000000
31
0.0
0
LINE
5
9c2
100
AcDbEntity
8
B-1
6
CONTINUOUS
62
3
100
AcDbLine
10
275.554266022889
20
104.151750000000
30
0.0
11
275.554266022889
21
103.026750000000
31
0.0
0
LINE
5
9c3
100
AcDbEntity
8
B-1
6
CONTINUOUS
62
3
100
AcDbLine
10
275.554266022889
20
105.276750000000
30
0.0
11
275.754328522889
21
105.276750000000
31
0.0
0
LINE
5
9c4
100
AcDbEntity
8
B-1
6
CONTINUOUS
62
3
100
AcDbLine
10
274.254328522889
20
104.151750000000
30
0.0
11
274.254328522889
21
104.651718750000
31
0.0
0
LINE
5
9c5
100
AcDbEntity
8
B-1
6
CONTINUOUS
62
3
100
AcDbLine
10
274.741828522888
20
104.526750000000
30
0.0
11
274.254328522889
21
104.526750000000
31
0.0
0
LINE
5
9c6
100
AcDbEntity
8
B-1
6
CONTINUOUS
62
3
100
AcDbLine
10
275.554266022889
20
104.151750000000
30
0.0
11
275.554266022889
21
105.276750000000
31
0.0
0
LINE
5
9c7
100
AcDbEntity
8
B-0
6
CONTINUOUS
62
7
100
AcDbLine
10
274.741828522888
20
103.339218750000
30
0.0
11
274.814391022888
21
103.213593750000
31
0.0
0
LINE
5
9c8
100
AcDbEntity
8
B-0
6
CONTINUOUS
62
7
100
AcDbLine
10
274.741828522888
20
104.964281250000
30
0.0
11
274.814391022888
21
105.089906250000
31
0.0
0
LINE
5
9c9
100
AcDbEntity
8
B-0
6
CONTINUOUS
62
7
100
AcDbLine
10
274.741828522888
20
103.339218750000
30
0.0
11
274.741828522888
21
104.964281250000
31
0.0
0
LINE
5
9ca
100
AcDbEntity
8
B-0
6
CONTINUOUS
62
7
100
AcDbLine
10
275.554266022889
20
105.089906250000
30
0.0
11
274.814391022888
21
105.089906250000
31
0.0
0
LINE
5
9cb
100
AcDbEntity
8
B-0
6
CONTINUOUS
62
7
100
AcDbLine
10
275.554266022889
20
103.213593750000
30
0.0
11
274.814391022888
21
103.213593750000
31
0.0
0
LINE
5
9cc
100
AcDbEntity
8
B-1
6
CONTINUOUS
62
3
100
AcDbLine
10
274.741828522888
20
104.651718750000
30
0.0
11
274.254328522889
21
104.651718750000
31
0.0
0
LINE
5
9cd
100
AcDbEntity
8
B-1
6
CONTINUOUS
62
3
100
AcDbLine
10
274.741828522888
20
103.651781250000
30
0.0
11
274.254328522889
21
103.651781250000
31
0.0
0
LINE
5
9ce
100
AcDbEntity
8
B-0
6
CONTINUOUS
62
7
100
AcDbLine
10
275.554266022889
20
104.620875000000
30
0.0
11
274.814391022888
21
104.620875000000
31
0.0
0
LINE
5
9cf
100
AcDbEntity
8
B-0
6
CONTINUOUS
62
7
100
AcDbLine
10
275.554266022889
20
103.682625000000
30
0.0
11
274.814391022888
21
103.682625000000
31
0.0
0
LINE
5
9d0
100
AcDbEntity
8
B-0
6
CONTINUOUS
62
4
100
AcDbLine
10
277.254234772888
20
100.445062500000
30
0.0
11
277.297547272888
21
100.401750000000
31
0.0
0
LINE
5
9d1
100
AcDbEntity
8
B-0
6
CONTINUOUS
62
4
100
AcDbLine
10
277.254234772888
20
101.399625000000
30
0.0
11
278.252203522888
21
100.401750000000
31
0.0
0
LINE
5
9d2
100
AcDbEntity
8
B-0
6
CONTINUOUS
62
4
100
AcDbLine
10
277.254234772888
20
101.505656250000
30
0.0
11
278.358234772889
21
100.401750000000
31
0.0
0
LINE
5
9d3
100
AcDbEntity
8
B-0
6
CONTINUOUS
62
4
100
AcDbLine
10
277.254234772888
20
102.460312500000
30
0.0
11
278.504203522888
21
101.210343750000
31
0.0
0
LINE
5
9d4
100
AcDbEntity
8
B-0
6
CONTINUOUS
62
4
100
AcDbLine
10
277.254234772888
20
102.566343750000
30
0.0
11
278.504203522888
21
101.316375000000
31
0.0
0
LINE
5
9d5
100
AcDbEntity
8
B-0
6
CONTINUOUS
62
4
100
AcDbLine
10
277.254234772888
20
103.520906250000
30
0.0
11
278.504203522888
21
102.270937500000
31
0.0
0
LINE
5
9d6
100
AcDbEntity
8
B-0
6
CONTINUOUS
62
4
100
AcDbLine
10
277.254234772888
20
103.626937500000
30
0.0
11
278.504203522888
21
102.376968750000
31
0.0
0
LINE
5
9d7
100
AcDbEntity
8
B-0
6
CONTINUOUS
62
4
100
AcDbLine
10
277.254234772888
20
104.581593750000
30
0.0
11
278.504203522888
21
103.331625000000
31
0.0
0
LINE
5
9d8
100
AcDbEntity
8
B-0
6
CONTINUOUS
62
4
100
AcDbLine
10
277.254234772888
20
104.687625000000
30
0.0
11
278.504203522888
21
103.437656250000
31
0.0
0
LINE
5
9d9
100
AcDbEntity
8
B-0
6
CONTINUOUS
62
4
100
AcDbLine
10
277.254234772888
20
105.642187500000
30
0.0
11
278.504203522888
21
104.392218750000
31
0.0
0
LINE
5
9da
100
AcDbEntity
8
B-0
6
CONTINUOUS
62
4
100
AcDbLine
10
277.254234772888
20
105.748218750000
30
0.0
11
278.504203522888
21
104.498250000000
31
0.0
0
LINE
5
9db
100
AcDbEntity
8
B-0
6
CONTINUOUS
62
4
100
AcDbLine
10
277.254234772888
20
106.702875000000
30
0.0
11
278.504203522888
21
105.452906250000
31
0.0
0
LINE
5
9dc
100
AcDbEntity
8
B-0
6
CONTINUOUS
62
4
100
AcDbLine
10
277.254234772888
20
106.808906250000
30
0.0
11
278.504203522888
21
105.558937500000
31
0.0
0
LINE
5
9dd
100
AcDbEntity
8
B-0
6
CONTINUOUS
62
4
100
AcDbLine
10
277.254234772888
20
107.763468750000
30
0.0
11
278.504203522888
21
106.513500000000
31
0.0
0
LINE
5
9de
100
AcDbEntity
8
B-0
6
CONTINUOUS
62
4
100
AcDbLine
10
277.254234772888
20
107.869500000000
30
0.0
11
278.504203522888
21
106.619531250000
31
0.0
0
LINE
5
9df
100
AcDbEntity
8
B-0
6
CONTINUOUS
62
4
100
AcDbLine
10
278.176547272888
20
107.901750000000
30
0.0
11
278.504203522888
21
107.574187500000
31
0.0
0
LINE
5
9e0
100
AcDbEntity
8
B-0
6
CONTINUOUS
62
4
100
AcDbLine
10
278.282672272888
20
107.901750000000
30
0.0
11
278.504203522888
21
107.680218750000
31
0.0
0
LINE
5
9e1
100
AcDbEntity
8
B-0
6
CONTINUOUS
62
7
100
AcDbLine
10
268.629328522889
20
100.151718750000
30
0.0
11
268.629328522889
21
101.026781250000
31
0.0
0
LINE
5
9e2
100
AcDbEntity
8
B-0
6
CONTINUOUS
62
7
100
AcDbLine
10
268.629328522889
20
100.151718750000
30
0.0
11
279.004359772889
21
100.151718750000
31
0.0
0
LINE
5
9e3
100
AcDbEntity
8
B-B
6
CONTINUOUS
62
7
100
AcDbLine
10
261.302766022888
20
125.839312500000
30
0.0
11
261.302766022888
21
126.839250000000
31
0.0
0
LINE
5
9e4
100
AcDbEntity
8
B-B
6
CONTINUOUS
62
7
100
AcDbLine
10
261.302766022888
20
123.839250000000
30
0.0
11
261.302766022888
21
122.839218750000
31
0.0
0
LINE
5
9e5
100
AcDbEntity
8
B-B
6
CONTINUOUS
62
7
100
AcDbLine
10
261.302766022888
20
126.839250000000
30
0.0
11
264.766828522888
21
124.839281250000
31
0.0
0
LINE
5
9e6
100
AcDbEntity
8
B-B
6
CONTINUOUS
62
7
100
AcDbLine
10
261.302766022888
20
122.839218750000
30
0.0
11
264.766828522888
21
124.839281250000
31
0.0
0
LINE
5
9e7
100
AcDbEntity
8
B-B
6
CONTINUOUS
62
7
100
AcDbLine
10
250.302797272888
20
125.839312500000
30
0.0
11
261.302766022888
21
125.839312500000
31
0.0
0
LINE
5
9e8
100
AcDbEntity
8
B-B
6
CONTINUOUS
62
7
100
AcDbLine
10
250.302797272888
20
123.839250000000
30
0.0
11
261.302766022888
21
123.839250000000
31
0.0
0
LINE
5
9e9
100
AcDbEntity
8
B-B
6
CONTINUOUS
62
7
100
AcDbLine
10
250.302797272888
20
125.839312500000
30
0.0
11
250.302797272888
21
123.839250000000
31
0.0
0
LINE
5
9ea
100
AcDbEntity
8
B-0
6
CONTINUOUS
62
7
100
AcDbLine
10
281.129109772889
20
162.735750000000
30
0.0
11
281.129109772889
21
91.651781250000
31
0.0
0
LINE
5
9eb
100
AcDbEntity
8
B-0
6
CONTINUOUS
62
4
100
AcDbLine
10
272.229422272888
20
85.401750000000
30
0.0
11
287.854453522888
21
101.026781250000
31
0.0
0
LINE
5
9ec
100
AcDbEntity
8
B-0
6
CONTINUOUS
62
4
100
AcDbLine
10
266.926172272888
20
85.401750000000
30
0.0
11
282.551109772888
21
101.026781250000
31
0.0
0
LINE
5
9ed
100
AcDbEntity
8
B-0
6
CONTINUOUS
62
4
100
AcDbLine
10
261.622828522888
20
85.401750000000
30
0.0
11
277.247859772888
21
101.026781250000
31
0.0
0
LINE
5
9ee
100
AcDbEntity
8
B-0
6
CONTINUOUS
62
4
100
AcDbLine
10
281.129109772889
20
112.515937500000
30
0.0
11
282.578016022889
21
112.904156250000
31
0.0
0
LINE
5
9ef
100
AcDbEntity
8
B-0
6
CONTINUOUS
62
4
100
AcDbLine
10
281.129109772889
20
112.515937500000
30
0.0
11
282.578016022889
21
112.127718750000
31
0.0
0
LINE
5
9f0
100
AcDbEntity
8
B-1
6
CONTINUOUS
62
3
100
AcDbLine
10
275.754328522889
20
147.276843750000
30
0.0
11
280.004297272888
21
147.276843750000
31
0.0
0
LINE
5
9f1
100
AcDbEntity
8
B-0
6
CONTINUOUS
62
4
100
AcDbLine
10
274.066641022888
20
91.651781250000
30
0.0
11
275.691609772888
21
91.651781250000
31
0.0
0
LINE
5
9f2
100
AcDbEntity
8
B-0
6
CONTINUOUS
62
4
100
AcDbLine
10
275.691609772888
20
79.151718750000
30
0.0
11
275.691609772888
21
91.651781250000
31
0.0
0
LINE
5
9f3
100
AcDbEntity
8
B-0
6
CONTINUOUS
62
4
100
AcDbLine
10
274.066641022888
20
79.151718750000
30
0.0
11
274.066641022888
21
91.651781250000
31
0.0
0
LINE
5
9f4
100
AcDbEntity
8
B-0
6
CENTER2
62
4
100
AcDbLine
10
274.879078522888
20
78.340406250000
30
0.0
11
274.879078522888
21
92.314593750000
31
0.0
0
LINE
5
9f5
100
AcDbEntity
8
B-0
6
PHANTOM2
62
4
100
AcDbLine
10
272.488453522889
20
79.151718750000
30
0.0
11
276.883922272889
21
79.151718750000
31
0.0
0
LINE
5
9f6
100
AcDbEntity
8
B-0
6
CONTINUOUS
62
4
100
AcDbLine
10
280.254328522888
20
97.911093750000
30
0.0
11
279.711609772888
21
96.512718750000
31
0.0
0
LINE
5
9f7
100
AcDbEntity
8
B-0
6
CONTINUOUS
62
4
100
AcDbLine
10
280.254328522888
20
97.911093750000
30
0.0
11
279.085172272888
21
96.971437500000
31
0.0
0
LINE
5
9f8
100
AcDbEntity
8
B-0
6
CONTINUOUS
62
4
100
AcDbLine
10
274.879078522888
20
77.508375000000
30
0.0
11
274.879078522888
21
74.022562500000
31
0.0
0
LINE
5
9f9
100
AcDbEntity
8
B-0
6
CONTINUOUS
62
4
100
AcDbLine
10
274.879078522888
20
74.772562500000
30
0.0
11
276.327984772889
21
75.160781250000
31
0.0
0
LINE
5
9fa
100
AcDbEntity
8
B-0
6
CONTINUOUS
62
4
100
AcDbLine
10
274.879078522888
20
74.772562500000
30
0.0
11
276.327984772889
21
74.384343750000
31
0.0
0
LINE
5
9fb
100
AcDbEntity
8
B-0
6
CONTINUOUS
62
4
100
AcDbLine
10
264.987141022889
20
167.083875000000
30
0.0
11
286.902516022888
21
167.083875000000
31
0.0
0
LINE
5
9fc
100
AcDbEntity
8
B-0
6
CONTINUOUS
62
4
100
AcDbLine
10
259.008516022889
20
72.731531250000
30
0.0
11
280.254328522888
21
97.911093750000
31
0.0
0
ARC
5
9fd
100
AcDbEntity
8
B-0
6
CONTINUOUS
62
7
100
AcDbCircle
10
280.879266022888
20
92.276812500000
30
0.0
40
0.625031250000
100
AcDbArc
50
180.000000000000
51
270.000000000000
0
ARC
5
9fe
100
AcDbEntity
8
B-0
6
CONTINUOUS
62
7
100
AcDbCircle
10
279.004359772889
20
98.901750000000
30
0.0
40
1.249968750000
100
AcDbArc
50
0.000000000000
51
90.000000000000
0
CIRCLE
5
9ff
100
AcDbEntity
8
B-1
6
CONTINUOUS
62
3
100
AcDbCircle
10
275.879297272888
20
153.526781250000
30
0.0
40
1.249968750000
0
CIRCLE
5
a00
100
AcDbEntity
8
B-1
6
CONTINUOUS
62
3
100
AcDbCircle
10
275.879297272888
20
153.526781250000
30
0.0
40
2.500031250000
0
ARC
5
a01
100
AcDbEntity
8
B-0
6
CONTINUOUS
62
7
100
AcDbCircle
10
276.294234772888
20
104.151750000000
30
0.0
40
1.552406250000
100
AcDbArc
50
162.412000000000
51
197.588000000000
0
ARC
5
a02
100
AcDbEntity
8
B-0
6
CONTINUOUS
62
7
100
AcDbCircle
10
275.157141022888
20
103.448062500000
30
0.0
40
0.415312500000
100
AcDbArc
50
145.615000000000
51
205.614000000000
0
ARC
5
a03
100
AcDbEntity
8
B-0
6
CONTINUOUS
62
7
100
AcDbCircle
10
275.157141022888
20
104.855437500000
30
0.0
40
0.415312500000
100
AcDbArc
50
154.386000000000
51
214.385000000000
0
POLYLINE
5
a04
100
AcDbEntity
  8
B-0
6
CONTINUOUS
62
4
100
AcDb2dPolyline
66
1
10
0
20
0
70
1
40
0.400
41
0.400
0
VERTEX
5
a05
100
AcDbEntity
  8
B-0
6
CONTINUOUS
62
4
100
AcDbVertex
100
AcDb2dVertex
10
277.654
20
102.478
30
0.0
42
1.000
0
VERTEX
5
a06
100
AcDbEntity
  8
B-0
6
CONTINUOUS
62
4
100
AcDbVertex
100
AcDb2dVertex
10
278.054
20
102.478
30
0.0
42
1.000
0
SEQEND
5
a07
100
AcDbEntity
  8
B-0
0
TEXT
5
a08
100
AcDbEntity
8
B-B
62
7
370
-3
100
AcDbText
10
250.523
20
127.283
30
0.0
40
2.175
1
水圧方向
41
0.856
50
0.000
100
AcDbText
0
LINE
5
a09
100
AcDbEntity
8
B-E
6
CONTINUOUS
62
4
100
AcDbLine
10
220.209797272888
20
72.731531250000
30
0.0
11
259.008516022889
21
72.731531250000
31
0.0
0
LINE
5
a0a
100
AcDbEntity
8
9-0
6
CONTINUOUS
62
4
100
AcDbLine
10
225.153950170843
20
239.400687500000
30
0.0
11
240.778887670843
21
239.400687500000
31
0.0
0
LINE
5
a0b
100
AcDbEntity
8
9-0
6
CONTINUOUS
62
4
100
AcDbLine
10
213.153856420843
20
239.400687500000
30
0.0
11
212.765637670843
21
237.951781250000
31
0.0
0
LINE
5
a0c
100
AcDbEntity
8
9-0
6
CONTINUOUS
62
4
100
AcDbLine
10
213.153856420843
20
239.400687500000
30
0.0
11
213.542168920843
21
237.951781250000
31
0.0
0
LINE
5
a0d
100
AcDbEntity
8
9-0
6
CONTINUOUS
62
4
100
AcDbLine
10
219.153856420843
20
226.900687500000
30
0.0
11
219.153856420843
21
239.400687500000
31
0.0
0
LINE
5
a0e
100
AcDbEntity
8
9-0
6
CONTINUOUS
62
4
100
AcDbLine
10
223.987793920843
20
239.400687500000
30
0.0
11
212.403856420843
21
239.400687500000
31
0.0
0
LINE
5
a0f
100
AcDbEntity
8
9-0
6
CONTINUOUS
62
4
100
AcDbLine
10
219.153856420843
20
239.400687500000
30
0.0
11
218.765637670843
21
237.951781250000
31
0.0
0
LINE
5
a10
100
AcDbEntity
8
9-0
6
CONTINUOUS
62
4
100
AcDbLine
10
219.153856420843
20
239.400687500000
30
0.0
11
219.542168920843
21
237.951781250000
31
0.0
0
LINE
5
a11
100
AcDbEntity
8
9-0
6
CONTINUOUS
62
4
100
AcDbLine
10
234.848981420843
20
239.400687500000
30
0.0
11
240.778887670843
21
233.470781250000
31
0.0
0
LINE
5
a12
100
AcDbEntity
8
9-0
6
CONTINUOUS
62
4
100
AcDbLine
10
229.545731420843
20
239.400687500000
30
0.0
11
240.778887670843
21
228.167531250000
31
0.0
0
LINE
5
a13
100
AcDbEntity
8
9-0
6
CONTINUOUS
62
4
100
AcDbLine
10
225.153950170843
20
238.489218750000
30
0.0
11
236.742481420843
21
226.900687500000
31
0.0
0
LINE
5
a14
100
AcDbEntity
8
9-0
6
CONTINUOUS
62
4
100
AcDbLine
10
223.987793920843
20
204.400687500000
30
0.0
11
212.403856420843
21
204.400687500000
31
0.0
0
LINE
5
a15
100
AcDbEntity
8
9-0
6
CONTINUOUS
62
4
100
AcDbLine
10
225.153950170843
20
204.400687500000
30
0.0
11
240.778887670843
21
204.400687500000
31
0.0
0
LINE
5
a16
100
AcDbEntity
8
9-0
6
CONTINUOUS
62
7
100
AcDbLine
10
240.778887670843
20
217.525687500000
30
0.0
11
240.778887670843
21
200.068031250000
31
0.0
0
LINE
5
a17
100
AcDbEntity
8
9-0
6
CONTINUOUS
62
4
100
AcDbLine
10
213.153856420843
20
204.400687500000
30
0.0
11
212.765637670843
21
205.849593750000
31
0.0
0
LINE
5
a18
100
AcDbEntity
8
9-0
6
CONTINUOUS
62
4
100
AcDbLine
10
213.153856420843
20
204.400687500000
30
0.0
11
213.542168920843
21
205.849593750000
31
0.0
0
LINE
5
a19
100
AcDbEntity
8
9-0
6
CONTINUOUS
62
4
100
AcDbLine
10
225.153950170843
20
239.400687500000
30
0.0
11
225.153950170843
21
204.400687500000
31
0.0
0
LINE
5
a1a
100
AcDbEntity
8
9-0
6
CONTINUOUS
62
4
100
AcDbLine
10
213.153856420843
20
204.400687500000
30
0.0
11
213.153856420843
21
239.400687500000
31
0.0
0
LINE
5
a1b
100
AcDbEntity
8
9-0
6
CONTINUOUS
62
4
100
AcDbLine
10
225.153950170843
20
211.972781250000
30
0.0
11
232.726043920843
21
204.400687500000
31
0.0
0
LINE
5
a1c
100
AcDbEntity
8
9-0
6
CONTINUOUS
62
4
100
AcDbLine
10
225.153950170843
20
217.276031250000
30
0.0
11
238.029293920843
21
204.400687500000
31
0.0
0
TEXT
5
a1d
100
AcDbEntity
8
9-0
62
7
370
-3
100
AcDbText
10
212.330
20
219.847
30
0.0
40
2.175
1
280
41
0.518
50
90.000
100
AcDbText
0
TEXT
5
a1e
100
AcDbEntity
8
9-0
62
7
370
-3
100
AcDbText
10
218.330
20
231.315
30
0.0
40
2.175
41
0.689
50
90.000
1
100
72
1
11
217.435
21
233.151
31
0.0
100
AcDbText
73
2
0
LINE
5
a1f
100
AcDbEntity
8
B-0
6
CONTINUOUS
62
4
100
AcDbLine
10
281.129109772889
20
112.515937500000
30
0.0
11
293.629109772888
21
112.515937500000
31
0.0
0
LINE
5
a20
100
AcDbEntity
8
B-0
6
CONTINUOUS
62
4
100
AcDbLine
10
293.629109772888
20
101.953593750000
30
0.0
11
293.629109772888
21
113.265937500000
31
0.0
0
LINE
5
a21
100
AcDbEntity
8
B-0
6
CONTINUOUS
62
4
100
AcDbLine
10
293.629109772888
20
112.515937500000
30
0.0
11
292.180203522888
21
112.904156250000
31
0.0
0
LINE
5
a22
100
AcDbEntity
8
B-0
6
CONTINUOUS
62
4
100
AcDbLine
10
293.629109772888
20
112.515937500000
30
0.0
11
292.180203522888
21
112.127718750000
31
0.0
0
POLYLINE
5
a23
100
AcDbEntity
8
B-0
6
CONTINUOUS
62
  4
100
AcDb2dPolyline
66
1
10
0.0
20
0.0
30
0.0
70
0
0
VERTEX
5
a24
100
AcDbEntity
8
B-0
6
CONTINUOUS
62
  4
100
AcDbVertex
100
AcDb2dVertex
10
274.879078522888
20
74.772562500000
30
0.0
0
VERTEX
5
a25
100
AcDbEntity
8
B-0
6
CONTINUOUS
62
  4
100
AcDbVertex
100
AcDb2dVertex
10
293.629109772888
20
74.772562500000
30
0.0
0
VERTEX
5
a26
100
AcDbEntity
8
B-0
6
CONTINUOUS
62
  4
100
AcDbVertex
100
AcDb2dVertex
10
292.180203522888
20
75.160781250000
30
0.0
0
SEQEND
5
a27
100
AcDbEntity
8
B-0
0
LINE
5
a28
100
AcDbEntity
8
B-0
6
CONTINUOUS
62
4
100
AcDbLine
10
293.629109772888
20
74.772562500000
30
0.0
11
292.180203522888
21
74.384343750000
31
0.0
0
LINE
5
a29
100
AcDbEntity
8
B-0
6
CONTINUOUS
62
4
100
AcDbLine
10
293.629109772888
20
84.125437500000
30
0.0
11
293.629109772888
21
74.022562500000
31
0.0
0
LINE
5
a2a
100
AcDbEntity
8
B-0
6
CONTINUOUS
62
4
100
AcDbLine
10
303.527609772888
20
85.401750000000
30
0.0
11
303.527609772888
21
101.026781250000
31
0.0
0
LINE
5
a2b
100
AcDbEntity
8
B-0
6
CONTINUOUS
62
4
100
AcDbLine
10
297.885078522888
20
101.026781250000
30
0.0
11
304.277609772888
21
101.026781250000
31
0.0
0
LINE
5
a2c
100
AcDbEntity
8
B-0
6
CONTINUOUS
62
4
100
AcDbLine
10
303.527609772888
20
85.401750000000
30
0.0
11
303.139391022889
21
86.850656250000
31
0.0
0
LINE
5
a2d
100
AcDbEntity
8
B-0
6
CONTINUOUS
62
4
100
AcDbLine
10
303.527609772888
20
85.401750000000
30
0.0
11
303.915828522888
21
86.850656250000
31
0.0
0
LINE
5
a2e
100
AcDbEntity
8
B-0
6
CONTINUOUS
62
4
100
AcDbLine
10
303.527609772888
20
101.026781250000
30
0.0
11
303.139391022889
21
99.577875000000
31
0.0
0
LINE
5
a2f
100
AcDbEntity
8
B-0
6
CONTINUOUS
62
4
100
AcDbLine
10
303.527609772888
20
101.026781250000
30
0.0
11
303.915828522888
21
99.577875000000
31
0.0
0
LINE
5
a30
100
AcDbEntity
8
B-0
6
CONTINUOUS
62
4
100
AcDbLine
10
295.161641022888
20
85.401750000000
30
0.0
11
304.277609772888
21
85.401750000000
31
0.0
0
TEXT
5
a31
100
AcDbEntity
8
B-0
62
7
370
-3
100
AcDbText
10
302.704
20
91.473
30
0.0
40
2.175
1
125
41
0.563
50
90.000
100
AcDbText
0
LINE
5
a32
100
AcDbEntity
8
B-0
6
CONTINUOUS
62
4
100
AcDbLine
10
277.532766022889
20
85.401750000000
30
0.0
11
293.157797272888
21
101.026781250000
31
0.0
0
LINE
5
a33
100
AcDbEntity
8
B-0
6
CONTINUOUS
62
4
100
AcDbLine
10
288.139359772889
20
85.401750000000
30
0.0
11
293.629109772888
21
90.891500000000
31
0.0
0
LINE
5
a34
100
AcDbEntity
8
B-0
6
CONTINUOUS
62
4
100
AcDbLine
10
282.836109772888
20
85.401750000000
30
0.0
11
293.629109772888
21
96.194881956671
31
0.0
0
TEXT
5
a35
100
AcDbEntity
8
B-0
62
7
370
-3
100
AcDbText
10
285.368
20
113.340
30
0.0
40
2.175
41
0.689
50
0.000
1
100
72
1
11
287.203
21
114.235
31
0.0
100
AcDbText
73
2
0
LINE
5
a36
100
AcDbEntity
8
3-E
6
CONTINUOUS
62
4
100
AcDbLine
10
190.857923659589
20
156.081598741605
30
0.0
11
190.857923659589
21
78.998265408272
31
0.0
0
LINE
5
a37
100
AcDbEntity
8
3-E
6
CONTINUOUS
62
4
100
AcDbLine
10
190.857923659589
20
78.455348741605
30
0.0
11
190.857923659589
21
68.165036241605
31
0.0
0
LINE
5
a38
100
AcDbEntity
8
3-E
6
CONTINUOUS
62
4
100
AcDbLine
10
190.857923659589
20
68.998369574938
30
0.0
11
189.248131992923
21
69.429723741605
31
0.0
0
LINE
5
a39
100
AcDbEntity
8
3-E
6
CONTINUOUS
62
4
100
AcDbLine
10
190.857923659589
20
68.998369574938
30
0.0
11
189.248131992923
21
68.567015408272
31
0.0
0
LINE
5
a3a
100
AcDbEntity
8
3-E
6
CONTINUOUS
62
4
100
AcDbLine
10
167.524590326256
20
156.081598741605
30
0.0
11
167.524590326256
21
78.998265408272
31
0.0
0
LINE
5
a3b
100
AcDbEntity
8
3-E
6
CONTINUOUS
62
4
100
AcDbLine
10
167.524590326256
20
78.455348741605
30
0.0
11
167.524590326256
21
68.165036241605
31
0.0
0
LINE
5
a3c
100
AcDbEntity
8
3-E
6
CONTINUOUS
62
4
100
AcDbLine
10
167.524590326256
20
68.998369574938
30
0.0
11
169.134486159589
21
69.429723741605
31
0.0
0
LINE
5
a3d
100
AcDbEntity
8
3-E
6
CONTINUOUS
62
4
100
AcDbLine
10
167.524590326256
20
68.998369574938
30
0.0
11
169.134486159589
21
68.567015408272
31
0.0
0
LINE
5
a3e
100
AcDbEntity
8
3-E
6
CONTINUOUS
62
4
100
AcDbLine
10
167.524590326256
20
78.998265408272
30
0.0
11
190.857923659589
21
78.998265408272
31
0.0
0
LINE
5
a3f
100
AcDbEntity
8
3-E
6
CONTINUOUS
62
4
100
AcDbLine
10
167.524590326256
20
68.998369574938
30
0.0
11
190.857923659589
21
68.998369574938
31
0.0
0
TEXT
5
a40
100
AcDbEntity
8
3-E
62
7
370
-3
100
AcDbText
10
177.252
20
70.013
30
0.0
40
2.175
41
0.518
50
0.000
1
280
72
1
11
179.087
21
70.909
31
0.0
100
AcDbText
73
2
0
LINE
5
a41
100
AcDbEntity
8
3-E
6
CONTINUOUS
62
4
100
AcDbLine
10
182.524590326256
20
99.765557074938
30
0.0
11
190.857923659589
21
91.432223741605
31
0.0
0
LINE
5
a42
100
AcDbEntity
8
3-E
6
CONTINUOUS
62
4
100
AcDbLine
10
182.524590326256
20
105.658161241605
30
0.0
11
190.857923659589
21
97.324827908272
31
0.0
0
LINE
5
a43
100
AcDbEntity
8
3-E
6
CONTINUOUS
62
4
100
AcDbLine
10
182.524590326256
20
111.550661241605
30
0.0
11
190.857923659589
21
103.217327908272
31
0.0
0
LINE
5
a44
100
AcDbEntity
8
3-E
6
CONTINUOUS
62
4
100
AcDbLine
10
182.524590326256
20
117.443265408272
30
0.0
11
190.857923659589
21
109.109932074939
31
0.0
0
LINE
5
a45
100
AcDbEntity
8
3-E
6
CONTINUOUS
62
4
100
AcDbLine
10
182.524590326256
20
123.335765408272
30
0.0
11
190.857923659589
21
115.002432074939
31
0.0
0
LINE
5
a46
100
AcDbEntity
8
3-E
6
CONTINUOUS
62
4
100
AcDbLine
10
182.524590326256
20
129.228265408272
30
0.0
11
190.857923659589
21
120.894932074939
31
0.0
0
LINE
5
a47
100
AcDbEntity
8
3-E
6
CONTINUOUS
62
4
100
AcDbLine
10
182.524590326256
20
135.120869574939
30
0.0
11
190.857923659589
21
126.787536241605
31
0.0
0
LINE
5
a48
100
AcDbEntity
8
3-E
6
CONTINUOUS
62
4
100
AcDbLine
10
182.524590326256
20
141.013369574939
30
0.0
11
190.857923659589
21
132.680036241605
31
0.0
0
LINE
5
a49
100
AcDbEntity
8
3-E
6
CONTINUOUS
62
4
100
AcDbLine
10
182.524590326256
20
146.905973741605
30
0.0
11
190.857923659589
21
138.572640408272
31
0.0
0
LINE
5
a4a
100
AcDbEntity
8
3-E
6
CONTINUOUS
62
4
100
AcDbLine
10
182.524590326256
20
152.798473741605
30
0.0
11
190.857923659589
21
144.465140408272
31
0.0
0
LINE
5
a4b
100
AcDbEntity
8
3-E
6
CONTINUOUS
62
4
100
AcDbLine
10
185.134069492923
20
156.081598741605
30
0.0
11
190.857923659589
21
150.357744574938
31
0.0
0
LINE
5
a4c
100
AcDbEntity
8
3-E
6
CONTINUOUS
62
4
100
AcDbLine
10
181.058965326256
20
78.998265408272
30
0.0
11
190.857923659589
21
88.797356034819
31
0.0
0
LINE
5
a4d
100
AcDbEntity
8
3-E
6
CONTINUOUS
62
4
100
AcDbLine
10
186.951569492922
20
78.998265408272
30
0.0
11
190.857923659589
21
82.904842782422
31
0.0
0
LINE
5
a4e
100
AcDbEntity
8
3-E
6
CONTINUOUS
62
4
100
AcDbLine
10
167.524590326256
20
97.087952908272
30
0.0
11
175.197611159589
21
89.414932074938
31
0.0
0
LINE
5
a4f
100
AcDbEntity
8
3-E
6
CONTINUOUS
62
4
100
AcDbLine
10
167.524590326256
20
102.980452908272
30
0.0
11
175.524694492922
21
94.980452908272
31
0.0
0
LINE
5
a50
100
AcDbEntity
8
3-E
6
CONTINUOUS
62
4
100
AcDbLine
10
167.524590326256
20
108.873057074939
30
0.0
11
175.524694492922
21
100.872952908272
31
0.0
0
LINE
5
a51
100
AcDbEntity
8
3-E
6
CONTINUOUS
62
4
100
AcDbLine
10
167.524590326256
20
114.765557074938
30
0.0
11
175.524694492922
21
106.765452908272
31
0.0
0
LINE
5
a52
100
AcDbEntity
8
3-E
6
CONTINUOUS
62
4
100
AcDbLine
10
167.524590326256
20
120.658161241605
30
0.0
11
175.524694492922
21
112.658057074939
31
0.0
0
LINE
5
a53
100
AcDbEntity
8
3-E
6
CONTINUOUS
62
4
100
AcDbLine
10
167.524590326256
20
126.550661241605
30
0.0
11
175.524694492922
21
118.550557074939
31
0.0
0
LINE
5
a54
100
AcDbEntity
8
3-E
6
CONTINUOUS
62
4
100
AcDbLine
10
167.524590326256
20
132.443265408272
30
0.0
11
175.524694492922
21
124.443161241605
31
0.0
0
LINE
5
a55
100
AcDbEntity
8
3-E
6
CONTINUOUS
62
4
100
AcDbLine
10
167.524590326256
20
138.335765408272
30
0.0
11
175.524694492922
21
130.335661241605
31
0.0
0
LINE
5
a56
100
AcDbEntity
8
3-E
6
CONTINUOUS
62
4
100
AcDbLine
10
167.524590326256
20
144.228265408272
30
0.0
11
175.524694492922
21
136.228265408272
31
0.0
0
LINE
5
a57
100
AcDbEntity
8
3-E
6
CONTINUOUS
62
4
100
AcDbLine
10
167.524590326256
20
150.120869574939
30
0.0
11
175.524694492922
21
142.120765408272
31
0.0
0
LINE
5
a58
100
AcDbEntity
8
3-E
6
CONTINUOUS
62
4
100
AcDbLine
10
167.524590326256
20
156.013369574939
30
0.0
11
175.524694492922
21
148.013369574939
31
0.0
0
LINE
5
a59
100
AcDbEntity
8
3-E
6
CONTINUOUS
62
4
100
AcDbLine
10
167.524590326256
20
83.141598741605
30
0.0
11
173.797923659589
21
89.414932074938
31
0.0
0
LINE
5
a5a
100
AcDbEntity
8
3-E
6
CONTINUOUS
62
4
100
AcDbLine
10
167.524590326256
20
91.195452908272
30
0.0
11
169.305111159589
21
89.414932074938
31
0.0
0
TEXT
5
a5b
100
AcDbEntity
8
1-8
62
7
370
-3
100
AcDbText
10
325.085
20
25.909
30
0.0
40
3.626
41
0.710
50
0.000
1
R5.6.1
72
1
11
331.375
21
27.402
31
0.0
100
AcDbText
73
2
0
LINE
5
a5c
100
AcDbEntity
8
F-E_J_ADD
6
HIDDEN
62
7
100
AcDbLine
10
405.000000000000
20
50.333300000000
30
0.0
11
347.500100000000
21
50.333300000000
31
0.0
0
LINE
5
a5d
100
AcDbEntity
8
F-E_J_ADD
6
HIDDEN
62
7
100
AcDbLine
10
405.000000000000
20
47.666700000000
30
0.0
11
347.500100000000
21
47.666700000000
31
0.0
0
LINE
5
a5e
100
AcDbEntity
8
F-E_J_ADD
6
HIDDEN
62
7
100
AcDbLine
10
405.000000000000
20
45.000000000000
30
0.0
11
347.500100000000
21
45.000000000000
31
0.0
0
LINE
5
a5f
100
AcDbEntity
8
F-E_J_ADD
6
HIDDEN
62
7
100
AcDbLine
10
405.000000000000
20
42.333300000000
30
0.0
11
347.500100000000
21
42.333300000000
31
0.0
0
LINE
5
a60
100
AcDbEntity
8
F-E_J_ADD
6
HIDDEN
62
7
100
AcDbLine
10
405.000000000000
20
39.666700000000
30
0.0
11
347.500100000000
21
39.666700000000
31
0.0
0
LINE
5
a61
100
AcDbEntity
8
F-E_J_ADD
6
HIDDEN
62
7
100
AcDbLine
10
405.000000000000
20
37.000000000000
30
0.0
11
347.500100000000
21
37.000000000000
31
0.0
0
LINE
5
a62
100
AcDbEntity
8
B-0
6
CONTINUOUS
62
4
100
AcDbLine
10
258.629109772888
20
101.026781250000
30
0.0
11
258.629109772888
21
85.401750000000
31
0.0
0
LINE
5
a63
100
AcDbEntity
8
B-E
6
CONTINUOUS
62
4
100
AcDbLine
10
256.508484772888
20
92.231531250000
30
0.0
11
256.508484772888
21
80.231531250000
31
0.0
0
LINE
5
a64
100
AcDbEntity
8
B-0
6
CONTINUOUS
62
4
100
AcDbLine
10
256.508484772888
20
92.231531250000
30
0.0
11
277.854047272888
21
102.478312500000
31
0.0
0
MTEXT
5
a65
100
AcDbEntity
8
B-E
62
7
370
-3
100
AcDbMText
10
225.694
20
80.813
30
0.0
40
2.054
41
0.000
71
7
72
1
1
\W0.972;皿ＢＴ＆ＮＴ{\W0.700;  M8}
7
STANDARD
11
1.00000
21
0.00000
31
0.0
0
MTEXT
5
a66
100
AcDbEntity
8
B-E
62
7
370
-3
100
AcDbMText
10
223.838
20
92.813
30
0.0
40
2.054
41
0.000
71
7
72
1
1
\W0.972;水密ゴム　平型{\W0.700; 60x10t}
7
STANDARD
11
1.00000
21
0.00000
31
0.0
0
LINE
5
a67
100
AcDbEntity
8
B-E
6
CONTINUOUS
62
4
100
AcDbLine
10
217.709766022888
20
80.231531250000
30
0.0
11
256.508484772888
21
80.231531250000
31
0.0
0
MTEXT
5
a68
100
AcDbEntity
8
B-E
62
7
370
-3
100
AcDbMText
10
221.788
20
86.813
30
0.0
40
2.054
41
0.000
71
7
72
1
1
\W0.972;ゴム押え　{\W0.700;PL-6t(SUS304)}
7
STANDARD
11
1.00000
21
0.00000
31
0.0
0
LINE
5
a69
100
AcDbEntity
8
B-E
6
CONTINUOUS
62
4
100
AcDbLine
10
217.709766022888
20
86.231531250000
30
0.0
11
256.508484772888
21
86.231531250000
31
0.0
0
LINE
5
a6a
100
AcDbEntity
8
B-E
6
CONTINUOUS
62
4
100
AcDbLine
10
217.709766022888
20
92.231531250000
30
0.0
11
256.508484772888
21
92.231531250000
31
0.0
0
LINE
5
a6b
100
AcDbEntity
8
B-0
6
CONTINUOUS
62
4
100
AcDbLine
10
293.629109772888
20
85.401750000000
30
0.0
11
258.629109772888
21
85.401750000000
31
0.0
0
LINE
5
a6c
100
AcDbEntity
8
B-0
6
CONTINUOUS
62
4
100
AcDbLine
10
258.629109772888
20
98.316752399529
30
0.0
11
261.337922272888
21
101.026781250000
31
0.0
0
LINE
5
a6d
100
AcDbEntity
8
B-0
6
CONTINUOUS
62
4
100
AcDbLine
10
258.629109772888
20
93.014625000000
30
0.0
11
266.641266022888
21
101.026781250000
31
0.0
0
LINE
5
a6e
100
AcDbEntity
8
B-0
6
CONTINUOUS
62
4
100
AcDbLine
10
258.629109772888
20
87.711259579191
30
0.0
11
271.944516022888
21
101.026781250000
31
0.0
0
LINE
5
a6f
100
AcDbEntity
8
F-E_J_ADD
6
HIDDEN
62
7
100
AcDbLine
10
341.500000000000
20
18.500000000000
30
0.0
11
405.000000000000
21
18.500000000000
31
0.0
0
LINE
5
a70
100
AcDbEntity
8
F-E_J_ADD
6
HIDDEN
62
7
100
AcDbLine
10
400.000000000000
20
23.000000000000
30
0.0
11
400.000000000000
21
14.000000000000
31
0.0
0
TEXT
5
a71
100
AcDbEntity
8
0-0
62
7
370
-3
100
AcDbText
10
398.160
20
16.158
30
0.0
40
3.366
41
0.963
50
0.000
1
１
72
1
11
400.250
21
17.794
31
0.0
100
AcDbText
73
2
0
LINE
5
a72
100
AcDbEntity
8
3-E
6
CONTINUOUS
62
4
100
AcDbLine
10
67.287611159589
20
224.838786241605
30
0.0
11
29.333790398679
21
224.838786241605
31
0.0
0
MTEXT
5
a73
100
AcDbEntity
8
B-E
62
7
370
-3
100
AcDbMText
10
239.910
20
74.606
30
0.0
40
2.054
41
0.000
71
5
72
1
1
\W0.972;下部戸当り{\W0.700; L100x75x7(SS400)}
7
STANDARD
11
1.00000
21
0.00000
31
0.0
0
TEXT
5
a74
100
AcDbEntity
8
0-1
62
7
370
-3
100
AcDbText
10
236.716
20
70.250
30
0.0
40
2.175
41
0.572
50
0.000
1
L100x75x6(SUS304)
72
1
11
247.600
21
71.145
31
0.0
100
AcDbText
73
2
0
TEXT
5
a75
100
AcDbEntity
8
0-1
62
7
370
-3
100
AcDbText
10
41.839
20
222.077
30
0.0
40
2.175
41
0.557
50
0.000
1
PLC180x75x6(SUS304)
72
1
11
54.014
21
222.973
31
0.0
100
AcDbText
73
2
0
MTEXT
5
a76
100
AcDbEntity
8
3-E
62
7
370
-3
100
AcDbMText
10
46.354
20
226.584
30
0.0
40
2.054
41
0.000
71
5
72
1
1
\W0.972;上部{\W0.700;ﾋﾟｱ- C180x75x7(SS400)}
7
STANDARD
11
1.00000
21
0.00000
31
0.0
0
TEXT
5
a77
100
AcDbEntity
8
9-B
62
3
370
-3
100
AcDbText
10
225.990
20
257.332
30
0.0
40
3.626
1
側部詳細図
41
0.856
50
0.000
100
AcDbText
0
TEXT
5
a78
100
AcDbEntity
8
B-B
62
3
370
-3
100
AcDbText
10
264.630
20
168.265
30
0.0
40
3.626
1
下部詳細図
41
0.856
50
0.000
100
AcDbText
0
LINE
5
a79
100
AcDbEntity
8
F-E_J_ADD
6
HIDDEN
62
109
100
AcDbLine
10
0.000000000000
20
297.000000000000
30
0.0
11
420.000000000000
21
297.000000000000
31
0.0
0
LINE
5
a7a
100
AcDbEntity
8
F-E_J_ADD
6
HIDDEN
62
109
100
AcDbLine
10
420.000000000000
20
297.000000000000
30
0.0
11
420.000000000000
21
0.000000000000
31
0.0
0
LINE
5
a7b
100
AcDbEntity
8
F-E_J_ADD
6
HIDDEN
62
109
100
AcDbLine
10
0.000000000000
20
0.000000000000
30
0.0
11
420.000000000000
21
0.000000000000
31
0.0
0
LINE
5
a7c
100
AcDbEntity
8
F-E_J_ADD
6
HIDDEN
62
109
100
AcDbLine
10
0.000000000000
20
297.000000000000
30
0.0
11
0.000000000000
21
0.000000000000
31
0.0
0
ENDSEC
 0
SECTION
  2
OBJECTS
 0
DICTIONARY
  5
C
100
AcDbDictionary
  3
ACAD_GROUP
350
D
  3
ACAD_MLINESTYLE
350
E
 0
DICTIONARY
  5
D
102
{ACAD_REACTORS
102
}
100
AcDbDictionary
 0
DICTIONARY
  5
E
102
{ACAD_REACTORS
102
}
100
AcDbDictionary
  3
STANDARD
350
13
0
MLINESTYLE
  5
13
102
{ACAD_REACTORS
102
}
100
AcDbMlineStyle
  2
STANDARD
 70
    0
3

62
256
51
90.0
52
90.0
71
0
0
ACDBPLACEHOLDER
  5
14
102
{ACAD_REACTORS
102
}
0
ENDSEC
0
EOF
