0
SECTION
2
HEADER
9
$ACADVER
1
AC1015
9
$ACADMAINTVER
 70
6
9
$DWGCODEPAGE
3
ANSI_932
9
$EXTMIN
10
0.000
20
0.000
30
0.0
9
$EXTMAX
10
420.000
20
297.000
30
0.0
9
$LIMMIN
10
0.000
20
0.000
9
$LIMMAX
10
420.000
20
297.000
9
$DIMSCALE
40
1.000000
9
$LTSCALE
40
2.000
9
$PDMODE
70
0
9
$PDSIZE
40
40.0
9
$HANDSEED
5
620e4
9
$UNITMODE
70
0
9
$VISRETAIN
70
0
9
$PLINEGEN
70
0
9
$PSLTSCALE
70
1
9
$TREEDEPTH
70
3020
9
$CMLSTYLE
2
STANDARD
9
$CMLJUST
70
0
9
$CMLSCALE
40
1.0
9
$PROXYGRAPHICS
70
1
9
$MEASUREMENT
70
0
9
$CELWEIGHT
370
-1
9
$ENDCAPS
280
0
9
$JOINSTYLE
280
0
9
$LWDISPLAY
290
0
9
$INSUNITS
70
0
9
$HYPERLINKBASE
1

9
$STYLESHEET
1

9
$XEDIT
290
1
9
$CEPSNTYPE
380
0
9
$PSTYLEMODE
290
1
9
$FINGERPRINTGUID
2
{5F082321-0195-11D3-BDFB-0060B0CD5109}
9
$VERSIONGUID
2
{12943756-294D-11D3-98C2-0060B087942D}
9
$EXTNAMES
290
1
9
$PSVPSCALE
40
0.0
9
$OLESTARTUP
290
0
0
ENDSEC
0
SECTION
  2
CLASSES
0
ENDSEC
0
SECTION
2
TABLES
0
TABLE
2
VPORT
5
190
100
AcDbSymbolTable
70
2
0
VPORT
5
191
100
AcDbSymbolTableRecord
100
AcDbViewportTableRecord
2
*ACTIVE
70
0
10
0.0
20
0.0
11
1.0
21
1.0
12
210.000
22
148.500
13
0.0
23
0.0
14
1.0
24
1.0
15
0.0
25
0.0
16
0.0
26
0.0
36
1.0
17
0.0
27
0.0
37
0.0
40
304.348
41
2.0
42
50.0
43
0.0
44
0.0
50
0.0
51
0.0
71
0
72
1000
73
1
74
1
75
0
76
0
77
0
78
0
0
ENDTAB
0
TABLE
2
LTYPE
5
1f4
100
AcDbSymbolTable
70
9
0
LTYPE
5
1f5
100
AcDbSymbolTableRecord
100
AcDbLinetypeTableRecord
2
BYBLOCK
70
 64
3

72
 65
73
  0
40
0.0
0
LTYPE
5
1f6
100
AcDbSymbolTableRecord
100
AcDbLinetypeTableRecord
2
BYLAYER
70
 64
3

72
 65
73
  0
40
0.0
0
LTYPE
5
1f7
100
AcDbSymbolTableRecord
100
AcDbLinetypeTableRecord
2
CONTINUOUS
70
64
3
SolidLine
72
65
73
0
40
0.0
0
LTYPE
5
1f8
100
AcDbSymbolTableRecord
100
AcDbLinetypeTableRecord
2
DOT
70
64
3
--  --  --  --  --  --  --  --     
72
65
73
2
40
3.000
49
1.000
74
0
49
-2.000
74
0
0
LTYPE
5
1f9
100
AcDbSymbolTableRecord
100
AcDbLinetypeTableRecord
2
DASHED
70
64
3
----    ----    ----    ----    
72
65
73
2
40
5.000
49
2.000
74
0
49
-3.000
74
0
0
LTYPE
5
1fa
100
AcDbSymbolTableRecord
100
AcDbLinetypeTableRecord
2
DASHED2
70
64
3
------  ------  ------  ------ 
72
65
73
2
40
10.000
49
4.000
74
0
49
-6.000
74
0
0
LTYPE
5
1fb
100
AcDbSymbolTableRecord
100
AcDbLinetypeTableRecord
2
CENTER
70
64
3
----- - ----- - ----- - ----- - 
72
65
73
4
40
10.000
49
6.000
74
0
49
-3.000
74
0
49
1.000
74
0
49
-3.000
74
0
0
LTYPE
5
1fc
100
AcDbSymbolTableRecord
100
AcDbLinetypeTableRecord
2
CENTER2
70
64
3
----------  --  ----------  -- 
72
65
73
4
40
17.000
49
12.000
74
0
49
-5.000
74
0
49
2.000
74
0
49
-5.000
74
0
0
LTYPE
5
1fd
100
AcDbSymbolTableRecord
100
AcDbLinetypeTableRecord
2
PHANTOM
70
64
3
--- - - --- - - --- - - --- - -
72
65
73
6
40
13.000
49
5.000
74
0
49
-3.000
74
0
49
1.000
74
0
49
-3.000
74
0
49
1.000
74
0
49
-3.000
74
0
0
LTYPE
5
1fe
100
AcDbSymbolTableRecord
100
AcDbLinetypeTableRecord
2
PHANTOM2
70
64
3
--------  -  -  --------  -  -
72
65
73
6
40
20.000
49
6.000
74
0
49
-5.000
74
0
49
2.000
74
0
49
-5.000
74
0
49
2.000
74
0
49
-5.000
74
0
0
LTYPE
5
1ff
100
AcDbSymbolTableRecord
100
AcDbLinetypeTableRecord
2
HIDDEN
70
64
3
-   -   -   -   -   -   -   -   
72
65
73
2
40
3.000
49
0.500
74
0
49
-2.500
74
0
0
ENDTAB
0
TABLE
2
STYLE
5
200
100
AcDbSymbolTable
70
1
0
STYLE
5
201
100
AcDbSymbolTableRecord
100
AcDbTextStyleTableRecord
2
STANDARD
70
0
40
0.0
41
1.0
50
0.0
71
0
42
0.0
3
txt.shx
4
extfont.shx
0
STYLE
5
202
100
AcDbSymbolTableRecord
100
AcDbTextStyleTableRecord
2
TATEGAKI
70
4
40
0.0
41
1.0
50
0.0
71
0
42
0.0
3
txt.shx
4
extfont.shx
0
STYLE
5
203
100
AcDbSymbolTableRecord
100
AcDbTextStyleTableRecord
2
DIM
70
0
40
0.0
41
0.75
50
0.0
71
0
42
0.0
3
txt.shx
4
extfont.shx
0
STYLE
5
204
100
AcDbSymbolTableRecord
100
AcDbTextStyleTableRecord
2
_Gothic_
70
0
40
1.0
41
1.0
50
0.0
71
0
42
10.0
3

4

1001
ACAD
1000
MS Gothic
1071
32817
0
STYLE
5
205
100
AcDbSymbolTableRecord
100
AcDbTextStyleTableRecord
2
_TateGothic_
70
4
40
0.0
41
1.0
50
0.0
71
0
42
0.0
3
@MS Gothic
4

0
ENDTAB
0
TABLE
2
VIEW
5
206
100
AcDbSymbolTable
70
0
0
ENDTAB
0
TABLE
2
UCS
5
207
100
AcDbSymbolTable
70
0
0
ENDTAB
0
TABLE
2
APPID
5
208
100
AcDbSymbolTable
70
1
0
APPID
5
209
100
AcDbSymbolTableRecord
100
AcDbRegAppTableRecord
2
ACAD
70
0
0
ENDTAB
0
TABLE
2
DIMSTYLE
5
403
330
0
100
AcDbSymbolTable
70
1
100
AcDbDimStyleTable
71
0
0
DIMSTYLE
105
404
330
402
100
AcDbSymbolTableRecord
100
AcDbDimStyleTableRecord
2
JAC_DIM
70
0
41
2.000
42
0.000
44
0.0
73
0
74
0
77
1
78
8
79
2
140
0.000
170
0
171
2
172
0
173
0
174
0
175
0
176
0
177
0
178
0
270
2
271
0
272
0
273
2
274
2
340
201
275
0
280
0
281
0
282
0
283
0
284
0
285
0
286
0
287
3
288
0
0
ENDTAB
0
TABLE
2
BLOCK_RECORD
5
405
100
AcDbSymbolTable
70
0
0
BLOCK_RECORD
5
406
100
AcDbSymbolTableRecord
100
AcDbBlockTableRecord
2
*MODEL_SPACE
0
BLOCK_RECORD
5
407
100
AcDbSymbolTableRecord
100
AcDbBlockTableRecord
2
*PAPER_SPACE
0
BLOCK_RECORD
5
408
100
AcDbSymbolTableRecord
100
AcDbBlockTableRecord
2
_JACCONVERT_
0
ENDTAB
0
TABLE
2
LAYER
5
409
100
AcDbSymbolTable
70
10
0
LAYER
5
40a
100
AcDbSymbolTableRecord
100
AcDbLayerTableRecord
2
0
70
0
62
7
6
CONTINUOUS
370
-3
390
14
0
LAYER
5
40b
100
AcDbSymbolTableRecord
100
AcDbLayerTableRecord
2
0-0
70
0
62
7
6
CONTINUOUS
370
-3
390
14
0
LAYER
5
40c
100
AcDbSymbolTableRecord
100
AcDbLayerTableRecord
2
1-0
70
0
62
7
6
CONTINUOUS
370
-3
390
14
0
LAYER
5
40d
100
AcDbSymbolTableRecord
100
AcDbLayerTableRecord
2
1-1
70
0
62
7
6
CONTINUOUS
370
-3
390
14
0
LAYER
5
40e
100
AcDbSymbolTableRecord
100
AcDbLayerTableRecord
2
1-3
70
0
62
7
6
CONTINUOUS
370
-3
390
14
0
LAYER
5
40f
100
AcDbSymbolTableRecord
100
AcDbLayerTableRecord
2
1-4
70
0
62
7
6
CONTINUOUS
370
-3
390
14
0
LAYER
5
410
100
AcDbSymbolTableRecord
100
AcDbLayerTableRecord
2
1-6
70
0
62
7
6
CONTINUOUS
370
-3
390
14
0
LAYER
5
411
100
AcDbSymbolTableRecord
100
AcDbLayerTableRecord
2
1-8
70
0
62
7
6
CONTINUOUS
370
-3
390
14
0
LAYER
5
412
100
AcDbSymbolTableRecord
100
AcDbLayerTableRecord
2
1-A
70
0
62
7
6
CONTINUOUS
370
-3
390
14
0
LAYER
5
413
100
AcDbSymbolTableRecord
100
AcDbLayerTableRecord
2
1-B
70
0
62
7
6
CONTINUOUS
370
-3
390
14
0
LAYER
5
414
100
AcDbSymbolTableRecord
100
AcDbLayerTableRecord
2
1-E
70
0
62
7
6
CONTINUOUS
370
-3
390
14
0
LAYER
5
415
100
AcDbSymbolTableRecord
100
AcDbLayerTableRecord
2
2-0
70
0
62
7
6
CONTINUOUS
370
-3
390
14
0
LAYER
5
416
100
AcDbSymbolTableRecord
100
AcDbLayerTableRecord
2
2-1
70
0
62
7
6
CONTINUOUS
370
-3
390
14
0
LAYER
5
417
100
AcDbSymbolTableRecord
100
AcDbLayerTableRecord
2
2-B
70
0
62
7
6
CONTINUOUS
370
-3
390
14
0
LAYER
5
418
100
AcDbSymbolTableRecord
100
AcDbLayerTableRecord
2
3-0
70
0
62
7
6
CONTINUOUS
370
-3
390
14
0
LAYER
5
419
100
AcDbSymbolTableRecord
100
AcDbLayerTableRecord
2
F-F_J_ADD
70
0
62
7
6
CONTINUOUS
290
0
370
-3
390
14
0
LAYER
5
41a
100
AcDbSymbolTableRecord
100
AcDbLayerTableRecord
2
F-E_J_ADD
70
0
62
-7
6
CONTINUOUS
290
0
370
-3
390
14
0
ENDTAB
0
ENDSEC
0
SECTION
2
BLOCKS
0
BLOCK
5
41b
100
AcDbEntity
67
1
8
0
100
AcDbBlockBegin
2
*MODEL_SPACE
70
0
10
0.0
20
0.0
30
0.0
3
*MODEL_SPACE
1

0
ENDBLK
5
41c
100
AcDbEntity
8
0
100
AcDbBlockEnd
0
BLOCK
5
41d
100
AcDbEntity
67
1
8
0
100
AcDbBlockBegin
2
*PAPER_SPACE
70
0
10
0.0
20
0.0
30
0.0
3
*PAPER_SPACE
1

0
ENDBLK
5
41e
100
AcDbEntity
67
1
8
0
100
AcDbBlockEnd
0
BLOCK
5
41f
100
AcDbEntity
8
0
100
AcDbBlockBegin
2
_JACCONVERT_
70
2
10
0.0
20
0.0
30
0.0
3
_JACCONVERT_
1
_JACCONVERT_
0
ATTDEF
5
420
100
AcDbEntity
8
0
62
0
100
AcDbText
10
0.0
20
0.0
30
0.0
40
1.0
1
User:33307E08109409567083093083089083760830E50960850900C608B4808D6408F6408F4F08E
100
AcDbAttributeDefinition
3

2
USER
70
8
0
ATTDEF
5
421
100
AcDbEntity
8
0
62
0
100
AcDbText
10
0.0
20
2.0
30
0.0
40
1.0
1
Date:24/01/30 10:25
100
AcDbAttributeDefinition
3

2
REVDATE
70
8
0
ATTDEF
5
422
100
AcDbEntity
8
0
62
0
100
AcDbText
10
0.0
20
4.0
30
0.0
40
1.0
1
File:_四方水密.dxf
100
AcDbAttributeDefinition
3

2
FNAME
70
8
0
ATTDEF
5
423
100
AcDbEntity
8
0
62
0
100
AcDbText
10
0.0
20
6.0
30
0.0
40
1.0
1
JacConvert Version3.13p copyright (c) 2001-2021 K.Nakahara
100
AcDbAttributeDefinition
3

2
VER
70
8
0
ENDBLK
5
424
100
AcDbEntity
67
1
8
0
100
AcDbBlockEnd
0
ENDSEC
0
SECTION
2
ENTITIES
0
TEXT
5
425
100
AcDbEntity
8
1-E
62
7
370
-3
100
AcDbText
10
301.960
20
152.688
30
0.0
40
2.176
41
0.521
50
0.000
1
PL-9t
72
1
11
305.088
21
153.584
31
0.0
100
AcDbText
73
2
0
LINE
5
426
100
AcDbEntity
8
1-1
6
CONTINUOUS
62
3
100
AcDbLine
10
87.711400000000
20
146.560800000000
30
0.0
11
88.671500000000
21
146.560800000000
31
0.0
0
ARC
5
427
100
AcDbEntity
8
1-0
6
CONTINUOUS
62
7
100
AcDbCircle
10
177.535500000000
20
82.160700000000
30
0.0
40
0.400000000000
100
AcDbArc
50
180.000000000000
51
270.000000000000
0
ARC
5
428
100
AcDbEntity
8
1-0
6
CONTINUOUS
62
7
100
AcDbCircle
10
177.535500000000
20
82.160700000000
30
0.0
40
0.400000000000
100
AcDbArc
50
180.000000000000
51
270.000000000000
0
TEXT
5
429
100
AcDbEntity
8
1-E
62
7
370
-3
100
AcDbText
10
95.575
20
117.455
30
0.0
40
2.176
1
ｽｷﾝﾌﾟﾚ-ﾄ
41
0.794
50
0.000
100
AcDbText
0
POLYLINE
5
42a
100
AcDbEntity
  8
1-E
6
CONTINUOUS
62
4
100
AcDb2dPolyline
66
1
10
0
20
0
70
1
40
0.400
41
0.400
0
VERTEX
5
42b
100
AcDbEntity
  8
1-E
6
CONTINUOUS
62
4
100
AcDbVertex
100
AcDb2dVertex
10
91.780
20
212.747
30
0.0
42
1.000
0
VERTEX
5
42c
100
AcDbEntity
  8
1-E
6
CONTINUOUS
62
4
100
AcDbVertex
100
AcDb2dVertex
10
92.180
20
212.747
30
0.0
42
1.000
0
SEQEND
5
42d
100
AcDbEntity
  8
1-E
0
POLYLINE
5
42e
100
AcDbEntity
  8
1-E
6
CONTINUOUS
62
4
100
AcDb2dPolyline
66
1
10
0
20
0
70
1
40
0.400
41
0.400
0
VERTEX
5
42f
100
AcDbEntity
  8
1-E
6
CONTINUOUS
62
4
100
AcDbVertex
100
AcDb2dVertex
10
91.780
20
212.747
30
0.0
42
1.000
0
VERTEX
5
430
100
AcDbEntity
  8
1-E
6
CONTINUOUS
62
4
100
AcDbVertex
100
AcDb2dVertex
10
92.180
20
212.747
30
0.0
42
1.000
0
SEQEND
5
431
100
AcDbEntity
  8
1-E
0
LINE
5
432
100
AcDbEntity
8
1-1
6
CONTINUOUS
62
3
100
AcDbLine
10
87.471400000000
20
145.360800000000
30
0.0
11
87.471400000000
21
142.560800000000
31
0.0
0
LINE
5
433
100
AcDbEntity
8
1-1
6
CONTINUOUS
62
3
100
AcDbLine
10
87.471400000000
20
145.360800000000
30
0.0
11
87.711400000000
21
145.360800000000
31
0.0
0
LINE
5
434
100
AcDbEntity
8
1-1
6
CONTINUOUS
62
3
100
AcDbLine
10
87.471400000000
20
142.560800000000
30
0.0
11
87.711400000000
21
142.560800000000
31
0.0
0
LINE
5
435
100
AcDbEntity
8
1-1
6
CONTINUOUS
62
3
100
AcDbLine
10
86.351400000000
20
144.560800000000
30
0.0
11
86.351400000000
21
142.960800000000
31
0.0
0
LINE
5
436
100
AcDbEntity
8
1-1
6
CONTINUOUS
62
3
100
AcDbLine
10
86.351400000000
20
144.560800000000
30
0.0
11
87.471400000000
21
144.560800000000
31
0.0
0
LINE
5
437
100
AcDbEntity
8
1-1
6
CONTINUOUS
62
3
100
AcDbLine
10
86.351400000000
20
142.960800000000
30
0.0
11
87.471400000000
21
142.960800000000
31
0.0
0
LINE
5
438
100
AcDbEntity
8
1-1
6
CONTINUOUS
62
3
100
AcDbLine
10
88.671500000000
20
144.560800000000
30
0.0
11
88.751400000000
21
144.560800000000
31
0.0
0
LINE
5
439
100
AcDbEntity
8
1-1
6
CONTINUOUS
62
3
100
AcDbLine
10
88.671500000000
20
142.960800000000
30
0.0
11
88.751400000000
21
142.960800000000
31
0.0
0
LINE
5
43a
100
AcDbEntity
8
1-1
6
CONTINUOUS
62
3
100
AcDbLine
10
118.431500000000
20
88.160800000000
30
0.0
11
90.031500000000
21
88.160800000000
31
0.0
0
LINE
5
43b
100
AcDbEntity
8
1-1
6
CONTINUOUS
62
3
100
AcDbLine
10
92.351400000000
20
146.560800000000
30
0.0
11
91.391500000000
21
146.560800000000
31
0.0
0
LINE
5
43c
100
AcDbEntity
8
1-1
6
CONTINUOUS
62
3
100
AcDbLine
10
92.591400000000
20
145.360800000000
30
0.0
11
92.591400000000
21
142.560800000000
31
0.0
0
LINE
5
43d
100
AcDbEntity
8
1-1
6
CONTINUOUS
62
3
100
AcDbLine
10
92.591400000000
20
145.360800000000
30
0.0
11
92.351400000000
21
145.360800000000
31
0.0
0
LINE
5
43e
100
AcDbEntity
8
1-1
6
CONTINUOUS
62
3
100
AcDbLine
10
92.591400000000
20
142.560800000000
30
0.0
11
92.351400000000
21
142.560800000000
31
0.0
0
LINE
5
43f
100
AcDbEntity
8
1-1
6
CONTINUOUS
62
3
100
AcDbLine
10
93.711500000000
20
144.560800000000
30
0.0
11
93.711500000000
21
142.960800000000
31
0.0
0
LINE
5
440
100
AcDbEntity
8
1-1
6
CONTINUOUS
62
3
100
AcDbLine
10
93.711500000000
20
144.560800000000
30
0.0
11
92.591400000000
21
144.560800000000
31
0.0
0
LINE
5
441
100
AcDbEntity
8
1-1
6
CONTINUOUS
62
3
100
AcDbLine
10
93.711500000000
20
142.960800000000
30
0.0
11
92.591400000000
21
142.960800000000
31
0.0
0
LINE
5
442
100
AcDbEntity
8
1-1
6
CONTINUOUS
62
3
100
AcDbLine
10
91.391500000000
20
144.560800000000
30
0.0
11
91.311500000000
21
144.560800000000
31
0.0
0
LINE
5
443
100
AcDbEntity
8
1-1
6
CONTINUOUS
62
3
100
AcDbLine
10
91.391500000000
20
142.960800000000
30
0.0
11
91.311500000000
21
142.960800000000
31
0.0
0
LINE
5
444
100
AcDbEntity
8
1-0
6
CONTINUOUS
62
7
100
AcDbLine
10
177.535500000000
20
81.760800000000
30
0.0
11
177.695500000000
21
81.760800000000
31
0.0
0
LINE
5
445
100
AcDbEntity
8
1-0
6
CONTINUOUS
62
7
100
AcDbLine
10
177.135600000000
20
86.400700000000
30
0.0
11
177.135600000000
21
82.160700000000
31
0.0
0
POLYLINE
5
446
100
AcDbEntity
8
1-0
6
CONTINUOUS
62
  2
100
AcDb2dPolyline
66
1
10
0.0
20
0.0
30
0.0
70
0
0
VERTEX
5
447
100
AcDbEntity
8
1-0
6
CONTINUOUS
62
  2
100
AcDbVertex
100
AcDb2dVertex
10
115.391400000000
20
127.760800000000
30
0.0
0
VERTEX
5
448
100
AcDbEntity
8
1-0
6
CONTINUOUS
62
  2
100
AcDbVertex
100
AcDb2dVertex
10
115.391400000000
20
119.760800000000
30
0.0
0
VERTEX
5
449
100
AcDbEntity
8
1-0
6
CONTINUOUS
62
  2
100
AcDbVertex
100
AcDb2dVertex
10
116.671400000000
20
119.760800000000
30
0.0
0
VERTEX
5
44a
100
AcDbEntity
8
1-0
6
CONTINUOUS
62
  2
100
AcDbVertex
100
AcDb2dVertex
10
116.671400000000
20
127.760800000000
30
0.0
0
VERTEX
5
44b
100
AcDbEntity
8
1-0
6
CONTINUOUS
62
  2
100
AcDbVertex
100
AcDb2dVertex
10
115.391400000000
20
127.760800000000
30
0.0
0
SEQEND
5
44c
100
AcDbEntity
8
1-0
0
LINE
5
44d
100
AcDbEntity
8
1-0
6
CENTER2
62
2
100
AcDbLine
10
117.675400000000
20
123.760700000000
30
0.0
11
114.273200000000
21
123.760700000000
31
0.0
0
LINE
5
44e
100
AcDbEntity
8
1-1
6
CONTINUOUS
62
3
100
AcDbLine
10
174.255600000000
20
139.760800000000
30
0.0
11
175.215600000000
21
139.760800000000
31
0.0
0
LINE
5
44f
100
AcDbEntity
8
1-1
6
CONTINUOUS
62
3
100
AcDbLine
10
174.255600000000
20
139.760800000000
30
0.0
11
174.255600000000
21
88.160800000000
31
0.0
0
LINE
5
450
100
AcDbEntity
8
1-1
6
CONTINUOUS
62
3
100
AcDbLine
10
175.215600000000
20
87.360700000000
30
0.0
11
176.015500000000
21
87.360700000000
31
0.0
0
POLYLINE
5
451
100
AcDbEntity
8
1-1
6
CONTINUOUS
62
  3
100
AcDb2dPolyline
66
1
10
0.0
20
0.0
30
0.0
70
0
0
VERTEX
5
452
100
AcDbEntity
8
1-1
6
CONTINUOUS
62
  3
100
AcDbVertex
100
AcDb2dVertex
10
175.215600000000
20
92.160700000000
30
0.0
0
VERTEX
5
453
100
AcDbEntity
8
1-1
6
CONTINUOUS
62
  3
100
AcDbVertex
100
AcDb2dVertex
10
176.015500000000
20
92.160700000000
30
0.0
0
VERTEX
5
454
100
AcDbEntity
8
1-1
6
CONTINUOUS
62
  3
100
AcDbVertex
100
AcDb2dVertex
10
176.015500000000
20
87.360700000000
30
0.0
0
SEQEND
5
455
100
AcDbEntity
8
1-1
0
LINE
5
456
100
AcDbEntity
8
1-1
6
CONTINUOUS
62
3
100
AcDbLine
10
176.015500000000
20
91.280700000000
30
0.0
11
176.495500000000
21
91.280700000000
31
0.0
0
LINE
5
457
100
AcDbEntity
8
1-1
6
CENTER2
62
3
100
AcDbLine
10
173.082800000000
20
89.760700000000
30
0.0
11
176.819600000000
21
89.760700000000
31
0.0
0
LINE
5
458
100
AcDbEntity
8
1-1
6
CONTINUOUS
62
3
100
AcDbLine
10
176.015500000000
20
88.240700000000
30
0.0
11
176.495500000000
21
88.240700000000
31
0.0
0
LINE
5
459
100
AcDbEntity
8
1-0
6
CENTER2
62
2
100
AcDbLine
10
116.031400000000
20
118.561000000000
30
0.0
11
116.031400000000
21
129.260100000000
31
0.0
0
LINE
5
45a
100
AcDbEntity
8
1-1
6
CONTINUOUS
62
3
100
AcDbLine
10
87.711400000000
20
146.560800000000
30
0.0
11
87.711400000000
21
138.160800000000
31
0.0
0
LINE
5
45b
100
AcDbEntity
8
1-1
6
CONTINUOUS
62
3
100
AcDbLine
10
88.671500000000
20
146.560800000000
30
0.0
11
88.671500000000
21
138.160800000000
31
0.0
0
LINE
5
45c
100
AcDbEntity
8
1-1
6
CONTINUOUS
62
3
100
AcDbLine
10
91.391500000000
20
146.560800000000
30
0.0
11
91.391500000000
21
138.160800000000
31
0.0
0
LINE
5
45d
100
AcDbEntity
8
1-1
6
CONTINUOUS
62
3
100
AcDbLine
10
92.351400000000
20
146.560800000000
30
0.0
11
92.351400000000
21
138.160800000000
31
0.0
0
LINE
5
45e
100
AcDbEntity
8
1-A
6
CONTINUOUS
62
2
100
AcDbLine
10
167.729400000000
20
202.125900000000
30
0.0
11
168.109700000000
21
206.470600000000
31
0.0
0
LINE
5
45f
100
AcDbEntity
8
1-A
6
CONTINUOUS
62
2
100
AcDbLine
10
167.331100000000
20
201.760800000000
30
0.0
11
167.135500000000
21
201.760800000000
31
0.0
0
LINE
5
460
100
AcDbEntity
8
1-A
6
CONTINUOUS
62
2
100
AcDbLine
10
180.941600000000
20
202.125900000000
30
0.0
11
180.561500000000
21
206.470600000000
31
0.0
0
LINE
5
461
100
AcDbEntity
8
1-A
6
CONTINUOUS
62
2
100
AcDbLine
10
181.340200000000
20
201.760800000000
30
0.0
11
181.535500000000
21
201.760800000000
31
0.0
0
LINE
5
462
100
AcDbEntity
8
1-A
6
CONTINUOUS
62
2
100
AcDbLine
10
59.631500000000
20
201.760800000000
30
0.0
11
90.031500000000
21
201.760800000000
31
0.0
0
LINE
5
463
100
AcDbEntity
8
1-A
6
CONTINUOUS
62
2
100
AcDbLine
10
59.631500000000
20
207.760800000000
30
0.0
11
59.631500000000
21
201.760800000000
31
0.0
0
LINE
5
464
100
AcDbEntity
8
1-0
6
CONTINUOUS
62
7
100
AcDbLine
10
118.911500000000
20
207.200800000000
30
0.0
11
118.911500000000
21
87.760800000000
31
0.0
0
LINE
5
465
100
AcDbEntity
8
1-A
6
CONTINUOUS
62
2
100
AcDbLine
10
120.431500000000
20
207.760800000000
30
0.0
11
120.431500000000
21
201.760800000000
31
0.0
0
LINE
5
466
100
AcDbEntity
8
1-0
6
CONTINUOUS
62
7
100
AcDbLine
10
66.031500000000
20
201.760800000000
30
0.0
11
66.031500000000
21
87.760800000000
31
0.0
0
LINE
5
467
100
AcDbEntity
8
1-A
6
CONTINUOUS
62
2
100
AcDbLine
10
168.109700000000
20
206.470600000000
30
0.0
11
168.109700000000
21
201.266700000000
31
0.0
0
LINE
5
468
100
AcDbEntity
8
1-A
6
CONTINUOUS
62
2
100
AcDbLine
10
170.975500000000
20
198.400800000000
30
0.0
11
168.109700000000
21
201.266700000000
31
0.0
0
LINE
5
469
100
AcDbEntity
8
1-A
6
CONTINUOUS
62
2
100
AcDbLine
10
180.561500000000
20
206.470600000000
30
0.0
11
180.561500000000
21
201.266700000000
31
0.0
0
LINE
5
46a
100
AcDbEntity
8
1-A
6
CONTINUOUS
62
2
100
AcDbLine
10
177.695500000000
20
198.400800000000
30
0.0
11
180.561500000000
21
201.266700000000
31
0.0
0
LINE
5
46b
100
AcDbEntity
8
1-A
6
CONTINUOUS
62
2
100
AcDbLine
10
65.551500000000
20
201.760800000000
30
0.0
11
65.551500000000
21
198.400800000000
31
0.0
0
LINE
5
46c
100
AcDbEntity
8
1-A
6
CONTINUOUS
62
2
100
AcDbLine
10
66.031500000000
20
198.400800000000
30
0.0
11
65.551500000000
21
198.400800000000
31
0.0
0
LINE
5
46d
100
AcDbEntity
8
1-A
6
DOT
62
2
100
AcDbLine
10
65.071500000000
20
206.720800000000
30
0.0
11
61.151500000000
21
206.720800000000
31
0.0
0
LINE
5
46e
100
AcDbEntity
8
1-A
6
DOT
62
2
100
AcDbLine
10
65.551500000000
20
206.240900000000
30
0.0
11
65.551500000000
21
201.760800000000
31
0.0
0
LINE
5
46f
100
AcDbEntity
8
1-A
6
DOT
62
2
100
AcDbLine
10
65.071500000000
20
207.200800000000
30
0.0
11
59.631500000000
21
207.200800000000
31
0.0
0
LINE
5
470
100
AcDbEntity
8
1-A
6
DOT
62
2
100
AcDbLine
10
66.031500000000
20
206.240800000000
30
0.0
11
66.031500000000
21
201.760800000000
31
0.0
0
LINE
5
471
100
AcDbEntity
8
1-A
6
DOT
62
2
100
AcDbLine
10
65.071500000000
20
207.200800000000
30
0.0
11
90.031500000000
21
207.200800000000
31
0.0
0
LINE
5
472
100
AcDbEntity
8
1-A
6
DOT
62
2
100
AcDbLine
10
114.991400000000
20
206.720800000000
30
0.0
11
118.911400000000
21
206.720800000000
31
0.0
0
LINE
5
473
100
AcDbEntity
8
1-A
6
CONTINUOUS
62
4
100
AcDbLine
10
61.723500000000
20
208.560800000000
30
0.0
11
63.939500000000
21
208.560800000000
31
0.0
0
LINE
5
474
100
AcDbEntity
8
1-A
6
CONTINUOUS
62
4
100
AcDbLine
10
61.723500000000
20
207.760800000000
30
0.0
11
61.723500000000
21
208.560800000000
31
0.0
0
LINE
5
475
100
AcDbEntity
8
1-A
6
CONTINUOUS
62
4
100
AcDbLine
10
63.939500000000
20
207.760800000000
30
0.0
11
63.939500000000
21
208.560800000000
31
0.0
0
LINE
5
476
100
AcDbEntity
8
1-A
6
CONTINUOUS
62
4
100
AcDbLine
10
62.191500000000
20
208.560800000000
30
0.0
11
62.191500000000
21
207.760800000000
31
0.0
0
LINE
5
477
100
AcDbEntity
8
1-A
6
CONTINUOUS
62
4
100
AcDbLine
10
63.471500000000
20
208.560800000000
30
0.0
11
63.471500000000
21
207.760800000000
31
0.0
0
LINE
5
478
100
AcDbEntity
8
1-A
6
CENTER2
62
2
100
AcDbLine
10
62.831500000000
20
209.316900000000
30
0.0
11
62.831500000000
21
205.740100000000
31
0.0
0
LINE
5
479
100
AcDbEntity
8
1-A
6
CONTINUOUS
62
4
100
AcDbLine
10
118.339400000000
20
208.560800000000
30
0.0
11
116.123400000000
21
208.560800000000
31
0.0
0
LINE
5
47a
100
AcDbEntity
8
1-A
6
CONTINUOUS
62
4
100
AcDbLine
10
118.339400000000
20
207.760800000000
30
0.0
11
118.339400000000
21
208.560800000000
31
0.0
0
LINE
5
47b
100
AcDbEntity
8
1-A
6
CONTINUOUS
62
4
100
AcDbLine
10
116.123400000000
20
207.760800000000
30
0.0
11
116.123400000000
21
208.560800000000
31
0.0
0
LINE
5
47c
100
AcDbEntity
8
1-A
6
CONTINUOUS
62
4
100
AcDbLine
10
117.871400000000
20
208.560800000000
30
0.0
11
117.871400000000
21
207.760800000000
31
0.0
0
LINE
5
47d
100
AcDbEntity
8
1-A
6
CONTINUOUS
62
4
100
AcDbLine
10
116.591400000000
20
208.560800000000
30
0.0
11
116.591400000000
21
207.760800000000
31
0.0
0
LINE
5
47e
100
AcDbEntity
8
1-A
6
CENTER2
62
2
100
AcDbLine
10
117.231400000000
20
209.316900000000
30
0.0
11
117.231400000000
21
205.740100000000
31
0.0
0
LINE
5
47f
100
AcDbEntity
8
1-A
6
DOT
62
2
100
AcDbLine
10
114.511400000000
20
206.240900000000
30
0.0
11
114.511400000000
21
198.400800000000
31
0.0
0
LINE
5
480
100
AcDbEntity
8
1-A
6
DOT
62
2
100
AcDbLine
10
114.031400000000
20
198.400800000000
30
0.0
11
114.511400000000
21
198.400800000000
31
0.0
0
LINE
5
481
100
AcDbEntity
8
1-A
6
CONTINUOUS
62
2
100
AcDbLine
10
120.431500000000
20
201.760800000000
30
0.0
11
119.631400000000
21
201.760800000000
31
0.0
0
LINE
5
482
100
AcDbEntity
8
1-A
6
DOT
62
2
100
AcDbLine
10
119.631400000000
20
201.760800000000
30
0.0
11
114.031500000000
21
201.760800000000
31
0.0
0
LINE
5
483
100
AcDbEntity
8
1-A
6
CONTINUOUS
62
3
100
AcDbLine
10
87.711400000000
20
138.160800000000
30
0.0
11
88.671500000000
21
138.160800000000
31
0.0
0
LINE
5
484
100
AcDbEntity
8
1-A
6
CONTINUOUS
62
3
100
AcDbLine
10
91.391500000000
20
138.160800000000
30
0.0
11
92.351400000000
21
138.160800000000
31
0.0
0
LINE
5
485
100
AcDbEntity
8
1-0
6
CONTINUOUS
62
7
100
AcDbLine
10
114.031500000000
20
207.200800000000
30
0.0
11
114.031500000000
21
139.760800000000
31
0.0
0
LINE
5
486
100
AcDbEntity
8
1-A
6
DOT
62
3
100
AcDbLine
10
66.031500000000
20
88.160800000000
30
0.0
11
61.631400000000
21
88.160800000000
31
0.0
0
LINE
5
487
100
AcDbEntity
8
1-0
6
CONTINUOUS
62
2
100
AcDbLine
10
172.175600000000
20
127.760800000000
30
0.0
11
171.695500000000
21
127.760800000000
31
0.0
0
LINE
5
488
100
AcDbEntity
8
1-4
6
CONTINUOUS
62
2
100
AcDbLine
10
172.175600000000
20
127.760800000000
30
0.0
11
172.655600000000
21
126.080800000000
31
0.0
0
LINE
5
489
100
AcDbEntity
8
1-0
6
CONTINUOUS
62
2
100
AcDbLine
10
174.255600000000
20
127.760800000000
30
0.0
11
173.455500000000
21
127.760800000000
31
0.0
0
LINE
5
48a
100
AcDbEntity
8
1-4
6
CONTINUOUS
62
2
100
AcDbLine
10
173.455500000000
20
127.760800000000
30
0.0
11
172.655600000000
21
124.960800000000
31
0.0
0
LINE
5
48b
100
AcDbEntity
8
1-4
6
CONTINUOUS
62
2
100
AcDbLine
10
172.655600000000
20
126.080800000000
30
0.0
11
172.655600000000
21
123.760700000000
31
0.0
0
LINE
5
48c
100
AcDbEntity
8
1-0
6
CONTINUOUS
62
2
100
AcDbLine
10
172.175600000000
20
119.760800000000
30
0.0
11
171.695500000000
21
119.760800000000
31
0.0
0
LINE
5
48d
100
AcDbEntity
8
1-4
6
CONTINUOUS
62
2
100
AcDbLine
10
172.175600000000
20
119.760800000000
30
0.0
11
172.655600000000
21
121.440800000000
31
0.0
0
LINE
5
48e
100
AcDbEntity
8
1-0
6
CONTINUOUS
62
2
100
AcDbLine
10
174.255600000000
20
119.760800000000
30
0.0
11
173.455500000000
21
119.760800000000
31
0.0
0
LINE
5
48f
100
AcDbEntity
8
1-4
6
CONTINUOUS
62
2
100
AcDbLine
10
173.455500000000
20
119.760800000000
30
0.0
11
172.655600000000
21
122.560700000000
31
0.0
0
LINE
5
490
100
AcDbEntity
8
1-4
6
CONTINUOUS
62
2
100
AcDbLine
10
172.655600000000
20
121.440800000000
30
0.0
11
172.655600000000
21
123.760700000000
31
0.0
0
LINE
5
491
100
AcDbEntity
8
1-0
6
CONTINUOUS
62
2
100
AcDbLine
10
172.495600000000
20
100.160700000000
30
0.0
11
171.695500000000
21
100.160700000000
31
0.0
0
LINE
5
492
100
AcDbEntity
8
1-4
6
CONTINUOUS
62
2
100
AcDbLine
10
172.495600000000
20
100.160700000000
30
0.0
11
172.975600000000
21
98.480700000000
31
0.0
0
LINE
5
493
100
AcDbEntity
8
1-0
6
CONTINUOUS
62
2
100
AcDbLine
10
174.255600000000
20
100.160700000000
30
0.0
11
173.775500000000
21
100.160700000000
31
0.0
0
LINE
5
494
100
AcDbEntity
8
1-4
6
CONTINUOUS
62
2
100
AcDbLine
10
173.775500000000
20
100.160700000000
30
0.0
11
172.975600000000
21
97.360700000000
31
0.0
0
LINE
5
495
100
AcDbEntity
8
1-4
6
CONTINUOUS
62
2
100
AcDbLine
10
172.975600000000
20
98.480700000000
30
0.0
11
172.975600000000
21
96.160700000000
31
0.0
0
LINE
5
496
100
AcDbEntity
8
1-0
6
CONTINUOUS
62
2
100
AcDbLine
10
172.495600000000
20
92.160700000000
30
0.0
11
171.695500000000
21
92.160700000000
31
0.0
0
LINE
5
497
100
AcDbEntity
8
1-4
6
CONTINUOUS
62
2
100
AcDbLine
10
172.495600000000
20
92.160700000000
30
0.0
11
172.975600000000
21
93.840700000000
31
0.0
0
LINE
5
498
100
AcDbEntity
8
1-0
6
CONTINUOUS
62
2
100
AcDbLine
10
174.255600000000
20
92.160700000000
30
0.0
11
173.775500000000
21
92.160700000000
31
0.0
0
LINE
5
499
100
AcDbEntity
8
1-4
6
CONTINUOUS
62
2
100
AcDbLine
10
173.775500000000
20
92.160700000000
30
0.0
11
172.975600000000
21
94.960700000000
31
0.0
0
LINE
5
49a
100
AcDbEntity
8
1-4
6
CONTINUOUS
62
2
100
AcDbLine
10
172.975600000000
20
93.840700000000
30
0.0
11
172.975600000000
21
96.160700000000
31
0.0
0
LINE
5
49b
100
AcDbEntity
8
1-0
6
CENTER2
62
2
100
AcDbLine
10
174.882800000000
20
96.160700000000
30
0.0
11
171.160600000000
21
96.160700000000
31
0.0
0
LINE
5
49c
100
AcDbEntity
8
1-0
6
CENTER2
62
2
100
AcDbLine
10
174.882800000000
20
123.760700000000
30
0.0
11
171.160600000000
21
123.760700000000
31
0.0
0
LINE
5
49d
100
AcDbEntity
8
1-1
6
CONTINUOUS
62
3
100
AcDbLine
10
118.431500000000
20
139.760800000000
30
0.0
11
118.431500000000
21
88.160800000000
31
0.0
0
LINE
5
49e
100
AcDbEntity
8
1-6
6
DOT
62
3
100
AcDbLine
10
66.031500000000
20
139.760800000000
30
0.0
11
61.631400000000
21
139.760800000000
31
0.0
0
LINE
5
49f
100
AcDbEntity
8
1-1
6
CONTINUOUS
62
3
100
AcDbLine
10
175.215600000000
20
88.160800000000
30
0.0
11
174.255600000000
21
88.160800000000
31
0.0
0
LINE
5
4a0
100
AcDbEntity
8
1-0
6
CONTINUOUS
62
7
100
AcDbLine
10
176.975600000000
20
87.760700000000
30
0.0
11
176.975600000000
21
207.200800000000
31
0.0
0
POLYLINE
5
4a1
100
AcDbEntity
8
1-0
6
CONTINUOUS
62
  7
100
AcDb2dPolyline
66
1
10
0.0
20
0.0
30
0.0
70
0
0
VERTEX
5
4a2
100
AcDbEntity
8
1-0
6
CONTINUOUS
62
  7
100
AcDbVertex
100
AcDb2dVertex
10
176.215600000000
20
137.760800000000
30
0.0
0
VERTEX
5
4a3
100
AcDbEntity
8
1-0
6
CONTINUOUS
62
  7
100
AcDbVertex
100
AcDb2dVertex
10
176.015500000000
20
137.760800000000
30
0.0
0
VERTEX
5
4a4
100
AcDbEntity
8
1-0
6
CONTINUOUS
62
  7
100
AcDbVertex
100
AcDb2dVertex
10
176.015500000000
20
134.560700000000
30
0.0
0
SEQEND
5
4a5
100
AcDbEntity
8
1-0
0
LINE
5
4a6
100
AcDbEntity
8
1-0
6
CONTINUOUS
62
7
100
AcDbLine
10
175.215600000000
20
134.560700000000
30
0.0
11
176.015500000000
21
134.560700000000
31
0.0
0
LINE
5
4a7
100
AcDbEntity
8
1-E
6
CONTINUOUS
62
3
100
AcDbLine
10
176.495500000000
20
137.680800000000
30
0.0
11
176.495500000000
21
134.640700000000
31
0.0
0
LINE
5
4a8
100
AcDbEntity
8
1-E
6
CONTINUOUS
62
3
100
AcDbLine
10
176.015500000000
20
134.640700000000
30
0.0
11
176.495500000000
21
134.640700000000
31
0.0
0
LINE
5
4a9
100
AcDbEntity
8
1-E
6
CONTINUOUS
62
3
100
AcDbLine
10
176.015500000000
20
137.680800000000
30
0.0
11
176.495500000000
21
137.680800000000
31
0.0
0
LINE
5
4aa
100
AcDbEntity
8
1-E
6
DOT
62
3
100
AcDbLine
10
176.175600000000
20
136.480800000000
30
0.0
11
176.495500000000
21
136.800800000000
31
0.0
0
LINE
5
4ab
100
AcDbEntity
8
1-E
6
DOT
62
3
100
AcDbLine
10
176.175600000000
20
135.840800000000
30
0.0
11
176.495500000000
21
135.520800000000
31
0.0
0
LINE
5
4ac
100
AcDbEntity
8
1-E
6
DOT
62
3
100
AcDbLine
10
176.175600000000
20
136.480800000000
30
0.0
11
176.175600000000
21
135.840800000000
31
0.0
0
LINE
5
4ad
100
AcDbEntity
8
1-E
6
DOT
62
3
100
AcDbLine
10
174.255600000000
20
135.840800000000
30
0.0
11
176.175600000000
21
135.840800000000
31
0.0
0
LINE
5
4ae
100
AcDbEntity
8
1-E
6
DOT
62
3
100
AcDbLine
10
174.255600000000
20
136.480800000000
30
0.0
11
176.175600000000
21
136.480800000000
31
0.0
0
LINE
5
4af
100
AcDbEntity
8
1-E
6
CONTINUOUS
62
3
100
AcDbLine
10
174.127600000000
20
136.880800000000
30
0.0
11
174.255600000000
21
136.880800000000
31
0.0
0
LINE
5
4b0
100
AcDbEntity
8
1-E
6
CONTINUOUS
62
3
100
AcDbLine
10
174.127600000000
20
135.440800000000
30
0.0
11
174.255600000000
21
135.440800000000
31
0.0
0
LINE
5
4b1
100
AcDbEntity
8
1-E
6
CONTINUOUS
62
3
100
AcDbLine
10
173.295600000000
20
136.480800000000
30
0.0
11
173.295600000000
21
135.840800000000
31
0.0
0
LINE
5
4b2
100
AcDbEntity
8
1-E
6
CONTINUOUS
62
3
100
AcDbLine
10
174.127600000000
20
135.440800000000
30
0.0
11
174.127600000000
21
136.880800000000
31
0.0
0
LINE
5
4b3
100
AcDbEntity
8
1-1
6
CONTINUOUS
62
3
100
AcDbLine
10
175.215600000000
20
139.760800000000
30
0.0
11
175.215600000000
21
87.360700000000
31
0.0
0
LINE
5
4b4
100
AcDbEntity
8
1-1
6
CONTINUOUS
62
3
100
AcDbLine
10
88.751400000000
20
140.960800000000
30
0.0
11
90.031500000000
21
140.960800000000
31
0.0
0
LINE
5
4b5
100
AcDbEntity
8
1-1
6
CONTINUOUS
62
3
100
AcDbLine
10
91.311500000000
20
140.960800000000
30
0.0
11
90.031500000000
21
140.960800000000
31
0.0
0
LINE
5
4b6
100
AcDbEntity
8
1-1
6
CENTER2
62
3
100
AcDbLine
10
85.819200000000
20
143.760800000000
30
0.0
11
90.031500000000
21
143.760800000000
31
0.0
0
LINE
5
4b7
100
AcDbEntity
8
1-1
6
CENTER2
62
3
100
AcDbLine
10
94.219800000000
20
143.760800000000
30
0.0
11
90.031500000000
21
143.760800000000
31
0.0
0
LINE
5
4b8
100
AcDbEntity
8
1-1
6
CONTINUOUS
62
3
100
AcDbLine
10
66.031500000000
20
139.760800000000
30
0.0
11
87.711400000000
21
139.760800000000
31
0.0
0
LINE
5
4b9
100
AcDbEntity
8
1-1
6
CONTINUOUS
62
3
100
AcDbLine
10
88.671500000000
20
139.760800000000
30
0.0
11
90.031500000000
21
139.760800000000
31
0.0
0
LINE
5
4ba
100
AcDbEntity
8
1-1
6
CONTINUOUS
62
3
100
AcDbLine
10
91.391500000000
20
139.760800000000
30
0.0
11
90.031500000000
21
139.760800000000
31
0.0
0
LINE
5
4bb
100
AcDbEntity
8
1-1
6
CONTINUOUS
62
3
100
AcDbLine
10
118.431500000000
20
139.760800000000
30
0.0
11
92.351400000000
21
139.760800000000
31
0.0
0
LINE
5
4bc
100
AcDbEntity
8
1-A
6
CONTINUOUS
62
2
100
AcDbLine
10
114.031500000000
20
201.760800000000
30
0.0
11
91.311500000000
21
201.760800000000
31
0.0
0
LINE
5
4bd
100
AcDbEntity
8
1-E
6
CONTINUOUS
62
2
100
AcDbLine
10
88.911400000000
20
201.760800000000
30
0.0
11
88.911400000000
21
167.760700000000
31
0.0
0
LINE
5
4be
100
AcDbEntity
8
1-E
6
CONTINUOUS
62
2
100
AcDbLine
10
173.055600000000
20
167.760700000000
30
0.0
11
175.615600000000
21
167.760700000000
31
0.0
0
LINE
5
4bf
100
AcDbEntity
8
1-E
6
CONTINUOUS
62
2
100
AcDbLine
10
173.215600000000
20
207.200800000000
30
0.0
11
173.215600000000
21
167.760700000000
31
0.0
0
LINE
5
4c0
100
AcDbEntity
8
1-E
6
CONTINUOUS
62
2
100
AcDbLine
10
175.455600000000
20
207.200800000000
30
0.0
11
175.455600000000
21
167.760700000000
31
0.0
0
LINE
5
4c1
100
AcDbEntity
8
1-A
6
DOT
62
2
100
AcDbLine
10
168.173300000000
20
206.720800000000
30
0.0
11
170.975500000000
21
206.720800000000
31
0.0
0
LINE
5
4c2
100
AcDbEntity
8
1-A
6
DOT
62
2
100
AcDbLine
10
180.497700000000
20
206.720800000000
30
0.0
11
177.695500000000
21
206.720800000000
31
0.0
0
LINE
5
4c3
100
AcDbEntity
8
1-A
6
CONTINUOUS
62
2
100
AcDbLine
10
59.631500000000
20
207.760800000000
30
0.0
11
90.031500000000
21
207.760800000000
31
0.0
0
LINE
5
4c4
100
AcDbEntity
8
1-A
6
CONTINUOUS
62
2
100
AcDbLine
10
120.431500000000
20
207.760800000000
30
0.0
11
90.031500000000
21
207.760800000000
31
0.0
0
LINE
5
4c5
100
AcDbEntity
8
1-A
6
CONTINUOUS
62
2
100
AcDbLine
10
120.431500000000
20
207.200800000000
30
0.0
11
91.311500000000
21
207.200800000000
31
0.0
0
LINE
5
4c6
100
AcDbEntity
8
1-E
6
CONTINUOUS
62
3
100
AcDbLine
10
175.215600000000
20
92.141700000000
30
0.0
11
175.234600000000
21
92.160700000000
31
0.0
0
LINE
5
4c7
100
AcDbEntity
8
1-E
6
DOT
62
3
100
AcDbLine
10
176.175600000000
20
90.080700000000
30
0.0
11
176.495500000000
21
90.400700000000
31
0.0
0
LINE
5
4c8
100
AcDbEntity
8
1-E
6
DOT
62
3
100
AcDbLine
10
176.175600000000
20
89.440700000000
30
0.0
11
176.495500000000
21
89.120700000000
31
0.0
0
LINE
5
4c9
100
AcDbEntity
8
1-E
6
DOT
62
3
100
AcDbLine
10
176.175600000000
20
90.080700000000
30
0.0
11
176.175600000000
21
89.440700000000
31
0.0
0
LINE
5
4ca
100
AcDbEntity
8
1-E
6
DOT
62
3
100
AcDbLine
10
174.255600000000
20
89.440700000000
30
0.0
11
176.175600000000
21
89.440700000000
31
0.0
0
LINE
5
4cb
100
AcDbEntity
8
1-E
6
DOT
62
3
100
AcDbLine
10
174.255600000000
20
90.080700000000
30
0.0
11
176.175600000000
21
90.080700000000
31
0.0
0
LINE
5
4cc
100
AcDbEntity
8
1-A
6
DOT
62
3
100
AcDbLine
10
61.631400000000
20
139.760800000000
30
0.0
11
61.631400000000
21
88.160800000000
31
0.0
0
LINE
5
4cd
100
AcDbEntity
8
1-E
6
CONTINUOUS
62
2
100
AcDbLine
10
88.751400000000
20
201.760800000000
30
0.0
11
88.751400000000
21
140.960800000000
31
0.0
0
LINE
5
4ce
100
AcDbEntity
8
1-0
6
CONTINUOUS
62
7
100
AcDbLine
10
170.975500000000
20
207.200800000000
30
0.0
11
170.975500000000
21
87.760700000000
31
0.0
0
LINE
5
4cf
100
AcDbEntity
8
1-E
6
CONTINUOUS
62
2
100
AcDbLine
10
173.055600000000
20
207.200800000000
30
0.0
11
173.055600000000
21
146.560800000000
31
0.0
0
LINE
5
4d0
100
AcDbEntity
8
1-E
6
CONTINUOUS
62
2
100
AcDbLine
10
175.615600000000
20
207.200800000000
30
0.0
11
175.615600000000
21
146.560800000000
31
0.0
0
LINE
5
4d1
100
AcDbEntity
8
1-E
6
CONTINUOUS
62
2
100
AcDbLine
10
91.311500000000
20
207.760800000000
30
0.0
11
91.311500000000
21
140.960800000000
31
0.0
0
LINE
5
4d2
100
AcDbEntity
8
1-E
6
CONTINUOUS
62
2
100
AcDbLine
10
91.151400000000
20
207.760800000000
30
0.0
11
91.151400000000
21
167.760700000000
31
0.0
0
LINE
5
4d3
100
AcDbEntity
8
1-E
6
CONTINUOUS
62
2
100
AcDbLine
10
91.311500000000
20
167.760700000000
30
0.0
11
88.751400000000
21
167.760700000000
31
0.0
0
LINE
5
4d4
100
AcDbEntity
8
1-E
6
CONTINUOUS
62
2
100
AcDbLine
10
175.215600000000
20
134.625700000000
30
0.0
11
176.015500000000
21
135.425600000000
31
0.0
0
LINE
5
4d5
100
AcDbEntity
8
1-E
6
CONTINUOUS
62
2
100
AcDbLine
10
175.215600000000
20
134.738800000000
30
0.0
11
176.015500000000
21
135.538800000000
31
0.0
0
LINE
5
4d6
100
AcDbEntity
8
1-E
6
CONTINUOUS
62
2
100
AcDbLine
10
175.215600000000
20
135.757000000000
30
0.0
11
176.015500000000
21
136.557000000000
31
0.0
0
LINE
5
4d7
100
AcDbEntity
8
1-E
6
CONTINUOUS
62
2
100
AcDbLine
10
175.215600000000
20
135.870100000000
30
0.0
11
176.015500000000
21
136.670200000000
31
0.0
0
LINE
5
4d8
100
AcDbEntity
8
1-E
6
CONTINUOUS
62
2
100
AcDbLine
10
175.215600000000
20
136.888300000000
30
0.0
11
176.015500000000
21
137.688400000000
31
0.0
0
LINE
5
4d9
100
AcDbEntity
8
1-E
6
CONTINUOUS
62
2
100
AcDbLine
10
176.088000000000
20
137.760800000000
30
0.0
11
177.208300000000
21
138.881100000000
31
0.0
0
LINE
5
4da
100
AcDbEntity
8
1-E
6
CONTINUOUS
62
2
100
AcDbLine
10
175.215600000000
20
137.001500000000
30
0.0
11
177.191800000000
21
138.977700000000
31
0.0
0
LINE
5
4db
100
AcDbEntity
8
1-E
6
CONTINUOUS
62
2
100
AcDbLine
10
175.390900000000
20
139.326500000000
30
0.0
11
175.649900000000
21
139.585400000000
31
0.0
0
LINE
5
4dc
100
AcDbEntity
8
1-E
6
CONTINUOUS
62
2
100
AcDbLine
10
175.215600000000
20
138.019700000000
30
0.0
11
175.834600000000
21
138.638800000000
31
0.0
0
LINE
5
4dd
100
AcDbEntity
8
1-E
6
CONTINUOUS
62
2
100
AcDbLine
10
176.337600000000
20
139.141800000000
30
0.0
11
176.781200000000
21
139.585400000000
31
0.0
0
LINE
5
4de
100
AcDbEntity
8
1-E
6
CONTINUOUS
62
2
100
AcDbLine
10
175.215600000000
20
138.132800000000
30
0.0
11
175.816500000000
21
138.733800000000
31
0.0
0
LINE
5
4df
100
AcDbEntity
8
1-E
6
CONTINUOUS
62
2
100
AcDbLine
10
176.242600000000
20
139.159900000000
30
0.0
11
176.711800000000
21
139.629000000000
31
0.0
0
LINE
5
4e0
100
AcDbEntity
8
1-1
6
CONTINUOUS
62
3
100
AcDbLine
10
176.495500000000
20
91.280700000000
30
0.0
11
176.495500000000
21
88.240700000000
31
0.0
0
LINE
5
4e1
100
AcDbEntity
8
1-E
6
CONTINUOUS
62
2
100
AcDbLine
10
175.468200000000
20
87.360700000000
30
0.0
11
176.015500000000
21
87.908100000000
31
0.0
0
LINE
5
4e2
100
AcDbEntity
8
1-E
6
CONTINUOUS
62
2
100
AcDbLine
10
175.355000000000
20
87.360700000000
30
0.0
11
176.015500000000
21
88.021200000000
31
0.0
0
LINE
5
4e3
100
AcDbEntity
8
1-E
6
CONTINUOUS
62
2
100
AcDbLine
10
175.215600000000
20
88.239400000000
30
0.0
11
176.015500000000
21
89.039400000000
31
0.0
0
LINE
5
4e4
100
AcDbEntity
8
1-E
6
CONTINUOUS
62
2
100
AcDbLine
10
175.215600000000
20
88.352600000000
30
0.0
11
176.015500000000
21
89.152600000000
31
0.0
0
LINE
5
4e5
100
AcDbEntity
8
1-E
6
CONTINUOUS
62
2
100
AcDbLine
10
175.215600000000
20
89.370800000000
30
0.0
11
176.015500000000
21
90.170800000000
31
0.0
0
LINE
5
4e6
100
AcDbEntity
8
1-E
6
CONTINUOUS
62
2
100
AcDbLine
10
175.215600000000
20
89.483900000000
30
0.0
11
176.015500000000
21
90.283900000000
31
0.0
0
LINE
5
4e7
100
AcDbEntity
8
1-E
6
CONTINUOUS
62
2
100
AcDbLine
10
175.215600000000
20
90.502100000000
30
0.0
11
176.015500000000
21
91.302200000000
31
0.0
0
LINE
5
4e8
100
AcDbEntity
8
1-E
6
CONTINUOUS
62
2
100
AcDbLine
10
175.215600000000
20
90.615300000000
30
0.0
11
176.015500000000
21
91.415300000000
31
0.0
0
LINE
5
4e9
100
AcDbEntity
8
1-E
6
CONTINUOUS
62
2
100
AcDbLine
10
175.215600000000
20
91.633500000000
30
0.0
11
175.742800000000
21
92.160700000000
31
0.0
0
LINE
5
4ea
100
AcDbEntity
8
1-E
6
CONTINUOUS
62
2
100
AcDbLine
10
175.215600000000
20
91.746600000000
30
0.0
11
175.629600000000
21
92.160700000000
31
0.0
0
LINE
5
4eb
100
AcDbEntity
8
1-A
6
CONTINUOUS
62
2
100
AcDbLine
10
179.764500000000
20
207.200800000000
30
0.0
11
168.906500000000
21
207.200800000000
31
0.0
0
LINE
5
4ec
100
AcDbEntity
8
1-E
6
CONTINUOUS
62
2
100
AcDbLine
10
60.431500000000
20
81.760800000000
30
0.0
11
119.631400000000
21
81.760800000000
31
0.0
0
LINE
5
4ed
100
AcDbEntity
8
1-0
6
CONTINUOUS
62
7
100
AcDbLine
10
119.631400000000
20
207.200800000000
30
0.0
11
119.631400000000
21
81.760800000000
31
0.0
0
LINE
5
4ee
100
AcDbEntity
8
1-E
6
CONTINUOUS
62
2
100
AcDbLine
10
60.431500000000
20
87.200700000000
30
0.0
11
119.631400000000
21
87.200700000000
31
0.0
0
LINE
5
4ef
100
AcDbEntity
8
1-0
6
CENTER2
62
7
100
AcDbLine
10
90.031400000000
20
239.430300000000
30
0.0
11
90.031400000000
21
77.432800000000
31
0.0
0
LINE
5
4f0
100
AcDbEntity
8
1-0
6
CONTINUOUS
62
7
100
AcDbLine
10
185.695500000000
20
87.760700000000
30
0.0
11
169.695600000000
21
87.760700000000
31
0.0
0
LINE
5
4f1
100
AcDbEntity
8
1-E
6
CONTINUOUS
62
2
100
AcDbLine
10
185.695500000000
20
135.760700000000
30
0.0
11
176.975600000000
21
135.760700000000
31
0.0
0
LINE
5
4f2
100
AcDbEntity
8
1-E
6
CONTINUOUS
62
2
100
AcDbLine
10
185.695500000000
20
151.760700000000
30
0.0
11
177.695500000000
21
151.760700000000
31
0.0
0
LINE
5
4f3
100
AcDbEntity
8
1-E
6
CENTER2
62
2
100
AcDbLine
10
115.231500000000
20
136.160800000000
30
0.0
11
66.050800000000
21
136.160800000000
31
0.0
0
LINE
5
4f4
100
AcDbEntity
8
1-0
6
CENTER2
62
7
100
AcDbLine
10
115.231500000000
20
89.760700000000
30
0.0
11
66.031500000000
21
89.760700000000
31
0.0
0
LINE
5
4f5
100
AcDbEntity
8
1-E
6
CENTER2
62
2
100
AcDbLine
10
114.031500000000
20
137.360800000000
30
0.0
11
114.031500000000
21
88.560700000000
31
0.0
0
LINE
5
4f6
100
AcDbEntity
8
1-E
6
CONTINUOUS
62
2
100
AcDbLine
10
116.671400000000
20
124.960800000000
30
0.0
11
115.391400000000
21
124.960800000000
31
0.0
0
LINE
5
4f7
100
AcDbEntity
8
1-E
6
CONTINUOUS
62
2
100
AcDbLine
10
116.671400000000
20
122.560700000000
30
0.0
11
115.391400000000
21
122.560700000000
31
0.0
0
POLYLINE
5
4f8
100
AcDbEntity
8
1-0
6
CONTINUOUS
62
  2
100
AcDb2dPolyline
66
1
10
0.0
20
0.0
30
0.0
70
0
0
VERTEX
5
4f9
100
AcDbEntity
8
1-0
6
CONTINUOUS
62
  2
100
AcDbVertex
100
AcDb2dVertex
10
115.391400000000
20
100.160800000000
30
0.0
0
VERTEX
5
4fa
100
AcDbEntity
8
1-0
6
CONTINUOUS
62
  2
100
AcDbVertex
100
AcDb2dVertex
10
115.391400000000
20
92.160800000000
30
0.0
0
VERTEX
5
4fb
100
AcDbEntity
8
1-0
6
CONTINUOUS
62
  2
100
AcDbVertex
100
AcDb2dVertex
10
116.671400000000
20
92.160800000000
30
0.0
0
VERTEX
5
4fc
100
AcDbEntity
8
1-0
6
CONTINUOUS
62
  2
100
AcDbVertex
100
AcDb2dVertex
10
116.671400000000
20
100.160800000000
30
0.0
0
VERTEX
5
4fd
100
AcDbEntity
8
1-0
6
CONTINUOUS
62
  2
100
AcDbVertex
100
AcDb2dVertex
10
115.391400000000
20
100.160800000000
30
0.0
0
SEQEND
5
4fe
100
AcDbEntity
8
1-0
0
LINE
5
4ff
100
AcDbEntity
8
1-0
6
CENTER2
62
2
100
AcDbLine
10
117.675400000000
20
96.160700000000
30
0.0
11
114.273200000000
21
96.160700000000
31
0.0
0
LINE
5
500
100
AcDbEntity
8
1-0
6
CENTER2
62
2
100
AcDbLine
10
116.031400000000
20
90.961000000000
30
0.0
11
116.031400000000
21
101.660100000000
31
0.0
0
LINE
5
501
100
AcDbEntity
8
1-E
6
CONTINUOUS
62
2
100
AcDbLine
10
116.671400000000
20
97.360800000000
30
0.0
11
115.391400000000
21
97.360800000000
31
0.0
0
LINE
5
502
100
AcDbEntity
8
1-E
6
CONTINUOUS
62
2
100
AcDbLine
10
116.671400000000
20
94.960700000000
30
0.0
11
115.391400000000
21
94.960700000000
31
0.0
0
LINE
5
503
100
AcDbEntity
8
1-E
6
CONTINUOUS
62
2
100
AcDbLine
10
172.335600000000
20
146.560800000000
30
0.0
11
172.335600000000
21
138.160800000000
31
0.0
0
LINE
5
504
100
AcDbEntity
8
1-1
6
CONTINUOUS
62
3
100
AcDbLine
10
172.335600000000
20
146.560800000000
30
0.0
11
176.335600000000
21
146.560800000000
31
0.0
0
LINE
5
505
100
AcDbEntity
8
1-0
6
CONTINUOUS
62
7
100
AcDbLine
10
171.695500000000
20
207.200800000000
30
0.0
11
171.695500000000
21
87.760700000000
31
0.0
0
LINE
5
506
100
AcDbEntity
8
1-1
6
CENTER2
62
3
100
AcDbLine
10
172.484100000000
20
143.760800000000
30
0.0
11
176.181600000000
21
143.760800000000
31
0.0
0
LINE
5
507
100
AcDbEntity
8
1-3
6
CONTINUOUS
62
6
100
AcDbLine
10
176.587600000000
20
236.907800000000
30
0.0
11
172.083600000000
21
236.907800000000
31
0.0
0
LINE
5
508
100
AcDbEntity
8
1-E
6
PHANTOM2
62
6
100
AcDbLine
10
170.333600000000
20
227.570400000000
30
0.0
11
178.441300000000
21
227.570400000000
31
0.0
0
LINE
5
509
100
AcDbEntity
8
1-E
6
PHANTOM2
62
6
100
AcDbLine
10
170.333600000000
20
228.383900000000
30
0.0
11
178.441300000000
21
228.383900000000
31
0.0
0
LINE
5
50a
100
AcDbEntity
8
1-3
6
CONTINUOUS
62
6
100
AcDbLine
10
171.283600000000
20
227.570400000000
30
0.0
11
171.283600000000
21
219.680800000000
31
0.0
0
LINE
5
50b
100
AcDbEntity
8
1-3
6
CONTINUOUS
62
6
100
AcDbLine
10
177.387600000000
20
227.570400000000
30
0.0
11
177.387600000000
21
219.680800000000
31
0.0
0
LINE
5
50c
100
AcDbEntity
8
1-3
6
CONTINUOUS
62
6
100
AcDbLine
10
177.387600000000
20
236.107800000000
30
0.0
11
177.387600000000
21
228.383900000000
31
0.0
0
LINE
5
50d
100
AcDbEntity
8
1-3
6
CONTINUOUS
62
6
100
AcDbLine
10
171.283600000000
20
236.107800000000
30
0.0
11
171.283600000000
21
228.383900000000
31
0.0
0
LINE
5
50e
100
AcDbEntity
8
1-E
6
CONTINUOUS
62
6
100
AcDbLine
10
171.283600000000
20
236.107800000000
30
0.0
11
177.387600000000
21
236.107800000000
31
0.0
0
LINE
5
50f
100
AcDbEntity
8
1-A
6
CENTER2
62
6
100
AcDbLine
10
155.532300000000
20
220.089400000000
30
0.0
11
155.532300000000
21
216.762300000000
31
0.0
0
LINE
5
510
100
AcDbEntity
8
1-A
6
CONTINUOUS
62
6
100
AcDbLine
10
155.532300000000
20
217.280800000000
30
0.0
11
174.335600000000
21
217.280800000000
31
0.0
0
LINE
5
511
100
AcDbEntity
8
1-A
6
CENTER2
62
6
100
AcDbLine
10
153.799600000000
20
218.480800000000
30
0.0
11
174.335600000000
21
218.480800000000
31
0.0
0
LINE
5
512
100
AcDbEntity
8
1-A
6
CONTINUOUS
62
6
100
AcDbLine
10
155.532300000000
20
219.680800000000
30
0.0
11
174.335600000000
21
219.680800000000
31
0.0
0
LINE
5
513
100
AcDbEntity
8
1-A
6
CENTER2
62
6
100
AcDbLine
10
193.135600000000
20
220.089400000000
30
0.0
11
193.135600000000
21
216.762300000000
31
0.0
0
LINE
5
514
100
AcDbEntity
8
1-A
6
CONTINUOUS
62
6
100
AcDbLine
10
193.135600000000
20
219.680800000000
30
0.0
11
174.335600000000
21
219.680800000000
31
0.0
0
LINE
5
515
100
AcDbEntity
8
1-A
6
CENTER2
62
6
100
AcDbLine
10
195.479500000000
20
218.480800000000
30
0.0
11
174.335600000000
21
218.480800000000
31
0.0
0
LINE
5
516
100
AcDbEntity
8
1-A
6
CONTINUOUS
62
6
100
AcDbLine
10
178.735600000000
20
210.080800000000
30
0.0
11
178.735600000000
21
213.600800000000
31
0.0
0
LINE
5
517
100
AcDbEntity
8
1-A
6
CONTINUOUS
62
6
100
AcDbLine
10
174.335600000000
20
209.680800000000
30
0.0
11
179.759700000000
21
209.680800000000
31
0.0
0
LINE
5
518
100
AcDbEntity
8
1-A
6
CONTINUOUS
62
6
100
AcDbLine
10
193.135600000000
20
217.280800000000
30
0.0
11
174.335600000000
21
217.280800000000
31
0.0
0
LINE
5
519
100
AcDbEntity
8
1-A
6
CONTINUOUS
62
6
100
AcDbLine
10
169.935600000000
20
210.080800000000
30
0.0
11
169.935600000000
21
213.600800000000
31
0.0
0
LINE
5
51a
100
AcDbEntity
8
1-A
6
CONTINUOUS
62
6
100
AcDbLine
10
174.335600000000
20
209.680800000000
30
0.0
11
168.911500000000
21
209.680800000000
31
0.0
0
LINE
5
51b
100
AcDbEntity
8
1-A
6
CONTINUOUS
62
6
100
AcDbLine
10
170.597300000000
20
214.977700000000
30
0.0
11
155.344400000000
21
217.295600000000
31
0.0
0
LINE
5
51c
100
AcDbEntity
8
1-A
6
CONTINUOUS
62
6
100
AcDbLine
10
170.377600000000
20
215.822100000000
30
0.0
11
160.580400000000
21
217.280800000000
31
0.0
0
LINE
5
51d
100
AcDbEntity
8
1-A
6
CONTINUOUS
62
6
100
AcDbLine
10
178.335600000000
20
214.000800000000
30
0.0
11
170.335600000000
21
214.000800000000
31
0.0
0
LINE
5
51e
100
AcDbEntity
8
1-A
6
CONTINUOUS
62
6
100
AcDbLine
10
171.935600000000
20
214.160800000000
30
0.0
11
171.935600000000
21
214.000800000000
31
0.0
0
LINE
5
51f
100
AcDbEntity
8
1-A
6
CONTINUOUS
62
6
100
AcDbLine
10
176.735600000000
20
214.160800000000
30
0.0
11
176.735600000000
21
214.000800000000
31
0.0
0
LINE
5
520
100
AcDbEntity
8
1-A
6
CONTINUOUS
62
6
100
AcDbLine
10
168.511600000000
20
209.280800000000
30
0.0
11
168.511600000000
21
207.760800000000
31
0.0
0
LINE
5
521
100
AcDbEntity
8
1-A
6
CONTINUOUS
62
6
100
AcDbLine
10
180.159600000000
20
209.280800000000
30
0.0
11
180.159600000000
21
207.760800000000
31
0.0
0
LINE
5
522
100
AcDbEntity
8
1-A
6
CONTINUOUS
62
6
100
AcDbLine
10
177.594100000000
20
214.160800000000
30
0.0
11
171.077100000000
21
214.160800000000
31
0.0
0
LINE
5
523
100
AcDbEntity
8
1-E
6
CONTINUOUS
62
2
100
AcDbLine
10
168.511600000000
20
208.720800000000
30
0.0
11
174.335600000000
21
208.720800000000
31
0.0
0
LINE
5
524
100
AcDbEntity
8
1-E
6
CONTINUOUS
62
2
100
AcDbLine
10
180.159600000000
20
208.720800000000
30
0.0
11
174.335600000000
21
208.720800000000
31
0.0
0
LINE
5
525
100
AcDbEntity
8
1-E
6
CENTER2
62
2
100
AcDbLine
10
169.951600000000
20
206.827800000000
30
0.0
11
169.951600000000
21
209.828900000000
31
0.0
0
LINE
5
526
100
AcDbEntity
8
1-E
6
CENTER2
62
2
100
AcDbLine
10
178.719600000000
20
207.040800000000
30
0.0
11
178.719600000000
21
209.828900000000
31
0.0
0
LINE
5
527
100
AcDbEntity
8
1-3
6
CONTINUOUS
62
6
100
AcDbLine
10
87.779300000000
20
236.907800000000
30
0.0
11
92.283400000000
21
236.907800000000
31
0.0
0
LINE
5
528
100
AcDbEntity
8
1-E
6
PHANTOM2
62
6
100
AcDbLine
10
94.033300000000
20
227.570400000000
30
0.0
11
85.925600000000
21
227.570400000000
31
0.0
0
LINE
5
529
100
AcDbEntity
8
1-E
6
PHANTOM2
62
6
100
AcDbLine
10
94.033300000000
20
228.383900000000
30
0.0
11
85.925600000000
21
228.383900000000
31
0.0
0
LINE
5
52a
100
AcDbEntity
8
1-3
6
CONTINUOUS
62
6
100
AcDbLine
10
93.083300000000
20
227.570400000000
30
0.0
11
93.083300000000
21
219.680800000000
31
0.0
0
LINE
5
52b
100
AcDbEntity
8
1-3
6
CONTINUOUS
62
6
100
AcDbLine
10
86.979300000000
20
227.570400000000
30
0.0
11
86.979300000000
21
219.680800000000
31
0.0
0
LINE
5
52c
100
AcDbEntity
8
1-3
6
CONTINUOUS
62
6
100
AcDbLine
10
86.979300000000
20
236.107800000000
30
0.0
11
86.979300000000
21
228.383900000000
31
0.0
0
LINE
5
52d
100
AcDbEntity
8
1-3
6
CONTINUOUS
62
6
100
AcDbLine
10
93.083300000000
20
236.107800000000
30
0.0
11
93.083300000000
21
228.383900000000
31
0.0
0
LINE
5
52e
100
AcDbEntity
8
1-E
6
CONTINUOUS
62
6
100
AcDbLine
10
93.083300000000
20
236.107800000000
30
0.0
11
86.979300000000
21
236.107800000000
31
0.0
0
LINE
5
52f
100
AcDbEntity
8
1-A
6
CENTER2
62
6
100
AcDbLine
10
108.834600000000
20
220.089400000000
30
0.0
11
108.834600000000
21
216.762300000000
31
0.0
0
LINE
5
530
100
AcDbEntity
8
1-A
6
CONTINUOUS
62
6
100
AcDbLine
10
108.834600000000
20
217.280800000000
30
0.0
11
90.031300000000
21
217.280800000000
31
0.0
0
LINE
5
531
100
AcDbEntity
8
1-A
6
CENTER2
62
6
100
AcDbLine
10
110.567300000000
20
218.480800000000
30
0.0
11
90.031300000000
21
218.480800000000
31
0.0
0
LINE
5
532
100
AcDbEntity
8
1-A
6
CONTINUOUS
62
6
100
AcDbLine
10
108.834600000000
20
219.680800000000
30
0.0
11
90.031300000000
21
219.680800000000
31
0.0
0
LINE
5
533
100
AcDbEntity
8
1-A
6
CENTER2
62
6
100
AcDbLine
10
71.231300000000
20
220.089400000000
30
0.0
11
71.231300000000
21
216.762300000000
31
0.0
0
LINE
5
534
100
AcDbEntity
8
1-A
6
CONTINUOUS
62
6
100
AcDbLine
10
71.231300000000
20
219.680800000000
30
0.0
11
90.031300000000
21
219.680800000000
31
0.0
0
LINE
5
535
100
AcDbEntity
8
1-A
6
CENTER2
62
6
100
AcDbLine
10
68.887400000000
20
218.480800000000
30
0.0
11
90.031300000000
21
218.480800000000
31
0.0
0
LINE
5
536
100
AcDbEntity
8
1-A
6
CONTINUOUS
62
6
100
AcDbLine
10
85.631300000000
20
210.080800000000
30
0.0
11
85.631300000000
21
213.600800000000
31
0.0
0
LINE
5
537
100
AcDbEntity
8
1-A
6
CONTINUOUS
62
6
100
AcDbLine
10
90.031300000000
20
209.680800000000
30
0.0
11
84.607200000000
21
209.680800000000
31
0.0
0
LINE
5
538
100
AcDbEntity
8
1-A
6
CONTINUOUS
62
6
100
AcDbLine
10
71.231300000000
20
217.280800000000
30
0.0
11
90.031300000000
21
217.280800000000
31
0.0
0
LINE
5
539
100
AcDbEntity
8
1-A
6
CONTINUOUS
62
6
100
AcDbLine
10
94.431300000000
20
210.080800000000
30
0.0
11
94.431300000000
21
213.600800000000
31
0.0
0
LINE
5
53a
100
AcDbEntity
8
1-A
6
CONTINUOUS
62
6
100
AcDbLine
10
90.031300000000
20
209.680800000000
30
0.0
11
95.455400000000
21
209.680800000000
31
0.0
0
LINE
5
53b
100
AcDbEntity
8
1-A
6
CONTINUOUS
62
6
100
AcDbLine
10
93.769600000000
20
214.977700000000
30
0.0
11
109.022500000000
21
217.295600000000
31
0.0
0
LINE
5
53c
100
AcDbEntity
8
1-A
6
CONTINUOUS
62
6
100
AcDbLine
10
93.989200000000
20
215.822100000000
30
0.0
11
103.786500000000
21
217.280800000000
31
0.0
0
LINE
5
53d
100
AcDbEntity
8
1-A
6
CONTINUOUS
62
6
100
AcDbLine
10
87.839700000000
20
214.734100000000
30
0.0
11
71.576100000000
21
217.295600000000
31
0.0
0
LINE
5
53e
100
AcDbEntity
8
1-A
6
CONTINUOUS
62
6
100
AcDbLine
10
87.964100000000
20
215.524400000000
30
0.0
11
76.812100000000
21
217.280800000000
31
0.0
0
LINE
5
53f
100
AcDbEntity
8
1-A
6
CONTINUOUS
62
6
100
AcDbLine
10
86.031300000000
20
214.000800000000
30
0.0
11
94.031300000000
21
214.000800000000
31
0.0
0
LINE
5
540
100
AcDbEntity
8
1-A
6
CONTINUOUS
62
6
100
AcDbLine
10
92.431300000000
20
214.160800000000
30
0.0
11
92.431300000000
21
214.000800000000
31
0.0
0
LINE
5
541
100
AcDbEntity
8
1-A
6
CONTINUOUS
62
6
100
AcDbLine
10
87.631300000000
20
214.160800000000
30
0.0
11
87.631300000000
21
214.000800000000
31
0.0
0
LINE
5
542
100
AcDbEntity
8
1-A
6
CONTINUOUS
62
6
100
AcDbLine
10
95.855300000000
20
209.280800000000
30
0.0
11
95.855300000000
21
207.760800000000
31
0.0
0
LINE
5
543
100
AcDbEntity
8
1-A
6
CONTINUOUS
62
6
100
AcDbLine
10
84.207300000000
20
209.280800000000
30
0.0
11
84.207300000000
21
207.760800000000
31
0.0
0
LINE
5
544
100
AcDbEntity
8
1-A
6
CONTINUOUS
62
6
100
AcDbLine
10
86.772800000000
20
214.160800000000
30
0.0
11
93.289800000000
21
214.160800000000
31
0.0
0
LINE
5
545
100
AcDbEntity
8
1-E
6
CONTINUOUS
62
2
100
AcDbLine
10
95.855300000000
20
208.720800000000
30
0.0
11
90.031300000000
21
208.720800000000
31
0.0
0
LINE
5
546
100
AcDbEntity
8
1-E
6
CONTINUOUS
62
2
100
AcDbLine
10
84.207300000000
20
208.720800000000
30
0.0
11
90.031300000000
21
208.720800000000
31
0.0
0
LINE
5
547
100
AcDbEntity
8
1-E
6
CENTER2
62
2
100
AcDbLine
10
94.415300000000
20
206.827800000000
30
0.0
11
94.415300000000
21
209.828900000000
31
0.0
0
LINE
5
548
100
AcDbEntity
8
1-E
6
CENTER2
62
2
100
AcDbLine
10
85.647300000000
20
207.040800000000
30
0.0
11
85.647300000000
21
209.828900000000
31
0.0
0
LINE
5
549
100
AcDbEntity
8
1-A
6
CONTINUOUS
62
6
100
AcDbLine
10
178.280700000000
20
215.820200000000
30
0.0
11
187.554800000000
21
217.280800000000
31
0.0
0
LINE
5
54a
100
AcDbEntity
8
1-A
6
CONTINUOUS
62
6
100
AcDbLine
10
178.040300000000
20
214.972400000000
30
0.0
11
192.697000000000
21
217.280800000000
31
0.0
0
LINE
5
54b
100
AcDbEntity
8
1-1
6
CONTINUOUS
62
3
100
AcDbLine
10
175.215600000000
20
139.760800000000
30
0.0
11
176.335600000000
21
140.880800000000
31
0.0
0
LINE
5
54c
100
AcDbEntity
8
1-E
6
CONTINUOUS
62
2
100
AcDbLine
10
176.335600000000
20
146.560800000000
30
0.0
11
176.335600000000
21
140.880800000000
31
0.0
0
LINE
5
54d
100
AcDbEntity
8
1-E
6
CONTINUOUS
62
2
100
AcDbLine
10
172.335600000000
20
138.160800000000
30
0.0
11
174.255600000000
21
138.160800000000
31
0.0
0
LINE
5
54e
100
AcDbEntity
8
1-E
6
CONTINUOUS
62
4
100
AcDbLine
10
66.031500000000
20
65.760800000000
30
0.0
11
114.031500000000
21
65.760800000000
31
0.0
0
LINE
5
54f
100
AcDbEntity
8
1-E
6
CONTINUOUS
62
4
100
AcDbLine
10
66.031500000000
20
80.482000000000
30
0.0
11
66.031500000000
21
64.960800000000
31
0.0
0
LINE
5
550
100
AcDbEntity
8
1-E
6
CONTINUOUS
62
4
100
AcDbLine
10
114.031500000000
20
80.482000000000
30
0.0
11
114.031500000000
21
64.960800000000
31
0.0
0
LINE
5
551
100
AcDbEntity
8
1-E
6
CONTINUOUS
62
4
100
AcDbLine
10
66.031500000000
20
65.760800000000
30
0.0
11
67.577000000000
21
66.174900000000
31
0.0
0
LINE
5
552
100
AcDbEntity
8
1-E
6
CONTINUOUS
62
4
100
AcDbLine
10
66.031500000000
20
65.760800000000
30
0.0
11
67.577000000000
21
65.346700000000
31
0.0
0
LINE
5
553
100
AcDbEntity
8
1-E
6
CONTINUOUS
62
4
100
AcDbLine
10
114.031500000000
20
65.760800000000
30
0.0
11
112.486000000000
21
66.174900000000
31
0.0
0
LINE
5
554
100
AcDbEntity
8
1-E
6
CONTINUOUS
62
4
100
AcDbLine
10
114.031500000000
20
65.760800000000
30
0.0
11
112.486000000000
21
65.346700000000
31
0.0
0
LINE
5
555
100
AcDbEntity
8
1-E
6
CONTINUOUS
62
4
100
AcDbLine
10
61.631400000000
20
59.360800000000
30
0.0
11
118.431500000000
21
59.360800000000
31
0.0
0
LINE
5
556
100
AcDbEntity
8
1-E
6
CONTINUOUS
62
4
100
AcDbLine
10
61.631400000000
20
80.482000000000
30
0.0
11
61.631400000000
21
58.560800000000
31
0.0
0
LINE
5
557
100
AcDbEntity
8
1-E
6
CONTINUOUS
62
4
100
AcDbLine
10
118.431500000000
20
80.482000000000
30
0.0
11
118.431500000000
21
58.560800000000
31
0.0
0
LINE
5
558
100
AcDbEntity
8
1-E
6
CONTINUOUS
62
4
100
AcDbLine
10
61.631400000000
20
59.360800000000
30
0.0
11
63.176900000000
21
59.774900000000
31
0.0
0
LINE
5
559
100
AcDbEntity
8
1-E
6
CONTINUOUS
62
4
100
AcDbLine
10
61.631400000000
20
59.360800000000
30
0.0
11
63.176900000000
21
58.946700000000
31
0.0
0
LINE
5
55a
100
AcDbEntity
8
1-E
6
CONTINUOUS
62
4
100
AcDbLine
10
118.431500000000
20
59.360800000000
30
0.0
11
116.886000000000
21
59.774900000000
31
0.0
0
LINE
5
55b
100
AcDbEntity
8
1-E
6
CONTINUOUS
62
4
100
AcDbLine
10
118.431500000000
20
59.360800000000
30
0.0
11
116.886000000000
21
58.946700000000
31
0.0
0
LINE
5
55c
100
AcDbEntity
8
1-E
6
CONTINUOUS
62
4
100
AcDbLine
10
60.431500000000
20
52.960800000000
30
0.0
11
119.631400000000
21
52.960800000000
31
0.0
0
LINE
5
55d
100
AcDbEntity
8
1-E
6
CONTINUOUS
62
4
100
AcDbLine
10
60.431500000000
20
80.482000000000
30
0.0
11
60.431500000000
21
52.160800000000
31
0.0
0
LINE
5
55e
100
AcDbEntity
8
1-E
6
CONTINUOUS
62
4
100
AcDbLine
10
119.631400000000
20
80.482000000000
30
0.0
11
119.631400000000
21
52.160800000000
31
0.0
0
LINE
5
55f
100
AcDbEntity
8
1-E
6
CONTINUOUS
62
4
100
AcDbLine
10
60.431500000000
20
52.960800000000
30
0.0
11
61.976900000000
21
53.374900000000
31
0.0
0
LINE
5
560
100
AcDbEntity
8
1-E
6
CONTINUOUS
62
4
100
AcDbLine
10
60.431500000000
20
52.960800000000
30
0.0
11
61.976900000000
21
52.546700000000
31
0.0
0
LINE
5
561
100
AcDbEntity
8
1-E
6
CONTINUOUS
62
4
100
AcDbLine
10
119.631400000000
20
52.960800000000
30
0.0
11
118.085900000000
21
53.374900000000
31
0.0
0
LINE
5
562
100
AcDbEntity
8
1-E
6
CONTINUOUS
62
4
100
AcDbLine
10
119.631400000000
20
52.960800000000
30
0.0
11
118.085900000000
21
52.546700000000
31
0.0
0
LINE
5
563
100
AcDbEntity
8
1-E
6
CONTINUOUS
62
2
100
AcDbLine
10
88.360300000000
20
151.760700000000
30
0.0
11
66.031500000000
21
151.760700000000
31
0.0
0
LINE
5
564
100
AcDbEntity
8
1-E
6
CONTINUOUS
62
2
100
AcDbLine
10
60.431500000000
20
151.760700000000
30
0.0
11
50.031500000000
21
151.760700000000
31
0.0
0
LINE
5
565
100
AcDbEntity
8
1-E
6
CONTINUOUS
62
2
100
AcDbLine
10
130.031500000000
20
151.760700000000
30
0.0
11
119.631400000000
21
151.760700000000
31
0.0
0
LINE
5
566
100
AcDbEntity
8
1-E
6
CONTINUOUS
62
2
100
AcDbLine
10
114.031500000000
20
151.760700000000
30
0.0
11
91.646500000000
21
151.760700000000
31
0.0
0
LINE
5
567
100
AcDbEntity
8
1-1
6
CONTINUOUS
62
3
100
AcDbLine
10
66.031500000000
20
88.160800000000
30
0.0
11
90.031500000000
21
88.160800000000
31
0.0
0
LINE
5
568
100
AcDbEntity
8
1-0
6
CONTINUOUS
62
7
100
AcDbLine
10
60.431500000000
20
87.760800000000
30
0.0
11
119.631400000000
21
87.760800000000
31
0.0
0
LINE
5
569
100
AcDbEntity
8
1-E
6
CONTINUOUS
62
4
100
AcDbLine
10
42.031500000000
20
87.760800000000
30
0.0
11
42.031500000000
21
139.760800000000
31
0.0
0
LINE
5
56a
100
AcDbEntity
8
1-E
6
CONTINUOUS
62
4
100
AcDbLine
10
42.031500000000
20
87.760800000000
30
0.0
11
41.617400000000
21
89.306200000000
31
0.0
0
LINE
5
56b
100
AcDbEntity
8
1-E
6
CONTINUOUS
62
4
100
AcDbLine
10
42.031500000000
20
87.760800000000
30
0.0
11
42.445600000000
21
89.306200000000
31
0.0
0
LINE
5
56c
100
AcDbEntity
8
1-E
6
CONTINUOUS
62
4
100
AcDbLine
10
42.031500000000
20
139.760800000000
30
0.0
11
41.617400000000
21
138.215300000000
31
0.0
0
LINE
5
56d
100
AcDbEntity
8
1-E
6
CONTINUOUS
62
4
100
AcDbLine
10
42.031500000000
20
139.760800000000
30
0.0
11
42.445600000000
21
138.215300000000
31
0.0
0
LINE
5
56e
100
AcDbEntity
8
1-E
6
CONTINUOUS
62
4
100
AcDbLine
10
35.631500000000
20
87.760800000000
30
0.0
11
35.631500000000
21
151.760700000000
31
0.0
0
LINE
5
56f
100
AcDbEntity
8
1-E
6
CONTINUOUS
62
4
100
AcDbLine
10
48.175200000000
20
151.760700000000
30
0.0
11
34.831500000000
21
151.760700000000
31
0.0
0
LINE
5
570
100
AcDbEntity
8
1-E
6
CONTINUOUS
62
4
100
AcDbLine
10
35.631500000000
20
87.760800000000
30
0.0
11
35.217400000000
21
89.306200000000
31
0.0
0
LINE
5
571
100
AcDbEntity
8
1-E
6
CONTINUOUS
62
4
100
AcDbLine
10
35.631500000000
20
87.760800000000
30
0.0
11
36.045600000000
21
89.306200000000
31
0.0
0
LINE
5
572
100
AcDbEntity
8
1-E
6
CONTINUOUS
62
4
100
AcDbLine
10
35.631500000000
20
151.760700000000
30
0.0
11
35.217400000000
21
150.215200000000
31
0.0
0
LINE
5
573
100
AcDbEntity
8
1-E
6
CONTINUOUS
62
4
100
AcDbLine
10
35.631500000000
20
151.760700000000
30
0.0
11
36.045600000000
21
150.215200000000
31
0.0
0
LINE
5
574
100
AcDbEntity
8
1-E
6
CONTINUOUS
62
4
100
AcDbLine
10
58.517500000000
20
87.760800000000
30
0.0
11
28.431500000000
21
87.760800000000
31
0.0
0
LINE
5
575
100
AcDbEntity
8
1-E
6
CONTINUOUS
62
4
100
AcDbLine
10
29.231500000000
20
87.760800000000
30
0.0
11
28.817400000000
21
89.306200000000
31
0.0
0
LINE
5
576
100
AcDbEntity
8
1-E
6
CONTINUOUS
62
4
100
AcDbLine
10
29.231500000000
20
87.760800000000
30
0.0
11
29.645600000000
21
89.306200000000
31
0.0
0
LINE
5
577
100
AcDbEntity
8
1-E
6
CONTINUOUS
62
4
100
AcDbLine
10
29.231500000000
20
207.760800000000
30
0.0
11
28.817400000000
21
206.215300000000
31
0.0
0
LINE
5
578
100
AcDbEntity
8
1-E
6
CONTINUOUS
62
4
100
AcDbLine
10
29.231500000000
20
207.760800000000
30
0.0
11
29.645600000000
21
206.215300000000
31
0.0
0
LINE
5
579
100
AcDbEntity
8
1-E
6
CONTINUOUS
62
4
100
AcDbLine
10
29.231500000000
20
207.760800000000
30
0.0
11
29.231500000000
21
87.760800000000
31
0.0
0
LINE
5
57a
100
AcDbEntity
8
1-E
6
CONTINUOUS
62
4
100
AcDbLine
10
57.625500000000
20
207.760800000000
30
0.0
11
28.431500000000
21
207.760800000000
31
0.0
0
LINE
5
57b
100
AcDbEntity
8
1-E
6
CONTINUOUS
62
4
100
AcDbLine
10
59.201300000000
20
139.760800000000
30
0.0
11
41.231500000000
21
139.760800000000
31
0.0
0
LINE
5
57c
100
AcDbEntity
8
1-0
6
CENTER2
62
7
100
AcDbLine
10
174.335600000000
20
239.430300000000
30
0.0
11
174.335600000000
21
141.492800000000
31
0.0
0
LINE
5
57d
100
AcDbEntity
8
1-E
6
CONTINUOUS
62
4
100
AcDbLine
10
193.695400000000
20
87.760700000000
30
0.0
11
193.695400000000
21
135.760700000000
31
0.0
0
LINE
5
57e
100
AcDbEntity
8
1-E
6
CONTINUOUS
62
4
100
AcDbLine
10
186.802300000000
20
87.760700000000
30
0.0
11
194.495400000000
21
87.760700000000
31
0.0
0
LINE
5
57f
100
AcDbEntity
8
1-E
6
CONTINUOUS
62
4
100
AcDbLine
10
186.802300000000
20
135.760700000000
30
0.0
11
194.495400000000
21
135.760700000000
31
0.0
0
LINE
5
580
100
AcDbEntity
8
1-E
6
CONTINUOUS
62
4
100
AcDbLine
10
193.695400000000
20
87.760700000000
30
0.0
11
193.281300000000
21
89.306200000000
31
0.0
0
LINE
5
581
100
AcDbEntity
8
1-E
6
CONTINUOUS
62
4
100
AcDbLine
10
193.695400000000
20
87.760700000000
30
0.0
11
194.109600000000
21
89.306200000000
31
0.0
0
LINE
5
582
100
AcDbEntity
8
1-E
6
CONTINUOUS
62
4
100
AcDbLine
10
193.695400000000
20
135.760700000000
30
0.0
11
193.281300000000
21
134.215200000000
31
0.0
0
LINE
5
583
100
AcDbEntity
8
1-E
6
CONTINUOUS
62
4
100
AcDbLine
10
193.695400000000
20
135.760700000000
30
0.0
11
194.109600000000
21
134.215200000000
31
0.0
0
LINE
5
584
100
AcDbEntity
8
1-E
6
CONTINUOUS
62
4
100
AcDbLine
10
108.966700000000
20
249.802500000000
30
0.0
11
108.966700000000
21
237.002500000000
31
0.0
0
LINE
5
585
100
AcDbEntity
8
1-B
6
CONTINUOUS
62
7
100
AcDbLine
10
164.820400000000
20
112.827400000000
30
0.0
11
164.820400000000
21
113.894100000000
31
0.0
0
LINE
5
586
100
AcDbEntity
8
1-B
6
CONTINUOUS
62
7
100
AcDbLine
10
164.820400000000
20
110.694100000000
30
0.0
11
164.820400000000
21
109.627400000000
31
0.0
0
LINE
5
587
100
AcDbEntity
8
1-B
6
CONTINUOUS
62
7
100
AcDbLine
10
164.820400000000
20
113.894100000000
30
0.0
11
168.515500000000
21
111.760700000000
31
0.0
0
LINE
5
588
100
AcDbEntity
8
1-B
6
CONTINUOUS
62
7
100
AcDbLine
10
164.820400000000
20
109.627400000000
30
0.0
11
168.515500000000
21
111.760700000000
31
0.0
0
LINE
5
589
100
AcDbEntity
8
1-E
6
CONTINUOUS
62
6
100
AcDbLine
10
168.217400000000
20
143.445500000000
30
0.0
11
154.173600000000
21
143.445500000000
31
0.0
0
LINE
5
58a
100
AcDbEntity
8
1-E
6
CONTINUOUS
62
4
100
AcDbLine
10
146.031500000000
20
87.760700000000
30
0.0
11
146.031500000000
21
143.445500000000
31
0.0
0
LINE
5
58b
100
AcDbEntity
8
1-E
6
CONTINUOUS
62
4
100
AcDbLine
10
146.031500000000
20
87.760700000000
30
0.0
11
145.617300000000
21
89.306200000000
31
0.0
0
LINE
5
58c
100
AcDbEntity
8
1-E
6
CONTINUOUS
62
4
100
AcDbLine
10
146.031500000000
20
87.760700000000
30
0.0
11
146.445600000000
21
89.306200000000
31
0.0
0
LINE
5
58d
100
AcDbEntity
8
1-E
6
CONTINUOUS
62
4
100
AcDbLine
10
146.031500000000
20
143.445500000000
30
0.0
11
145.617300000000
21
141.900100000000
31
0.0
0
LINE
5
58e
100
AcDbEntity
8
1-E
6
CONTINUOUS
62
4
100
AcDbLine
10
146.031500000000
20
143.445500000000
30
0.0
11
146.445600000000
21
141.900100000000
31
0.0
0
LINE
5
58f
100
AcDbEntity
8
1-E
6
CONTINUOUS
62
4
100
AcDbLine
10
152.946700000000
20
143.445500000000
30
0.0
11
145.231500000000
21
143.445500000000
31
0.0
0
LINE
5
590
100
AcDbEntity
8
1-E
6
CONTINUOUS
62
4
100
AcDbLine
10
169.204700000000
20
87.760700000000
30
0.0
11
145.231500000000
21
87.760700000000
31
0.0
0
LINE
5
591
100
AcDbEntity
8
1-E
6
CONTINUOUS
62
4
100
AcDbLine
10
108.966700000000
20
237.002500000000
30
0.0
11
91.979600000000
21
212.747000000000
31
0.0
0
POLYLINE
5
592
100
AcDbEntity
8
1-E
6
CONTINUOUS
62
  4
100
AcDb2dPolyline
66
1
10
0.0
20
0.0
30
0.0
70
0
0
VERTEX
5
593
100
AcDbEntity
8
1-E
6
CONTINUOUS
62
  4
100
AcDbVertex
100
AcDb2dVertex
10
62.758000000000
20
228.917300000000
30
0.0
0
VERTEX
5
594
100
AcDbEntity
8
1-E
6
CONTINUOUS
62
  4
100
AcDbVertex
100
AcDb2dVertex
10
70.792200000000
20
207.760800000000
30
0.0
0
VERTEX
5
595
100
AcDbEntity
8
1-E
6
CONTINUOUS
62
  4
100
AcDbVertex
100
AcDb2dVertex
10
69.856400000000
20
209.058600000000
30
0.0
0
SEQEND
5
596
100
AcDbEntity
8
1-E
0
LINE
5
597
100
AcDbEntity
8
1-E
6
CONTINUOUS
62
4
100
AcDbLine
10
70.792200000000
20
207.760800000000
30
0.0
11
70.630700000000
21
209.352600000000
31
0.0
0
LINE
5
598
100
AcDbEntity
8
1-E
6
CONTINUOUS
62
6
100
AcDbLine
10
166.489900000000
20
142.645500000000
30
0.0
11
155.787500000000
21
142.645500000000
31
0.0
0
LINE
5
599
100
AcDbEntity
8
1-E
6
CONTINUOUS
62
6
100
AcDbLine
10
164.911900000000
20
141.845500000000
30
0.0
11
157.699800000000
21
141.845500000000
31
0.0
0
LINE
5
59a
100
AcDbEntity
8
1-E
6
CONTINUOUS
62
6
100
AcDbLine
10
163.794200000000
20
141.045600000000
30
0.0
11
158.699300000000
21
141.045600000000
31
0.0
0
LINE
5
59b
100
AcDbEntity
8
1-E
6
CONTINUOUS
62
4
100
AcDbLine
10
162.676500000000
20
140.245500000000
30
0.0
11
160.375300000000
21
140.245500000000
31
0.0
0
LINE
5
59c
100
AcDbEntity
8
1-E
6
CONTINUOUS
62
4
100
AcDbLine
10
138.031500000000
20
143.760700000000
30
0.0
11
138.031500000000
21
151.760700000000
31
0.0
0
LINE
5
59d
100
AcDbEntity
8
1-E
6
CONTINUOUS
62
4
100
AcDbLine
10
130.642400000000
20
151.760700000000
30
0.0
11
138.831500000000
21
151.760700000000
31
0.0
0
LINE
5
59e
100
AcDbEntity
8
1-E
6
CONTINUOUS
62
4
100
AcDbLine
10
138.031500000000
20
143.760700000000
30
0.0
11
137.617300000000
21
145.306200000000
31
0.0
0
LINE
5
59f
100
AcDbEntity
8
1-E
6
CONTINUOUS
62
4
100
AcDbLine
10
138.031500000000
20
143.760700000000
30
0.0
11
138.445600000000
21
145.306200000000
31
0.0
0
LINE
5
5a0
100
AcDbEntity
8
1-E
6
CONTINUOUS
62
4
100
AcDbLine
10
138.031500000000
20
151.760700000000
30
0.0
11
137.617300000000
21
150.215200000000
31
0.0
0
LINE
5
5a1
100
AcDbEntity
8
1-E
6
CONTINUOUS
62
4
100
AcDbLine
10
138.031500000000
20
151.760700000000
30
0.0
11
138.445600000000
21
150.215200000000
31
0.0
0
LINE
5
5a2
100
AcDbEntity
8
1-E
6
CONTINUOUS
62
4
100
AcDbLine
10
138.031500000000
20
87.760800000000
30
0.0
11
138.031500000000
21
95.760700000000
31
0.0
0
LINE
5
5a3
100
AcDbEntity
8
1-E
6
CONTINUOUS
62
4
100
AcDbLine
10
121.131700000000
20
87.760800000000
30
0.0
11
138.831500000000
21
87.760800000000
31
0.0
0
LINE
5
5a4
100
AcDbEntity
8
1-E
6
CONTINUOUS
62
4
100
AcDbLine
10
138.031500000000
20
87.760800000000
30
0.0
11
137.617300000000
21
89.306200000000
31
0.0
0
LINE
5
5a5
100
AcDbEntity
8
1-E
6
CONTINUOUS
62
4
100
AcDbLine
10
138.031500000000
20
87.760800000000
30
0.0
11
138.445600000000
21
89.306200000000
31
0.0
0
LINE
5
5a6
100
AcDbEntity
8
1-E
6
CONTINUOUS
62
4
100
AcDbLine
10
138.031500000000
20
95.760700000000
30
0.0
11
137.617300000000
21
94.215300000000
31
0.0
0
LINE
5
5a7
100
AcDbEntity
8
1-E
6
CONTINUOUS
62
4
100
AcDbLine
10
138.031500000000
20
95.760700000000
30
0.0
11
138.445600000000
21
94.215300000000
31
0.0
0
LINE
5
5a8
100
AcDbEntity
8
1-E
6
CONTINUOUS
62
4
100
AcDbLine
10
173.535600000000
20
215.214100000000
30
0.0
11
173.535600000000
21
217.280800000000
31
0.0
0
LINE
5
5a9
100
AcDbEntity
8
1-E
6
CONTINUOUS
62
4
100
AcDbLine
10
175.135600000000
20
215.214100000000
30
0.0
11
175.135600000000
21
217.280800000000
31
0.0
0
LINE
5
5aa
100
AcDbEntity
8
1-0
6
CONTINUOUS
62
7
100
AcDbLine
10
174.127600000000
20
135.560300000000
30
0.0
11
173.700500000000
21
135.560300000000
31
0.0
0
LINE
5
5ab
100
AcDbEntity
8
1-0
6
CONTINUOUS
62
7
100
AcDbLine
10
173.654100000000
20
135.640800000000
30
0.0
11
173.700500000000
21
135.560300000000
31
0.0
0
LINE
5
5ac
100
AcDbEntity
8
1-0
6
CONTINUOUS
62
7
100
AcDbLine
10
174.127600000000
20
136.761200000000
30
0.0
11
173.700500000000
21
136.761200000000
31
0.0
0
LINE
5
5ad
100
AcDbEntity
8
1-0
6
CONTINUOUS
62
7
100
AcDbLine
10
173.654100000000
20
136.680800000000
30
0.0
11
173.700500000000
21
136.761200000000
31
0.0
0
LINE
5
5ae
100
AcDbEntity
8
1-0
6
CONTINUOUS
62
7
100
AcDbLine
10
173.654100000000
20
135.640800000000
30
0.0
11
173.654100000000
21
136.680800000000
31
0.0
0
LINE
5
5af
100
AcDbEntity
8
1-E
6
CONTINUOUS
62
3
100
AcDbLine
10
173.654100000000
20
136.480800000000
30
0.0
11
173.295600000000
21
136.480800000000
31
0.0
0
LINE
5
5b0
100
AcDbEntity
8
1-E
6
CONTINUOUS
62
3
100
AcDbLine
10
173.654100000000
20
135.840800000000
30
0.0
11
173.295600000000
21
135.840800000000
31
0.0
0
LINE
5
5b1
100
AcDbEntity
8
1-0
6
CONTINUOUS
62
7
100
AcDbLine
10
174.127600000000
20
135.860500000000
30
0.0
11
173.700500000000
21
135.860500000000
31
0.0
0
LINE
5
5b2
100
AcDbEntity
8
1-0
6
CONTINUOUS
62
7
100
AcDbLine
10
174.127600000000
20
136.461000000000
30
0.0
11
173.700500000000
21
136.461000000000
31
0.0
0
LINE
5
5b3
100
AcDbEntity
8
1-E
6
CONTINUOUS
62
4
100
AcDbLine
10
173.654100000000
20
136.400800000000
30
0.0
11
173.295600000000
21
136.400800000000
31
0.0
0
LINE
5
5b4
100
AcDbEntity
8
1-E
6
CONTINUOUS
62
4
100
AcDbLine
10
173.654100000000
20
135.920800000000
30
0.0
11
173.295600000000
21
135.920800000000
31
0.0
0
LINE
5
5b5
100
AcDbEntity
8
1-E
6
CENTER2
62
3
100
AcDbLine
10
173.160200000000
20
136.160800000000
30
0.0
11
176.686900000000
21
136.160800000000
31
0.0
0
LINE
5
5b6
100
AcDbEntity
8
1-E
6
CONTINUOUS
62
3
100
AcDbLine
10
174.127600000000
20
90.480800000000
30
0.0
11
174.255600000000
21
90.480800000000
31
0.0
0
LINE
5
5b7
100
AcDbEntity
8
1-E
6
CONTINUOUS
62
3
100
AcDbLine
10
174.127600000000
20
89.040700000000
30
0.0
11
174.255600000000
21
89.040700000000
31
0.0
0
LINE
5
5b8
100
AcDbEntity
8
1-E
6
CONTINUOUS
62
3
100
AcDbLine
10
173.295600000000
20
90.080700000000
30
0.0
11
173.295600000000
21
89.440700000000
31
0.0
0
LINE
5
5b9
100
AcDbEntity
8
1-E
6
CONTINUOUS
62
3
100
AcDbLine
10
174.127600000000
20
89.040700000000
30
0.0
11
174.127600000000
21
90.480800000000
31
0.0
0
LINE
5
5ba
100
AcDbEntity
8
1-0
6
CONTINUOUS
62
7
100
AcDbLine
10
174.127600000000
20
89.160300000000
30
0.0
11
173.700500000000
21
89.160300000000
31
0.0
0
LINE
5
5bb
100
AcDbEntity
8
1-0
6
CONTINUOUS
62
7
100
AcDbLine
10
173.654100000000
20
89.240700000000
30
0.0
11
173.700500000000
21
89.160300000000
31
0.0
0
LINE
5
5bc
100
AcDbEntity
8
1-0
6
CONTINUOUS
62
7
100
AcDbLine
10
174.127600000000
20
90.361200000000
30
0.0
11
173.700500000000
21
90.361200000000
31
0.0
0
LINE
5
5bd
100
AcDbEntity
8
1-0
6
CONTINUOUS
62
7
100
AcDbLine
10
173.654100000000
20
90.280700000000
30
0.0
11
173.700500000000
21
90.361200000000
31
0.0
0
LINE
5
5be
100
AcDbEntity
8
1-0
6
CONTINUOUS
62
7
100
AcDbLine
10
173.654100000000
20
89.240700000000
30
0.0
11
173.654100000000
21
90.280700000000
31
0.0
0
LINE
5
5bf
100
AcDbEntity
8
1-E
6
CONTINUOUS
62
3
100
AcDbLine
10
173.654100000000
20
90.080700000000
30
0.0
11
173.295600000000
21
90.080700000000
31
0.0
0
LINE
5
5c0
100
AcDbEntity
8
1-E
6
CONTINUOUS
62
3
100
AcDbLine
10
173.654100000000
20
89.440700000000
30
0.0
11
173.295600000000
21
89.440700000000
31
0.0
0
LINE
5
5c1
100
AcDbEntity
8
1-0
6
CONTINUOUS
62
7
100
AcDbLine
10
174.127600000000
20
89.460500000000
30
0.0
11
173.700500000000
21
89.460500000000
31
0.0
0
LINE
5
5c2
100
AcDbEntity
8
1-0
6
CONTINUOUS
62
7
100
AcDbLine
10
174.127600000000
20
90.060900000000
30
0.0
11
173.700500000000
21
90.060900000000
31
0.0
0
LINE
5
5c3
100
AcDbEntity
8
1-E
6
CONTINUOUS
62
4
100
AcDbLine
10
173.654100000000
20
90.000700000000
30
0.0
11
173.295600000000
21
90.000700000000
31
0.0
0
LINE
5
5c4
100
AcDbEntity
8
1-E
6
CONTINUOUS
62
4
100
AcDbLine
10
173.654100000000
20
89.520700000000
30
0.0
11
173.295600000000
21
89.520700000000
31
0.0
0
LINE
5
5c5
100
AcDbEntity
8
1-0
6
CONTINUOUS
62
7
100
AcDbLine
10
169.695600000000
20
87.200700000000
30
0.0
11
169.695600000000
21
87.760700000000
31
0.0
0
LINE
5
5c6
100
AcDbEntity
8
1-0
6
CONTINUOUS
62
7
100
AcDbLine
10
169.695600000000
20
87.200700000000
30
0.0
11
176.335600000000
21
87.200700000000
31
0.0
0
LINE
5
5c7
100
AcDbEntity
8
1-E
6
CONTINUOUS
62
4
100
AcDbLine
10
108.966700000000
20
249.802500000000
30
0.0
11
137.184900000000
21
249.802500000000
31
0.0
0
LINE
5
5c8
100
AcDbEntity
8
1-E
6
CONTINUOUS
62
4
100
AcDbLine
10
108.966700000000
20
243.402500000000
30
0.0
11
137.184900000000
21
243.402500000000
31
0.0
0
LINE
5
5c9
100
AcDbEntity
8
1-E
6
CONTINUOUS
62
4
100
AcDbLine
10
108.966700000000
20
237.002500000000
30
0.0
11
137.184900000000
21
237.002500000000
31
0.0
0
LINE
5
5ca
100
AcDbEntity
8
1-E
6
CONTINUOUS
62
4
100
AcDbLine
10
62.758000000000
20
228.917300000000
30
0.0
11
36.060900000000
21
228.917300000000
31
0.0
0
LINE
5
5cb
100
AcDbEntity
8
1-E
6
CONTINUOUS
62
4
100
AcDbLine
10
94.123600000000
20
116.517400000000
30
0.0
11
106.986400000000
21
116.517400000000
31
0.0
0
LINE
5
5cc
100
AcDbEntity
8
1-B
6
CONTINUOUS
62
7
100
AcDbLine
10
153.087100000000
20
112.827400000000
30
0.0
11
164.820400000000
21
112.827400000000
31
0.0
0
LINE
5
5cd
100
AcDbEntity
8
1-B
6
CONTINUOUS
62
7
100
AcDbLine
10
153.087100000000
20
110.694100000000
30
0.0
11
164.820400000000
21
110.694100000000
31
0.0
0
LINE
5
5ce
100
AcDbEntity
8
1-B
6
CONTINUOUS
62
7
100
AcDbLine
10
153.087100000000
20
112.827400000000
30
0.0
11
153.087100000000
21
110.694100000000
31
0.0
0
LINE
5
5cf
100
AcDbEntity
8
1-0
6
CONTINUOUS
62
7
100
AcDbLine
10
60.431500000000
20
207.200800000000
30
0.0
11
60.431500000000
21
81.760800000000
31
0.0
0
LINE
5
5d0
100
AcDbEntity
8
1-0
6
DOT
62
7
100
AcDbLine
10
61.151500000000
20
207.200800000000
30
0.0
11
61.151500000000
21
87.760800000000
31
0.0
0
LINE
5
5d1
100
AcDbEntity
8
1-E
6
CONTINUOUS
62
4
100
AcDbLine
10
116.671400000000
20
122.000700000000
30
0.0
11
115.391400000000
21
122.000700000000
31
0.0
0
LINE
5
5d2
100
AcDbEntity
8
1-E
6
CONTINUOUS
62
4
100
AcDbLine
10
116.671400000000
20
121.440700000000
30
0.0
11
115.391400000000
21
121.440700000000
31
0.0
0
LINE
5
5d3
100
AcDbEntity
8
1-E
6
CONTINUOUS
62
4
100
AcDbLine
10
116.671400000000
20
120.880700000000
30
0.0
11
115.391400000000
21
120.880700000000
31
0.0
0
LINE
5
5d4
100
AcDbEntity
8
1-E
6
CONTINUOUS
62
4
100
AcDbLine
10
116.671400000000
20
120.320800000000
30
0.0
11
115.391400000000
21
120.320800000000
31
0.0
0
LINE
5
5d5
100
AcDbEntity
8
1-E
6
CONTINUOUS
62
4
100
AcDbLine
10
116.671400000000
20
127.200800000000
30
0.0
11
115.391400000000
21
127.200800000000
31
0.0
0
LINE
5
5d6
100
AcDbEntity
8
1-E
6
CONTINUOUS
62
4
100
AcDbLine
10
116.671400000000
20
126.640800000000
30
0.0
11
115.391400000000
21
126.640800000000
31
0.0
0
LINE
5
5d7
100
AcDbEntity
8
1-E
6
CONTINUOUS
62
4
100
AcDbLine
10
116.671400000000
20
126.080800000000
30
0.0
11
115.391400000000
21
126.080800000000
31
0.0
0
LINE
5
5d8
100
AcDbEntity
8
1-E
6
CONTINUOUS
62
4
100
AcDbLine
10
116.671400000000
20
125.520800000000
30
0.0
11
115.391400000000
21
125.520800000000
31
0.0
0
LINE
5
5d9
100
AcDbEntity
8
1-E
6
CONTINUOUS
62
4
100
AcDbLine
10
116.671400000000
20
99.600800000000
30
0.0
11
115.391400000000
21
99.600800000000
31
0.0
0
LINE
5
5da
100
AcDbEntity
8
1-E
6
CONTINUOUS
62
4
100
AcDbLine
10
116.671400000000
20
99.040800000000
30
0.0
11
115.391400000000
21
99.040800000000
31
0.0
0
LINE
5
5db
100
AcDbEntity
8
1-E
6
CONTINUOUS
62
4
100
AcDbLine
10
116.671400000000
20
98.480800000000
30
0.0
11
115.391400000000
21
98.480800000000
31
0.0
0
LINE
5
5dc
100
AcDbEntity
8
1-E
6
CONTINUOUS
62
4
100
AcDbLine
10
116.671400000000
20
97.920800000000
30
0.0
11
115.391400000000
21
97.920800000000
31
0.0
0
LINE
5
5dd
100
AcDbEntity
8
1-E
6
CONTINUOUS
62
4
100
AcDbLine
10
116.671400000000
20
94.400700000000
30
0.0
11
115.391400000000
21
94.400700000000
31
0.0
0
LINE
5
5de
100
AcDbEntity
8
1-E
6
CONTINUOUS
62
4
100
AcDbLine
10
116.671400000000
20
93.840700000000
30
0.0
11
115.391400000000
21
93.840700000000
31
0.0
0
LINE
5
5df
100
AcDbEntity
8
1-E
6
CONTINUOUS
62
4
100
AcDbLine
10
116.671400000000
20
93.280700000000
30
0.0
11
115.391400000000
21
93.280700000000
31
0.0
0
LINE
5
5e0
100
AcDbEntity
8
1-E
6
CONTINUOUS
62
4
100
AcDbLine
10
116.671400000000
20
92.720800000000
30
0.0
11
115.391400000000
21
92.720800000000
31
0.0
0
LINE
5
5e1
100
AcDbEntity
8
1-A
6
CONTINUOUS
62
2
100
AcDbLine
10
167.135500000000
20
207.760800000000
30
0.0
11
167.135500000000
21
201.760800000000
31
0.0
0
POLYLINE
5
5e2
100
AcDbEntity
8
1-A
6
CONTINUOUS
62
  2
100
AcDb2dPolyline
66
1
10
0.0
20
0.0
30
0.0
70
0
0
VERTEX
5
5e3
100
AcDbEntity
8
1-A
6
CONTINUOUS
62
  2
100
AcDbVertex
100
AcDb2dVertex
10
167.135600000000
20
207.760800000000
30
0.0
0
VERTEX
5
5e4
100
AcDbEntity
8
1-A
6
CONTINUOUS
62
  2
100
AcDbVertex
100
AcDb2dVertex
10
181.535500000000
20
207.760800000000
30
0.0
0
VERTEX
5
5e5
100
AcDbEntity
8
1-A
6
CONTINUOUS
62
  2
100
AcDbVertex
100
AcDb2dVertex
10
181.535500000000
20
201.760800000000
30
0.0
0
SEQEND
5
5e6
100
AcDbEntity
8
1-A
0
LINE
5
5e7
100
AcDbEntity
8
1-0
6
CONTINUOUS
62
7
100
AcDbLine
10
177.695500000000
20
207.200800000000
30
0.0
11
177.695500000000
21
75.760700000000
31
0.0
0
LINE
5
5e8
100
AcDbEntity
8
1-E
6
CONTINUOUS
62
7
100
AcDbLine
10
177.695500000000
20
143.760700000000
30
0.0
11
176.975600000000
21
143.760700000000
31
0.0
0
LINE
5
5e9
100
AcDbEntity
8
1-E
6
CONTINUOUS
62
7
100
AcDbLine
10
114.031500000000
20
144.160800000000
30
0.0
11
93.711500000000
21
144.160800000000
31
0.0
0
LINE
5
5ea
100
AcDbEntity
8
1-E
6
CONTINUOUS
62
7
100
AcDbLine
10
86.351400000000
20
144.160800000000
30
0.0
11
66.050800000000
21
144.160800000000
31
0.0
0
LINE
5
5eb
100
AcDbEntity
8
1-0
6
CONTINUOUS
62
7
100
AcDbLine
10
294.322500000000
20
69.332900000000
30
0.0
11
294.589000000000
21
69.332900000000
31
0.0
0
LINE
5
5ec
100
AcDbEntity
8
1-0
6
CONTINUOUS
62
7
100
AcDbLine
10
293.655900000000
20
77.066200000000
30
0.0
11
293.655900000000
21
69.999500000000
31
0.0
0
LINE
5
5ed
100
AcDbEntity
8
1-1
6
CONTINUOUS
62
3
100
AcDbLine
10
288.855900000000
20
141.999600000000
30
0.0
11
290.455900000000
21
141.999600000000
31
0.0
0
LINE
5
5ee
100
AcDbEntity
8
1-1
6
CONTINUOUS
62
3
100
AcDbLine
10
290.455900000000
20
78.666100000000
30
0.0
11
291.789100000000
21
78.666100000000
31
0.0
0
POLYLINE
5
5ef
100
AcDbEntity
8
1-1
6
CONTINUOUS
62
  3
100
AcDb2dPolyline
66
1
10
0.0
20
0.0
30
0.0
70
0
0
VERTEX
5
5f0
100
AcDbEntity
8
1-1
6
CONTINUOUS
62
  3
100
AcDbVertex
100
AcDb2dVertex
10
290.455900000000
20
86.666100000000
30
0.0
0
VERTEX
5
5f1
100
AcDbEntity
8
1-1
6
CONTINUOUS
62
  3
100
AcDbVertex
100
AcDb2dVertex
10
291.789100000000
20
86.666100000000
30
0.0
0
VERTEX
5
5f2
100
AcDbEntity
8
1-1
6
CONTINUOUS
62
  3
100
AcDbVertex
100
AcDb2dVertex
10
291.789100000000
20
78.666100000000
30
0.0
0
SEQEND
5
5f3
100
AcDbEntity
8
1-1
0
LINE
5
5f4
100
AcDbEntity
8
1-1
6
CONTINUOUS
62
3
100
AcDbLine
10
291.789100000000
20
85.199500000000
30
0.0
11
292.589100000000
21
85.199500000000
31
0.0
0
LINE
5
5f5
100
AcDbEntity
8
1-1
6
CENTER2
62
3
100
AcDbLine
10
286.901300000000
20
82.666100000000
30
0.0
11
293.129300000000
21
82.666100000000
31
0.0
0
LINE
5
5f6
100
AcDbEntity
8
1-1
6
CONTINUOUS
62
3
100
AcDbLine
10
291.789100000000
20
80.132800000000
30
0.0
11
292.589100000000
21
80.132800000000
31
0.0
0
LINE
5
5f7
100
AcDbEntity
8
1-0
6
CONTINUOUS
62
2
100
AcDbLine
10
285.389200000000
20
121.999600000000
30
0.0
11
284.589200000000
21
121.999600000000
31
0.0
0
LINE
5
5f8
100
AcDbEntity
8
1-4
6
CONTINUOUS
62
2
100
AcDbLine
10
285.389200000000
20
121.999600000000
30
0.0
11
286.189300000000
21
119.199600000000
31
0.0
0
LINE
5
5f9
100
AcDbEntity
8
1-0
6
CONTINUOUS
62
2
100
AcDbLine
10
288.855900000000
20
121.999600000000
30
0.0
11
287.522500000000
21
121.999600000000
31
0.0
0
LINE
5
5fa
100
AcDbEntity
8
1-4
6
CONTINUOUS
62
2
100
AcDbLine
10
287.522500000000
20
121.999600000000
30
0.0
11
286.189300000000
21
117.332900000000
31
0.0
0
LINE
5
5fb
100
AcDbEntity
8
1-4
6
CONTINUOUS
62
2
100
AcDbLine
10
286.189300000000
20
119.199600000000
30
0.0
11
286.189300000000
21
115.332800000000
31
0.0
0
LINE
5
5fc
100
AcDbEntity
8
1-0
6
CONTINUOUS
62
2
100
AcDbLine
10
285.389200000000
20
108.666200000000
30
0.0
11
284.589200000000
21
108.666200000000
31
0.0
0
LINE
5
5fd
100
AcDbEntity
8
1-4
6
CONTINUOUS
62
2
100
AcDbLine
10
285.389200000000
20
108.666200000000
30
0.0
11
286.189300000000
21
111.466200000000
31
0.0
0
LINE
5
5fe
100
AcDbEntity
8
1-0
6
CONTINUOUS
62
2
100
AcDbLine
10
288.855900000000
20
108.666200000000
30
0.0
11
287.522500000000
21
108.666200000000
31
0.0
0
LINE
5
5ff
100
AcDbEntity
8
1-4
6
CONTINUOUS
62
2
100
AcDbLine
10
287.522500000000
20
108.666200000000
30
0.0
11
286.189300000000
21
113.332800000000
31
0.0
0
LINE
5
600
100
AcDbEntity
8
1-4
6
CONTINUOUS
62
2
100
AcDbLine
10
286.189300000000
20
111.466200000000
30
0.0
11
286.189300000000
21
115.332800000000
31
0.0
0
LINE
5
601
100
AcDbEntity
8
1-0
6
CONTINUOUS
62
2
100
AcDbLine
10
285.922600000000
20
99.999500000000
30
0.0
11
284.589200000000
21
99.999500000000
31
0.0
0
LINE
5
602
100
AcDbEntity
8
1-4
6
CONTINUOUS
62
2
100
AcDbLine
10
285.922600000000
20
99.999500000000
30
0.0
11
286.722600000000
21
97.199500000000
31
0.0
0
LINE
5
603
100
AcDbEntity
8
1-0
6
CONTINUOUS
62
2
100
AcDbLine
10
288.855900000000
20
99.999500000000
30
0.0
11
288.055800000000
21
99.999500000000
31
0.0
0
LINE
5
604
100
AcDbEntity
8
1-4
6
CONTINUOUS
62
2
100
AcDbLine
10
288.055800000000
20
99.999500000000
30
0.0
11
286.722600000000
21
95.332800000000
31
0.0
0
LINE
5
605
100
AcDbEntity
8
1-4
6
CONTINUOUS
62
2
100
AcDbLine
10
286.722600000000
20
97.199500000000
30
0.0
11
286.722600000000
21
93.332800000000
31
0.0
0
LINE
5
606
100
AcDbEntity
8
1-0
6
CONTINUOUS
62
2
100
AcDbLine
10
285.922600000000
20
86.666100000000
30
0.0
11
284.589200000000
21
86.666100000000
31
0.0
0
LINE
5
607
100
AcDbEntity
8
1-4
6
CONTINUOUS
62
2
100
AcDbLine
10
285.922600000000
20
86.666100000000
30
0.0
11
286.722600000000
21
89.466100000000
31
0.0
0
LINE
5
608
100
AcDbEntity
8
1-0
6
CONTINUOUS
62
2
100
AcDbLine
10
288.855900000000
20
86.666100000000
30
0.0
11
288.055800000000
21
86.666100000000
31
0.0
0
LINE
5
609
100
AcDbEntity
8
1-4
6
CONTINUOUS
62
2
100
AcDbLine
10
288.055800000000
20
86.666100000000
30
0.0
11
286.722600000000
21
91.332800000000
31
0.0
0
LINE
5
60a
100
AcDbEntity
8
1-4
6
CONTINUOUS
62
2
100
AcDbLine
10
286.722600000000
20
89.466100000000
30
0.0
11
286.722600000000
21
93.332800000000
31
0.0
0
LINE
5
60b
100
AcDbEntity
8
1-0
6
CENTER2
62
2
100
AcDbLine
10
289.901200000000
20
93.332800000000
30
0.0
11
283.697600000000
21
93.332800000000
31
0.0
0
LINE
5
60c
100
AcDbEntity
8
1-0
6
CENTER2
62
2
100
AcDbLine
10
289.901200000000
20
115.332800000000
30
0.0
11
283.697600000000
21
115.332800000000
31
0.0
0
LINE
5
60d
100
AcDbEntity
8
1-1
6
CONTINUOUS
62
3
100
AcDbLine
10
290.455900000000
20
79.999500000000
30
0.0
11
288.855900000000
21
79.999500000000
31
0.0
0
POLYLINE
5
60e
100
AcDbEntity
8
1-0
6
CONTINUOUS
62
  7
100
AcDb2dPolyline
66
1
10
0.0
20
0.0
30
0.0
70
0
0
VERTEX
5
60f
100
AcDbEntity
8
1-0
6
CONTINUOUS
62
  7
100
AcDbVertex
100
AcDb2dVertex
10
292.122600000000
20
138.666200000000
30
0.0
0
VERTEX
5
610
100
AcDbEntity
8
1-0
6
CONTINUOUS
62
  7
100
AcDbVertex
100
AcDb2dVertex
10
291.789100000000
20
138.666200000000
30
0.0
0
VERTEX
5
611
100
AcDbEntity
8
1-0
6
CONTINUOUS
62
  7
100
AcDbVertex
100
AcDb2dVertex
10
291.789100000000
20
133.332800000000
30
0.0
0
SEQEND
5
612
100
AcDbEntity
8
1-0
0
LINE
5
613
100
AcDbEntity
8
1-0
6
CONTINUOUS
62
7
100
AcDbLine
10
290.455900000000
20
133.332800000000
30
0.0
11
291.789100000000
21
133.332800000000
31
0.0
0
LINE
5
614
100
AcDbEntity
8
1-E
6
CONTINUOUS
62
3
100
AcDbLine
10
292.589100000000
20
138.532900000000
30
0.0
11
292.589100000000
21
133.466100000000
31
0.0
0
LINE
5
615
100
AcDbEntity
8
1-E
6
CONTINUOUS
62
3
100
AcDbLine
10
291.789100000000
20
133.466100000000
30
0.0
11
292.589100000000
21
133.466100000000
31
0.0
0
LINE
5
616
100
AcDbEntity
8
1-E
6
CONTINUOUS
62
3
100
AcDbLine
10
291.789100000000
20
138.532900000000
30
0.0
11
292.589100000000
21
138.532900000000
31
0.0
0
LINE
5
617
100
AcDbEntity
8
1-E
6
DOT
62
3
100
AcDbLine
10
292.055900000000
20
136.532900000000
30
0.0
11
292.589100000000
21
137.066200000000
31
0.0
0
LINE
5
618
100
AcDbEntity
8
1-E
6
DOT
62
3
100
AcDbLine
10
292.055900000000
20
135.466200000000
30
0.0
11
292.589100000000
21
134.932900000000
31
0.0
0
LINE
5
619
100
AcDbEntity
8
1-E
6
DOT
62
3
100
AcDbLine
10
292.055900000000
20
136.532900000000
30
0.0
11
292.055900000000
21
135.466200000000
31
0.0
0
LINE
5
61a
100
AcDbEntity
8
1-E
6
DOT
62
3
100
AcDbLine
10
288.855900000000
20
135.466200000000
30
0.0
11
292.055900000000
21
135.466200000000
31
0.0
0
LINE
5
61b
100
AcDbEntity
8
1-E
6
DOT
62
3
100
AcDbLine
10
288.855900000000
20
136.532900000000
30
0.0
11
292.055900000000
21
136.532900000000
31
0.0
0
LINE
5
61c
100
AcDbEntity
8
1-E
6
CONTINUOUS
62
3
100
AcDbLine
10
290.455900000000
20
86.634500000000
30
0.0
11
290.487600000000
21
86.666100000000
31
0.0
0
LINE
5
61d
100
AcDbEntity
8
1-E
6
DOT
62
3
100
AcDbLine
10
292.055900000000
20
83.199500000000
30
0.0
11
292.589100000000
21
83.732800000000
31
0.0
0
LINE
5
61e
100
AcDbEntity
8
1-E
6
DOT
62
3
100
AcDbLine
10
292.055900000000
20
82.132800000000
30
0.0
11
292.589100000000
21
81.599500000000
31
0.0
0
LINE
5
61f
100
AcDbEntity
8
1-E
6
DOT
62
3
100
AcDbLine
10
292.055900000000
20
83.199500000000
30
0.0
11
292.055900000000
21
82.132800000000
31
0.0
0
LINE
5
620
100
AcDbEntity
8
1-E
6
DOT
62
3
100
AcDbLine
10
288.855900000000
20
82.132800000000
30
0.0
11
292.055900000000
21
82.132800000000
31
0.0
0
LINE
5
621
100
AcDbEntity
8
1-E
6
DOT
62
3
100
AcDbLine
10
288.855900000000
20
83.199500000000
30
0.0
11
292.055900000000
21
83.199500000000
31
0.0
0
LINE
5
622
100
AcDbEntity
8
1-E
6
CONTINUOUS
62
2
100
AcDbLine
10
286.855900000000
20
166.489100000000
30
0.0
11
286.855900000000
21
153.332900000000
31
0.0
0
LINE
5
623
100
AcDbEntity
8
1-E
6
CONTINUOUS
62
2
100
AcDbLine
10
291.122600000000
20
166.489100000000
30
0.0
11
291.122600000000
21
153.332900000000
31
0.0
0
LINE
5
624
100
AcDbEntity
8
1-1
6
CONTINUOUS
62
3
100
AcDbLine
10
292.589100000000
20
85.199500000000
30
0.0
11
292.589100000000
21
80.132800000000
31
0.0
0
LINE
5
625
100
AcDbEntity
8
1-0
6
CONTINUOUS
62
7
100
AcDbLine
10
307.922300000000
20
79.332800000000
30
0.0
11
281.255900000000
21
79.332800000000
31
0.0
0
LINE
5
626
100
AcDbEntity
8
1-E
6
CONTINUOUS
62
2
100
AcDbLine
10
307.922300000000
20
135.332800000000
30
0.0
11
293.389200000000
21
135.332800000000
31
0.0
0
LINE
5
627
100
AcDbEntity
8
1-E
6
CONTINUOUS
62
2
100
AcDbLine
10
307.922300000000
20
161.999500000000
30
0.0
11
294.589000000000
21
161.999500000000
31
0.0
0
LINE
5
628
100
AcDbEntity
8
1-E
6
CONTINUOUS
62
2
100
AcDbLine
10
285.655900000000
20
153.332900000000
30
0.0
11
285.655900000000
21
139.332900000000
31
0.0
0
LINE
5
629
100
AcDbEntity
8
1-1
6
CONTINUOUS
62
3
100
AcDbLine
10
285.655900000000
20
153.332900000000
30
0.0
11
292.322500000000
21
153.332900000000
31
0.0
0
LINE
5
62a
100
AcDbEntity
8
1-1
6
CENTER2
62
3
100
AcDbLine
10
285.903400000000
20
148.666200000000
30
0.0
11
292.065900000000
21
148.666200000000
31
0.0
0
LINE
5
62b
100
AcDbEntity
8
1-1
6
CONTINUOUS
62
3
100
AcDbLine
10
290.455900000000
20
141.999600000000
30
0.0
11
292.322500000000
21
143.866200000000
31
0.0
0
LINE
5
62c
100
AcDbEntity
8
1-E
6
CONTINUOUS
62
2
100
AcDbLine
10
292.322500000000
20
153.332900000000
30
0.0
11
292.322500000000
21
143.866200000000
31
0.0
0
LINE
5
62d
100
AcDbEntity
8
1-E
6
CONTINUOUS
62
2
100
AcDbLine
10
285.655900000000
20
139.332900000000
30
0.0
11
288.855900000000
21
139.332900000000
31
0.0
0
LINE
5
62e
100
AcDbEntity
8
1-0
6
CENTER2
62
7
100
AcDbLine
10
288.989200000000
20
166.489100000000
30
0.0
11
288.989200000000
21
144.886300000000
31
0.0
0
LINE
5
62f
100
AcDbEntity
8
1-0
6
CONTINUOUS
62
7
100
AcDbLine
10
283.389200000000
20
166.489100000000
30
0.0
11
283.389200000000
21
104.732800000000
31
0.0
0
LINE
5
630
100
AcDbEntity
8
1-0
6
CONTINUOUS
62
7
100
AcDbLine
10
283.389200000000
20
103.932800000000
30
0.0
11
283.389200000000
21
79.332800000000
31
0.0
0
LINE
5
631
100
AcDbEntity
8
1-0
6
CONTINUOUS
62
7
100
AcDbLine
10
284.589200000000
20
166.489100000000
30
0.0
11
284.589200000000
21
104.732800000000
31
0.0
0
LINE
5
632
100
AcDbEntity
8
1-0
6
CONTINUOUS
62
7
100
AcDbLine
10
284.589200000000
20
103.932800000000
30
0.0
11
284.589200000000
21
79.332800000000
31
0.0
0
LINE
5
633
100
AcDbEntity
8
1-1
6
CONTINUOUS
62
3
100
AcDbLine
10
288.855900000000
20
141.999600000000
30
0.0
11
288.855900000000
21
104.732800000000
31
0.0
0
LINE
5
634
100
AcDbEntity
8
1-1
6
CONTINUOUS
62
3
100
AcDbLine
10
288.855900000000
20
103.932800000000
30
0.0
11
288.855900000000
21
79.999500000000
31
0.0
0
LINE
5
635
100
AcDbEntity
8
1-1
6
CONTINUOUS
62
3
100
AcDbLine
10
290.455900000000
20
141.999600000000
30
0.0
11
290.455900000000
21
104.732800000000
31
0.0
0
LINE
5
636
100
AcDbEntity
8
1-1
6
CONTINUOUS
62
3
100
AcDbLine
10
290.455900000000
20
103.932800000000
30
0.0
11
290.455900000000
21
78.666100000000
31
0.0
0
LINE
5
637
100
AcDbEntity
8
1-0
6
CONTINUOUS
62
7
100
AcDbLine
10
293.389200000000
20
79.332800000000
30
0.0
11
293.389200000000
21
103.932800000000
31
0.0
0
LINE
5
638
100
AcDbEntity
8
1-0
6
CONTINUOUS
62
7
100
AcDbLine
10
293.389200000000
20
104.732800000000
30
0.0
11
293.389200000000
21
166.489100000000
31
0.0
0
LINE
5
639
100
AcDbEntity
8
2-0
6
PHANTOM2
62
4
100
AcDbLine
10
281.136000000000
20
104.732800000000
30
0.0
11
302.584900000000
21
104.732800000000
31
0.0
0
LINE
5
63a
100
AcDbEntity
8
2-0
6
PHANTOM2
62
4
100
AcDbLine
10
281.136000000000
20
103.932800000000
30
0.0
11
302.584900000000
21
103.932800000000
31
0.0
0
LINE
5
63b
100
AcDbEntity
8
1-0
6
CONTINUOUS
62
7
100
AcDbLine
10
294.589000000000
20
103.932800000000
30
0.0
11
294.589000000000
21
61.876600000000
31
0.0
0
LINE
5
63c
100
AcDbEntity
8
2-0
6
PHANTOM2
62
4
100
AcDbLine
10
281.136000000000
20
166.489100000000
30
0.0
11
296.200900000000
21
166.489100000000
31
0.0
0
LINE
5
63d
100
AcDbEntity
8
2-1
6
CONTINUOUS
62
3
100
AcDbLine
10
288.642600000000
20
134.799500000000
30
0.0
11
288.855900000000
21
134.799500000000
31
0.0
0
LINE
5
63e
100
AcDbEntity
8
2-1
6
CONTINUOUS
62
3
100
AcDbLine
10
287.255900000000
20
135.999600000000
30
0.0
11
287.255900000000
21
135.466200000000
31
0.0
0
LINE
5
63f
100
AcDbEntity
8
2-1
6
CONTINUOUS
62
3
100
AcDbLine
10
287.775900000000
20
135.599600000000
30
0.0
11
287.255900000000
21
135.599600000000
31
0.0
0
LINE
5
640
100
AcDbEntity
8
2-1
6
CONTINUOUS
62
3
100
AcDbLine
10
288.642600000000
20
135.999600000000
30
0.0
11
288.642600000000
21
134.799500000000
31
0.0
0
LINE
5
641
100
AcDbEntity
8
2-1
6
CONTINUOUS
62
3
100
AcDbLine
10
288.642600000000
20
137.199500000000
30
0.0
11
288.855900000000
21
137.199500000000
31
0.0
0
LINE
5
642
100
AcDbEntity
8
2-1
6
CONTINUOUS
62
3
100
AcDbLine
10
287.255900000000
20
135.999600000000
30
0.0
11
287.255900000000
21
136.532900000000
31
0.0
0
LINE
5
643
100
AcDbEntity
8
2-1
6
CONTINUOUS
62
3
100
AcDbLine
10
287.775900000000
20
136.399500000000
30
0.0
11
287.255900000000
21
136.399500000000
31
0.0
0
LINE
5
644
100
AcDbEntity
8
2-1
6
CONTINUOUS
62
3
100
AcDbLine
10
288.642600000000
20
135.999600000000
30
0.0
11
288.642600000000
21
137.199500000000
31
0.0
0
LINE
5
645
100
AcDbEntity
8
2-0
6
CONTINUOUS
62
7
100
AcDbLine
10
287.775900000000
20
135.132900000000
30
0.0
11
287.853300000000
21
134.998800000000
31
0.0
0
LINE
5
646
100
AcDbEntity
8
2-0
6
CONTINUOUS
62
7
100
AcDbLine
10
287.775900000000
20
136.866200000000
30
0.0
11
287.853300000000
21
137.000300000000
31
0.0
0
LINE
5
647
100
AcDbEntity
8
2-0
6
CONTINUOUS
62
7
100
AcDbLine
10
287.775900000000
20
135.132900000000
30
0.0
11
287.775900000000
21
136.866200000000
31
0.0
0
LINE
5
648
100
AcDbEntity
8
2-0
6
CONTINUOUS
62
7
100
AcDbLine
10
288.642600000000
20
137.000300000000
30
0.0
11
287.853300000000
21
137.000300000000
31
0.0
0
LINE
5
649
100
AcDbEntity
8
2-0
6
CONTINUOUS
62
7
100
AcDbLine
10
288.642600000000
20
134.998800000000
30
0.0
11
287.853300000000
21
134.998800000000
31
0.0
0
LINE
5
64a
100
AcDbEntity
8
2-1
6
CONTINUOUS
62
3
100
AcDbLine
10
287.775900000000
20
136.532900000000
30
0.0
11
287.255900000000
21
136.532900000000
31
0.0
0
LINE
5
64b
100
AcDbEntity
8
2-1
6
CONTINUOUS
62
3
100
AcDbLine
10
287.775900000000
20
135.466200000000
30
0.0
11
287.255900000000
21
135.466200000000
31
0.0
0
LINE
5
64c
100
AcDbEntity
8
2-0
6
CONTINUOUS
62
7
100
AcDbLine
10
288.642600000000
20
136.499900000000
30
0.0
11
287.853300000000
21
136.499900000000
31
0.0
0
LINE
5
64d
100
AcDbEntity
8
2-0
6
CONTINUOUS
62
7
100
AcDbLine
10
288.642600000000
20
135.499200000000
30
0.0
11
287.853300000000
21
135.499200000000
31
0.0
0
LINE
5
64e
100
AcDbEntity
8
1-E
6
CENTER2
62
3
100
AcDbLine
10
286.845800000000
20
135.999600000000
30
0.0
11
292.908100000000
21
135.999600000000
31
0.0
0
LINE
5
64f
100
AcDbEntity
8
2-1
6
CONTINUOUS
62
3
100
AcDbLine
10
288.642600000000
20
81.466100000000
30
0.0
11
288.855900000000
21
81.466100000000
31
0.0
0
LINE
5
650
100
AcDbEntity
8
2-1
6
CONTINUOUS
62
3
100
AcDbLine
10
287.255900000000
20
82.666100000000
30
0.0
11
287.255900000000
21
82.132800000000
31
0.0
0
LINE
5
651
100
AcDbEntity
8
2-1
6
CONTINUOUS
62
3
100
AcDbLine
10
287.775900000000
20
82.266100000000
30
0.0
11
287.255900000000
21
82.266100000000
31
0.0
0
LINE
5
652
100
AcDbEntity
8
2-1
6
CONTINUOUS
62
3
100
AcDbLine
10
288.642600000000
20
82.666100000000
30
0.0
11
288.642600000000
21
81.466100000000
31
0.0
0
LINE
5
653
100
AcDbEntity
8
2-1
6
CONTINUOUS
62
3
100
AcDbLine
10
288.642600000000
20
83.866100000000
30
0.0
11
288.855900000000
21
83.866100000000
31
0.0
0
LINE
5
654
100
AcDbEntity
8
2-1
6
CONTINUOUS
62
3
100
AcDbLine
10
287.255900000000
20
82.666100000000
30
0.0
11
287.255900000000
21
83.199500000000
31
0.0
0
LINE
5
655
100
AcDbEntity
8
2-1
6
CONTINUOUS
62
3
100
AcDbLine
10
287.775900000000
20
83.066100000000
30
0.0
11
287.255900000000
21
83.066100000000
31
0.0
0
LINE
5
656
100
AcDbEntity
8
2-1
6
CONTINUOUS
62
3
100
AcDbLine
10
288.642600000000
20
82.666100000000
30
0.0
11
288.642600000000
21
83.866100000000
31
0.0
0
LINE
5
657
100
AcDbEntity
8
2-0
6
CONTINUOUS
62
7
100
AcDbLine
10
287.775900000000
20
81.799500000000
30
0.0
11
287.853300000000
21
81.665400000000
31
0.0
0
LINE
5
658
100
AcDbEntity
8
2-0
6
CONTINUOUS
62
7
100
AcDbLine
10
287.775900000000
20
83.532800000000
30
0.0
11
287.853300000000
21
83.666900000000
31
0.0
0
LINE
5
659
100
AcDbEntity
8
2-0
6
CONTINUOUS
62
7
100
AcDbLine
10
287.775900000000
20
81.799500000000
30
0.0
11
287.775900000000
21
83.532800000000
31
0.0
0
LINE
5
65a
100
AcDbEntity
8
2-0
6
CONTINUOUS
62
7
100
AcDbLine
10
288.642600000000
20
83.666900000000
30
0.0
11
287.853300000000
21
83.666900000000
31
0.0
0
LINE
5
65b
100
AcDbEntity
8
2-0
6
CONTINUOUS
62
7
100
AcDbLine
10
288.642600000000
20
81.665400000000
30
0.0
11
287.853300000000
21
81.665400000000
31
0.0
0
LINE
5
65c
100
AcDbEntity
8
2-1
6
CONTINUOUS
62
3
100
AcDbLine
10
287.775900000000
20
83.199500000000
30
0.0
11
287.255900000000
21
83.199500000000
31
0.0
0
LINE
5
65d
100
AcDbEntity
8
2-1
6
CONTINUOUS
62
3
100
AcDbLine
10
287.775900000000
20
82.132800000000
30
0.0
11
287.255900000000
21
82.132800000000
31
0.0
0
LINE
5
65e
100
AcDbEntity
8
2-0
6
CONTINUOUS
62
7
100
AcDbLine
10
288.642600000000
20
83.166500000000
30
0.0
11
287.853300000000
21
83.166500000000
31
0.0
0
LINE
5
65f
100
AcDbEntity
8
2-0
6
CONTINUOUS
62
7
100
AcDbLine
10
288.642600000000
20
82.165800000000
30
0.0
11
287.853300000000
21
82.165800000000
31
0.0
0
LINE
5
660
100
AcDbEntity
8
2-0
6
CONTINUOUS
62
4
100
AcDbLine
10
290.455900000000
20
134.036300000000
30
0.0
11
291.159400000000
21
133.332800000000
31
0.0
0
LINE
5
661
100
AcDbEntity
8
2-0
6
CONTINUOUS
62
4
100
AcDbLine
10
290.455900000000
20
134.149400000000
30
0.0
11
291.272500000000
21
133.332800000000
31
0.0
0
LINE
5
662
100
AcDbEntity
8
2-0
6
CONTINUOUS
62
4
100
AcDbLine
10
290.455900000000
20
135.167700000000
30
0.0
11
291.789100000000
21
133.834400000000
31
0.0
0
LINE
5
663
100
AcDbEntity
8
2-0
6
CONTINUOUS
62
4
100
AcDbLine
10
290.455900000000
20
135.280800000000
30
0.0
11
291.789100000000
21
133.947500000000
31
0.0
0
LINE
5
664
100
AcDbEntity
8
2-0
6
CONTINUOUS
62
4
100
AcDbLine
10
290.455900000000
20
136.299000000000
30
0.0
11
291.789100000000
21
134.965700000000
31
0.0
0
LINE
5
665
100
AcDbEntity
8
2-0
6
CONTINUOUS
62
4
100
AcDbLine
10
290.455900000000
20
136.412100000000
30
0.0
11
291.789100000000
21
135.078800000000
31
0.0
0
LINE
5
666
100
AcDbEntity
8
2-0
6
CONTINUOUS
62
4
100
AcDbLine
10
290.455900000000
20
137.430400000000
30
0.0
11
291.789100000000
21
136.097100000000
31
0.0
0
LINE
5
667
100
AcDbEntity
8
2-0
6
CONTINUOUS
62
4
100
AcDbLine
10
290.455900000000
20
137.543500000000
30
0.0
11
291.789100000000
21
136.210200000000
31
0.0
0
LINE
5
668
100
AcDbEntity
8
2-0
6
CONTINUOUS
62
4
100
AcDbLine
10
290.455900000000
20
138.561700000000
30
0.0
11
291.789100000000
21
137.228400000000
31
0.0
0
LINE
5
669
100
AcDbEntity
8
2-0
6
CONTINUOUS
62
4
100
AcDbLine
10
290.455900000000
20
138.674800000000
30
0.0
11
291.789100000000
21
137.341600000000
31
0.0
0
LINE
5
66a
100
AcDbEntity
8
2-0
6
CONTINUOUS
62
4
100
AcDbLine
10
290.455900000000
20
139.693100000000
30
0.0
11
291.789100000000
21
138.359800000000
31
0.0
0
LINE
5
66b
100
AcDbEntity
8
2-0
6
CONTINUOUS
62
4
100
AcDbLine
10
290.455900000000
20
139.806200000000
30
0.0
11
291.789100000000
21
138.472900000000
31
0.0
0
LINE
5
66c
100
AcDbEntity
8
2-0
6
CONTINUOUS
62
4
100
AcDbLine
10
293.116800000000
20
141.670600000000
30
0.0
11
293.460300000000
21
141.327100000000
31
0.0
0
LINE
5
66d
100
AcDbEntity
8
2-0
6
CONTINUOUS
62
4
100
AcDbLine
10
292.834200000000
20
141.840000000000
30
0.0
11
293.629700000000
21
141.044600000000
31
0.0
0
LINE
5
66e
100
AcDbEntity
8
2-0
6
CONTINUOUS
62
4
100
AcDbLine
10
290.539500000000
20
140.853900000000
30
0.0
11
292.643600000000
21
138.749800000000
31
0.0
0
LINE
5
66f
100
AcDbEntity
8
2-0
6
CONTINUOUS
62
4
100
AcDbLine
10
290.513400000000
20
140.766900000000
30
0.0
11
292.556500000000
21
138.723700000000
31
0.0
0
LINE
5
670
100
AcDbEntity
8
2-0
6
CONTINUOUS
62
4
100
AcDbLine
10
291.620700000000
20
141.922200000000
30
0.0
11
293.711900000000
21
139.831000000000
31
0.0
0
LINE
5
671
100
AcDbEntity
8
2-0
6
CONTINUOUS
62
4
100
AcDbLine
10
291.708700000000
20
141.947400000000
30
0.0
11
293.737100000000
21
139.919000000000
31
0.0
0
LINE
5
672
100
AcDbEntity
8
2-0
6
CONTINUOUS
62
4
100
AcDbLine
10
290.922300000000
20
141.489300000000
30
0.0
11
291.629700000000
21
140.781900000000
31
0.0
0
LINE
5
673
100
AcDbEntity
8
2-0
6
CONTINUOUS
62
4
100
AcDbLine
10
292.571500000000
20
139.840100000000
30
0.0
11
293.278900000000
21
139.132700000000
31
0.0
0
LINE
5
674
100
AcDbEntity
8
2-0
6
CONTINUOUS
62
4
100
AcDbLine
10
290.979200000000
20
141.545500000000
30
0.0
11
291.687100000000
21
140.837700000000
31
0.0
0
LINE
5
675
100
AcDbEntity
8
2-0
6
CONTINUOUS
62
4
100
AcDbLine
10
292.628100000000
20
139.896600000000
30
0.0
11
293.335200000000
21
139.189500000000
31
0.0
0
LINE
5
676
100
AcDbEntity
8
2-0
6
CONTINUOUS
62
4
100
AcDbLine
10
290.455900000000
20
78.712300000000
30
0.0
11
290.502100000000
21
78.666100000000
31
0.0
0
LINE
5
677
100
AcDbEntity
8
2-0
6
CONTINUOUS
62
4
100
AcDbLine
10
290.455900000000
20
79.730500000000
30
0.0
11
291.520300000000
21
78.666100000000
31
0.0
0
LINE
5
678
100
AcDbEntity
8
2-0
6
CONTINUOUS
62
4
100
AcDbLine
10
290.455900000000
20
79.843700000000
30
0.0
11
291.633400000000
21
78.666100000000
31
0.0
0
LINE
5
679
100
AcDbEntity
8
2-0
6
CONTINUOUS
62
4
100
AcDbLine
10
290.455900000000
20
80.861900000000
30
0.0
11
291.789100000000
21
79.528600000000
31
0.0
0
LINE
5
67a
100
AcDbEntity
8
2-0
6
CONTINUOUS
62
4
100
AcDbLine
10
290.455900000000
20
80.975000000000
30
0.0
11
291.789100000000
21
79.641700000000
31
0.0
0
LINE
5
67b
100
AcDbEntity
8
2-0
6
CONTINUOUS
62
4
100
AcDbLine
10
290.455900000000
20
81.993200000000
30
0.0
11
291.789100000000
21
80.660000000000
31
0.0
0
LINE
5
67c
100
AcDbEntity
8
2-0
6
CONTINUOUS
62
4
100
AcDbLine
10
290.455900000000
20
82.106400000000
30
0.0
11
291.789100000000
21
80.773100000000
31
0.0
0
LINE
5
67d
100
AcDbEntity
8
2-0
6
CONTINUOUS
62
4
100
AcDbLine
10
290.455900000000
20
83.124600000000
30
0.0
11
291.789100000000
21
81.791300000000
31
0.0
0
LINE
5
67e
100
AcDbEntity
8
2-0
6
CONTINUOUS
62
4
100
AcDbLine
10
290.455900000000
20
83.237700000000
30
0.0
11
291.789100000000
21
81.904400000000
31
0.0
0
LINE
5
67f
100
AcDbEntity
8
2-0
6
CONTINUOUS
62
4
100
AcDbLine
10
290.455900000000
20
84.255900000000
30
0.0
11
291.789100000000
21
82.922600000000
31
0.0
0
LINE
5
680
100
AcDbEntity
8
2-0
6
CONTINUOUS
62
4
100
AcDbLine
10
290.455900000000
20
84.369100000000
30
0.0
11
291.789100000000
21
83.035800000000
31
0.0
0
LINE
5
681
100
AcDbEntity
8
2-0
6
CONTINUOUS
62
4
100
AcDbLine
10
290.455900000000
20
85.387300000000
30
0.0
11
291.789100000000
21
84.054000000000
31
0.0
0
LINE
5
682
100
AcDbEntity
8
2-0
6
CONTINUOUS
62
4
100
AcDbLine
10
290.455900000000
20
85.500400000000
30
0.0
11
291.789100000000
21
84.167100000000
31
0.0
0
LINE
5
683
100
AcDbEntity
8
2-0
6
CONTINUOUS
62
4
100
AcDbLine
10
290.455900000000
20
86.518600000000
30
0.0
11
291.789100000000
21
85.185300000000
31
0.0
0
LINE
5
684
100
AcDbEntity
8
2-0
6
CONTINUOUS
62
4
100
AcDbLine
10
290.455900000000
20
86.631700000000
30
0.0
11
291.789100000000
21
85.298500000000
31
0.0
0
LINE
5
685
100
AcDbEntity
8
2-0
6
CONTINUOUS
62
4
100
AcDbLine
10
291.439700000000
20
86.666100000000
30
0.0
11
291.789100000000
21
86.316700000000
31
0.0
0
LINE
5
686
100
AcDbEntity
8
2-0
6
CONTINUOUS
62
4
100
AcDbLine
10
291.552800000000
20
86.666100000000
30
0.0
11
291.789100000000
21
86.429800000000
31
0.0
0
LINE
5
687
100
AcDbEntity
8
1-0
6
CONTINUOUS
62
7
100
AcDbLine
10
281.255900000000
20
78.399500000000
30
0.0
11
281.255900000000
21
79.332800000000
31
0.0
0
LINE
5
688
100
AcDbEntity
8
1-0
6
CONTINUOUS
62
7
100
AcDbLine
10
281.255900000000
20
78.399500000000
30
0.0
11
292.322600000000
21
78.399500000000
31
0.0
0
LINE
5
689
100
AcDbEntity
8
2-0
6
CONTINUOUS
62
4
100
AcDbLine
10
309.310800000000
20
79.332800000000
30
0.0
11
316.722300000000
21
79.332800000000
31
0.0
0
LINE
5
68a
100
AcDbEntity
8
2-0
6
CONTINUOUS
62
4
100
AcDbLine
10
315.922300000000
20
79.332800000000
30
0.0
11
315.922300000000
21
135.332800000000
31
0.0
0
LINE
5
68b
100
AcDbEntity
8
2-0
6
CONTINUOUS
62
4
100
AcDbLine
10
309.310800000000
20
135.332800000000
30
0.0
11
316.722300000000
21
135.332800000000
31
0.0
0
LINE
5
68c
100
AcDbEntity
8
2-0
6
CONTINUOUS
62
4
100
AcDbLine
10
315.922300000000
20
79.332800000000
30
0.0
11
315.508200000000
21
80.878300000000
31
0.0
0
LINE
5
68d
100
AcDbEntity
8
2-0
6
CONTINUOUS
62
4
100
AcDbLine
10
315.922300000000
20
79.332800000000
30
0.0
11
316.336500000000
21
80.878300000000
31
0.0
0
LINE
5
68e
100
AcDbEntity
8
2-0
6
CONTINUOUS
62
4
100
AcDbLine
10
315.922300000000
20
135.332800000000
30
0.0
11
315.508200000000
21
133.787300000000
31
0.0
0
LINE
5
68f
100
AcDbEntity
8
2-0
6
CONTINUOUS
62
4
100
AcDbLine
10
315.922300000000
20
135.332800000000
30
0.0
11
316.336500000000
21
133.787300000000
31
0.0
0
LINE
5
690
100
AcDbEntity
8
2-0
6
CONTINUOUS
62
4
100
AcDbLine
10
281.255900000000
20
56.565000000000
30
0.0
11
294.589100000000
21
56.565000000000
31
0.0
0
LINE
5
691
100
AcDbEntity
8
2-0
6
CONTINUOUS
62
4
100
AcDbLine
10
294.589100000000
20
61.436500000000
30
0.0
11
294.589100000000
21
55.765000000000
31
0.0
0
LINE
5
692
100
AcDbEntity
8
2-0
6
CONTINUOUS
62
4
100
AcDbLine
10
281.255900000000
20
56.565000000000
30
0.0
11
282.801400000000
21
56.979100000000
31
0.0
0
LINE
5
693
100
AcDbEntity
8
2-0
6
CONTINUOUS
62
4
100
AcDbLine
10
281.255900000000
20
56.565000000000
30
0.0
11
282.801400000000
21
56.150900000000
31
0.0
0
LINE
5
694
100
AcDbEntity
8
2-0
6
CONTINUOUS
62
4
100
AcDbLine
10
294.589100000000
20
56.565000000000
30
0.0
11
293.043600000000
21
56.979100000000
31
0.0
0
LINE
5
695
100
AcDbEntity
8
2-0
6
CONTINUOUS
62
4
100
AcDbLine
10
294.589100000000
20
56.565000000000
30
0.0
11
293.043600000000
21
56.150900000000
31
0.0
0
LINE
5
696
100
AcDbEntity
8
2-0
6
CONTINUOUS
62
4
100
AcDbLine
10
281.255900000000
20
77.025100000000
30
0.0
11
281.255900000000
21
55.765000000000
31
0.0
0
LINE
5
697
100
AcDbEntity
8
2-0
6
CONTINUOUS
62
4
100
AcDbLine
10
293.655900000000
20
76.009400000000
30
0.0
11
292.985000000000
21
74.556900000000
31
0.0
0
LINE
5
698
100
AcDbEntity
8
2-0
6
CONTINUOUS
62
4
100
AcDbLine
10
293.655900000000
20
76.009400000000
30
0.0
11
292.348600000000
21
75.087000000000
31
0.0
0
LINE
5
699
100
AcDbEntity
8
1-B
6
CONTINUOUS
62
7
100
AcDbLine
10
273.440900000000
20
105.799500000000
30
0.0
11
273.440900000000
21
106.866100000000
31
0.0
0
LINE
5
69a
100
AcDbEntity
8
1-B
6
CONTINUOUS
62
7
100
AcDbLine
10
273.440900000000
20
103.666100000000
30
0.0
11
273.440900000000
21
102.599500000000
31
0.0
0
LINE
5
69b
100
AcDbEntity
8
1-B
6
CONTINUOUS
62
7
100
AcDbLine
10
273.440900000000
20
106.866100000000
30
0.0
11
277.136000000000
21
104.732800000000
31
0.0
0
LINE
5
69c
100
AcDbEntity
8
1-B
6
CONTINUOUS
62
7
100
AcDbLine
10
273.440900000000
20
102.599500000000
30
0.0
11
277.136000000000
21
104.732800000000
31
0.0
0
LINE
5
69d
100
AcDbEntity
8
1-B
6
CONTINUOUS
62
7
100
AcDbLine
10
261.707600000000
20
105.799500000000
30
0.0
11
273.440900000000
21
105.799500000000
31
0.0
0
LINE
5
69e
100
AcDbEntity
8
1-B
6
CONTINUOUS
62
7
100
AcDbLine
10
261.707600000000
20
103.666100000000
30
0.0
11
273.440900000000
21
103.666100000000
31
0.0
0
LINE
5
69f
100
AcDbEntity
8
1-B
6
CONTINUOUS
62
7
100
AcDbLine
10
261.707600000000
20
105.799500000000
30
0.0
11
261.707600000000
21
103.666100000000
31
0.0
0
LINE
5
6a0
100
AcDbEntity
8
1-0
6
CONTINUOUS
62
7
100
AcDbLine
10
294.589000000000
20
166.489100000000
30
0.0
11
294.589000000000
21
104.732800000000
31
0.0
0
LINE
5
6a1
100
AcDbEntity
8
2-0
6
CONTINUOUS
62
7
100
AcDbLine
10
294.589000000000
20
148.666100000000
30
0.0
11
293.389200000000
21
148.666100000000
31
0.0
0
LINE
5
6a2
100
AcDbEntity
8
2-0
6
CONTINUOUS
62
4
100
AcDbLine
10
315.922300000000
20
148.666100000000
30
0.0
11
315.922300000000
21
135.332800000000
31
0.0
0
LINE
5
6a3
100
AcDbEntity
8
2-0
6
CONTINUOUS
62
4
100
AcDbLine
10
315.922300000000
20
148.666100000000
30
0.0
11
316.336500000000
21
147.120600000000
31
0.0
0
LINE
5
6a4
100
AcDbEntity
8
2-0
6
CONTINUOUS
62
4
100
AcDbLine
10
315.922300000000
20
148.666100000000
30
0.0
11
315.508200000000
21
147.120600000000
31
0.0
0
LINE
5
6a5
100
AcDbEntity
8
2-0
6
CONTINUOUS
62
4
100
AcDbLine
10
315.922300000000
20
135.332800000000
30
0.0
11
316.336500000000
21
136.878300000000
31
0.0
0
LINE
5
6a6
100
AcDbEntity
8
2-0
6
CONTINUOUS
62
4
100
AcDbLine
10
315.922300000000
20
135.332800000000
30
0.0
11
315.508200000000
21
136.878300000000
31
0.0
0
LINE
5
6a7
100
AcDbEntity
8
2-0
6
CONTINUOUS
62
4
100
AcDbLine
10
316.722300000000
20
135.332800000000
30
0.0
11
309.310800000000
21
135.332800000000
31
0.0
0
LINE
5
6a8
100
AcDbEntity
8
2-0
6
CONTINUOUS
62
4
100
AcDbLine
10
316.722300000000
20
148.666100000000
30
0.0
11
295.977100000000
21
148.666100000000
31
0.0
0
LINE
5
6a9
100
AcDbEntity
8
2-0
6
CONTINUOUS
62
4
100
AcDbLine
10
299.495600000000
20
156.843100000000
30
0.0
11
299.495600000000
21
152.043100000000
31
0.0
0
LINE
5
6aa
100
AcDbEntity
8
2-0
6
CONTINUOUS
62
4
100
AcDbLine
10
293.995400000000
20
144.078600000000
30
0.0
11
299.495600000000
21
152.043100000000
31
0.0
0
LINE
5
6ab
100
AcDbEntity
8
2-0
6
CONTINUOUS
62
4
100
AcDbLine
10
277.370900000000
20
170.586200000000
30
0.0
11
300.747300000000
21
170.586200000000
31
0.0
0
LINE
5
6ac
100
AcDbEntity
8
1-E
6
CONTINUOUS
62
4
100
AcDbLine
10
275.961900000000
20
72.374300000000
30
0.0
11
275.961900000000
21
59.574300000000
31
0.0
0
LINE
5
6ad
100
AcDbEntity
8
1-E
6
CONTINUOUS
62
4
100
AcDbLine
10
234.576700000000
20
72.374300000000
30
0.0
11
275.961900000000
21
72.374300000000
31
0.0
0
LINE
5
6ae
100
AcDbEntity
8
1-E
6
CONTINUOUS
62
4
100
AcDbLine
10
234.576700000000
20
65.974300000000
30
0.0
11
275.961900000000
21
65.974300000000
31
0.0
0
LINE
5
6af
100
AcDbEntity
8
1-E
6
CONTINUOUS
62
4
100
AcDbLine
10
234.576700000000
20
59.574300000000
30
0.0
11
275.961900000000
21
59.574300000000
31
0.0
0
LINE
5
6b0
100
AcDbEntity
8
1-E
6
CONTINUOUS
62
4
100
AcDbLine
10
234.576700000000
20
51.574300000000
30
0.0
11
275.961900000000
21
51.574300000000
31
0.0
0
LINE
5
6b1
100
AcDbEntity
8
2-0
6
CONTINUOUS
62
4
100
AcDbLine
10
275.961900000000
20
51.574300000000
30
0.0
11
293.655900000000
21
76.009400000000
31
0.0
0
LINE
5
6b2
100
AcDbEntity
8
2-0
6
CONTINUOUS
62
4
100
AcDbLine
10
275.961900000000
20
72.374300000000
30
0.0
11
291.095700000000
21
80.881200000000
31
0.0
0
LINE
5
6b3
100
AcDbEntity
8
2-0
6
CONTINUOUS
62
4
100
AcDbLine
10
299.495600000000
20
152.043100000000
30
0.0
11
315.400400000000
21
152.043100000000
31
0.0
0
LINE
5
6b4
100
AcDbEntity
8
2-0
6
CONTINUOUS
62
4
100
AcDbLine
10
299.495600000000
20
156.843100000000
30
0.0
11
315.400400000000
21
156.843100000000
31
0.0
0
LINE
5
6b5
100
AcDbEntity
8
2-0
6
CONTINUOUS
62
4
100
AcDbLine
10
235.181100000000
20
81.105600000000
30
0.0
11
187.582700000000
21
81.105600000000
31
0.0
0
LINE
5
6b6
100
AcDbEntity
8
2-0
6
CONTINUOUS
62
4
100
AcDbLine
10
181.527800000000
20
91.593000000000
30
0.0
11
187.582700000000
21
81.105600000000
31
0.0
0
LINE
5
6b7
100
AcDbEntity
8
2-0
6
CONTINUOUS
62
4
100
AcDbLine
10
177.695500000000
20
87.760700000000
30
0.0
11
178.495500000000
21
89.146400000000
31
0.0
0
LINE
5
6b8
100
AcDbEntity
8
2-0
6
CONTINUOUS
62
4
100
AcDbLine
10
177.695500000000
20
87.760700000000
30
0.0
11
181.527800000000
21
91.593000000000
31
0.0
0
LINE
5
6b9
100
AcDbEntity
8
2-0
6
CONTINUOUS
62
4
100
AcDbLine
10
177.695500000000
20
87.760700000000
30
0.0
11
179.081100000000
21
88.560700000000
31
0.0
0
POLYLINE
5
6ba
100
AcDbEntity
8
0-0
6
CONTINUOUS
62
  3
100
AcDb2dPolyline
66
1
10
0.0
20
0.0
30
0.0
70
0
0
VERTEX
5
6bb
100
AcDbEntity
8
0-0
6
CONTINUOUS
62
  3
100
AcDbVertex
100
AcDb2dVertex
10
405.000000000000
20
284.000000000000
30
0.0
0
VERTEX
5
6bc
100
AcDbEntity
8
0-0
6
CONTINUOUS
62
  3
100
AcDbVertex
100
AcDb2dVertex
10
20.000000000000
20
284.000000000000
30
0.0
0
VERTEX
5
6bd
100
AcDbEntity
8
0-0
6
CONTINUOUS
62
  3
100
AcDbVertex
100
AcDb2dVertex
10
20.000000000000
20
14.000000000000
30
0.0
0
SEQEND
5
6be
100
AcDbEntity
8
0-0
0
LINE
5
6bf
100
AcDbEntity
8
1-0
6
CONTINUOUS
62
4
100
AcDbLine
10
175.648600000000
20
32.977600000000
30
0.0
11
281.096100000000
21
32.977600000000
31
0.0
0
LINE
5
6c0
100
AcDbEntity
8
1-0
6
CONTINUOUS
62
4
100
AcDbLine
10
175.648600000000
20
26.977600000000
30
0.0
11
281.096100000000
21
26.977600000000
31
0.0
0
LINE
5
6c1
100
AcDbEntity
8
1-0
6
CONTINUOUS
62
4
100
AcDbLine
10
175.648600000000
20
20.977600000000
30
0.0
11
281.096100000000
21
20.977600000000
31
0.0
0
LINE
5
6c2
100
AcDbEntity
8
0-0
6
CONTINUOUS
62
3
100
AcDbLine
10
290.000100000000
20
53.000000000000
30
0.0
11
290.000100000000
21
14.000000000000
31
0.0
0
LINE
5
6c3
100
AcDbEntity
8
0-0
6
CONTINUOUS
62
3
100
AcDbLine
10
290.000100000000
20
53.000000000000
30
0.0
11
405.000000000000
21
53.000000000000
31
0.0
0
LINE
5
6c4
100
AcDbEntity
8
0-0
6
CONTINUOUS
62
3
100
AcDbLine
10
290.000100000000
20
22.999900000000
30
0.0
11
405.000000000000
21
22.999900000000
31
0.0
0
LINE
5
6c5
100
AcDbEntity
8
0-0
6
CONTINUOUS
62
3
100
AcDbLine
10
347.500100000000
20
53.000000000000
30
0.0
11
347.500100000000
21
14.000000000000
31
0.0
0
LINE
5
6c6
100
AcDbEntity
8
0-0
6
CONTINUOUS
62
3
100
AcDbLine
10
341.500000000000
20
53.000000000000
30
0.0
11
341.500000000000
21
14.000000000000
31
0.0
0
LINE
5
6c7
100
AcDbEntity
8
0-0
6
CONTINUOUS
62
3
100
AcDbLine
10
395.000000000000
20
22.999900000000
30
0.0
11
395.000000000000
21
14.000000000000
31
0.0
0
LINE
5
6c8
100
AcDbEntity
8
0-0
6
CONTINUOUS
62
3
100
AcDbLine
10
405.000000000000
20
284.000000000000
30
0.0
11
405.000000000000
21
14.000000000000
31
0.0
0
LINE
5
6c9
100
AcDbEntity
8
0-0
6
CONTINUOUS
62
3
100
AcDbLine
10
363.500100000000
20
34.000000000000
30
0.0
11
363.500100000000
21
22.999900000000
31
0.0
0
LINE
5
6ca
100
AcDbEntity
8
0-0
6
CONTINUOUS
62
3
100
AcDbLine
10
368.500000000000
20
34.000000000000
30
0.0
11
368.500000000000
21
22.999900000000
31
0.0
0
LINE
5
6cb
100
AcDbEntity
8
0-0
6
CONTINUOUS
62
3
100
AcDbLine
10
384.000000000000
20
34.000000000000
30
0.0
11
384.000000000000
21
22.999900000000
31
0.0
0
LINE
5
6cc
100
AcDbEntity
8
0-0
6
CONTINUOUS
62
3
100
AcDbLine
10
389.000000000000
20
34.000000000000
30
0.0
11
389.000000000000
21
22.999900000000
31
0.0
0
LINE
5
6cd
100
AcDbEntity
8
0-0
6
CONTINUOUS
62
3
100
AcDbLine
10
341.500000000000
20
34.000000000000
30
0.0
11
405.000000000000
21
34.000000000000
31
0.0
0
LINE
5
6ce
100
AcDbEntity
8
0-0
6
CONTINUOUS
62
3
100
AcDbLine
10
290.000100000000
20
32.000000000000
30
0.0
11
341.500000000000
21
32.000000000000
31
0.0
0
LINE
5
6cf
100
AcDbEntity
8
0-0
6
CONTINUOUS
62
3
100
AcDbLine
10
290.000100000000
20
41.000000000000
30
0.0
11
341.500000000000
21
41.000000000000
31
0.0
0
LINE
5
6d0
100
AcDbEntity
8
0-0
6
CONTINUOUS
62
3
100
AcDbLine
10
295.500000000000
20
53.000000000000
30
0.0
11
295.500000000000
21
22.999900000000
31
0.0
0
LINE
5
6d1
100
AcDbEntity
8
0-0
6
CONTINUOUS
62
3
100
AcDbLine
10
321.000100000000
20
41.000000000000
30
0.0
11
321.000100000000
21
22.999900000000
31
0.0
0
LINE
5
6d2
100
AcDbEntity
8
0-0
6
CONTINUOUS
62
3
100
AcDbLine
10
315.500100000000
20
41.000000000000
30
0.0
11
315.500100000000
21
22.999900000000
31
0.0
0
LINE
5
6d3
100
AcDbEntity
8
0-0
6
CONTINUOUS
62
3
100
AcDbLine
10
396.500000000000
20
15.500000000000
30
0.0
11
400.000100000000
21
21.562200000000
31
0.0
0
LINE
5
6d4
100
AcDbEntity
8
0-0
6
CONTINUOUS
62
3
100
AcDbLine
10
403.500100000000
20
15.500000000000
30
0.0
11
400.000100000000
21
21.562200000000
31
0.0
0
LINE
5
6d5
100
AcDbEntity
8
0-0
6
CONTINUOUS
62
3
100
AcDbLine
10
396.500000000000
20
15.500000000000
30
0.0
11
403.500100000000
21
15.500000000000
31
0.0
0
LINE
5
6d6
100
AcDbEntity
8
0-0
6
CONTINUOUS
62
3
100
AcDbLine
10
292.340900000000
20
17.994400000000
30
0.0
11
295.605700000000
21
16.109400000000
31
0.0
0
LINE
5
6d7
100
AcDbEntity
8
0-0
6
CONTINUOUS
62
3
100
AcDbLine
10
293.365400000000
20
18.268900000000
30
0.0
11
296.341400000000
21
16.550700000000
31
0.0
0
LINE
5
6d8
100
AcDbEntity
8
0-0
6
CONTINUOUS
62
3
100
AcDbLine
10
294.389900000000
20
18.543400000000
30
0.0
11
296.812600000000
21
17.144600000000
31
0.0
0
LINE
5
6d9
100
AcDbEntity
8
0-0
6
CONTINUOUS
62
3
100
AcDbLine
10
292.623800000000
20
18.070200000000
30
0.0
11
291.999300000000
21
17.902900000000
31
0.0
0
LINE
5
6da
100
AcDbEntity
8
0-0
6
CONTINUOUS
62
3
100
AcDbLine
10
293.382600000000
20
17.970300000000
30
0.0
11
296.127800000000
21
16.385300000000
31
0.0
0
LINE
5
6db
100
AcDbEntity
8
0-0
6
CONTINUOUS
62
3
100
AcDbLine
10
294.407100000000
20
18.244800000000
30
0.0
11
296.683900000000
21
16.930300000000
31
0.0
0
LINE
5
6dc
100
AcDbEntity
8
0-0
6
CONTINUOUS
62
3
100
AcDbLine
10
295.431600000000
20
18.519300000000
30
0.0
11
296.975600000000
21
17.627900000000
31
0.0
0
LINE
5
6dd
100
AcDbEntity
8
0-0
6
CONTINUOUS
62
3
100
AcDbLine
10
293.648200000000
20
18.344700000000
30
0.0
11
292.870900000000
21
18.136400000000
31
0.0
0
LINE
5
6de
100
AcDbEntity
8
0-0
6
CONTINUOUS
62
3
100
AcDbLine
10
294.672800000000
20
18.619200000000
30
0.0
11
293.918300000000
21
18.417000000000
31
0.0
0
LINE
5
6df
100
AcDbEntity
8
0-0
6
CONTINUOUS
62
3
100
AcDbLine
10
405.000000000000
20
14.000000000000
30
0.0
11
20.000000000000
21
14.000000000000
31
0.0
0
LINE
5
6e0
100
AcDbEntity
8
0-0
6
CONTINUOUS
62
3
100
AcDbLine
10
310.500000000000
20
276.500000000000
30
0.0
11
405.000000000000
21
276.500000000000
31
0.0
0
LINE
5
6e1
100
AcDbEntity
8
0-0
6
CONTINUOUS
62
3
100
AcDbLine
10
310.500000000000
20
284.000000000000
30
0.0
11
310.500000000000
21
276.500000000000
31
0.0
0
LINE
5
6e2
100
AcDbEntity
8
0-0
6
CONTINUOUS
62
3
100
AcDbLine
10
365.500100000000
20
284.000000000000
30
0.0
11
365.500100000000
21
276.500000000000
31
0.0
0
LINE
5
6e3
100
AcDbEntity
8
0-0
6
CONTINUOUS
62
3
100
AcDbLine
10
385.500000000000
20
284.000000000000
30
0.0
11
385.500000000000
21
276.500000000000
31
0.0
0
LINE
5
6e4
100
AcDbEntity
8
0-0
6
CONTINUOUS
62
3
100
AcDbLine
10
321.500100000000
20
284.000000000000
30
0.0
11
321.500100000000
21
276.500000000000
31
0.0
0
LINE
5
6e5
100
AcDbEntity
8
0-0
6
CONTINUOUS
62
3
100
AcDbLine
10
353.250000000000
20
41.000000000000
30
0.0
11
399.250000000000
21
41.000000000000
31
0.0
0
LINE
5
6e6
100
AcDbEntity
8
0-0
6
CONTINUOUS
62
3
100
AcDbLine
10
361.250000000000
20
48.000000000000
30
0.0
11
392.333800000000
21
48.000000000000
31
0.0
0
LINE
5
6e7
100
AcDbEntity
8
1-8
6
CONTINUOUS
62
3
100
AcDbLine
10
284.000000000000
20
271.500000000000
30
0.0
11
284.000000000000
21
190.500100000000
31
0.0
0
LINE
5
6e8
100
AcDbEntity
8
1-8
6
CONTINUOUS
62
3
100
AcDbLine
10
302.000000000000
20
271.500000000000
30
0.0
11
302.000000000000
21
190.500100000000
31
0.0
0
LINE
5
6e9
100
AcDbEntity
8
1-8
6
CONTINUOUS
62
3
100
AcDbLine
10
311.000000000000
20
271.500000000000
30
0.0
11
311.000000000000
21
190.500100000000
31
0.0
0
LINE
5
6ea
100
AcDbEntity
8
1-8
6
CONTINUOUS
62
3
100
AcDbLine
10
320.000000000000
20
271.500000000000
30
0.0
11
320.000000000000
21
190.500100000000
31
0.0
0
LINE
5
6eb
100
AcDbEntity
8
1-8
6
CONTINUOUS
62
3
100
AcDbLine
10
275.000000000000
20
271.500000000000
30
0.0
11
401.000000000000
21
271.500000000000
31
0.0
0
LINE
5
6ec
100
AcDbEntity
8
1-8
6
CONTINUOUS
62
3
100
AcDbLine
10
320.000000000000
20
258.000000000000
30
0.0
11
275.000000000000
21
258.000000000000
31
0.0
0
LINE
5
6ed
100
AcDbEntity
8
1-8
6
CONTINUOUS
62
3
100
AcDbLine
10
284.000000000000
20
262.500000000000
30
0.0
11
401.000000000000
21
262.500000000000
31
0.0
0
LINE
5
6ee
100
AcDbEntity
8
1-8
6
CONTINUOUS
62
3
100
AcDbLine
10
293.000000000000
20
258.000000000000
30
0.0
11
401.000000000000
21
258.000000000000
31
0.0
0
LINE
5
6ef
100
AcDbEntity
8
1-8
6
CONTINUOUS
62
3
100
AcDbLine
10
338.000000000000
20
253.500000000000
30
0.0
11
275.000000000000
21
253.500000000000
31
0.0
0
LINE
5
6f0
100
AcDbEntity
8
1-8
6
CONTINUOUS
62
3
100
AcDbLine
10
293.000000000000
20
253.500000000000
30
0.0
11
401.000000000000
21
253.500000000000
31
0.0
0
LINE
5
6f1
100
AcDbEntity
8
1-8
6
CONTINUOUS
62
3
100
AcDbLine
10
338.000000000000
20
249.000000000000
30
0.0
11
275.000000000000
21
249.000000000000
31
0.0
0
LINE
5
6f2
100
AcDbEntity
8
1-8
6
CONTINUOUS
62
3
100
AcDbLine
10
338.000000000000
20
249.000000000000
30
0.0
11
275.000000000000
21
249.000000000000
31
0.0
0
LINE
5
6f3
100
AcDbEntity
8
1-8
6
CONTINUOUS
62
3
100
AcDbLine
10
293.000000000000
20
249.000000000000
30
0.0
11
401.000000000000
21
249.000000000000
31
0.0
0
LINE
5
6f4
100
AcDbEntity
8
1-8
6
CONTINUOUS
62
3
100
AcDbLine
10
338.000000000000
20
244.500000000000
30
0.0
11
275.000000000000
21
244.500000000000
31
0.0
0
LINE
5
6f5
100
AcDbEntity
8
1-8
6
CONTINUOUS
62
3
100
AcDbLine
10
338.000000000000
20
244.500000000000
30
0.0
11
275.000000000000
21
244.500000000000
31
0.0
0
LINE
5
6f6
100
AcDbEntity
8
1-8
6
CONTINUOUS
62
3
100
AcDbLine
10
293.000000000000
20
244.500000000000
30
0.0
11
401.000000000000
21
244.500000000000
31
0.0
0
LINE
5
6f7
100
AcDbEntity
8
1-8
6
CONTINUOUS
62
3
100
AcDbLine
10
338.000000000000
20
240.000000000000
30
0.0
11
275.000000000000
21
240.000000000000
31
0.0
0
LINE
5
6f8
100
AcDbEntity
8
1-8
6
CONTINUOUS
62
3
100
AcDbLine
10
338.000000000000
20
240.000000000000
30
0.0
11
275.000000000000
21
240.000000000000
31
0.0
0
LINE
5
6f9
100
AcDbEntity
8
1-8
6
CONTINUOUS
62
3
100
AcDbLine
10
293.000000000000
20
240.000000000000
30
0.0
11
401.000000000000
21
240.000000000000
31
0.0
0
LINE
5
6fa
100
AcDbEntity
8
1-8
6
CONTINUOUS
62
3
100
AcDbLine
10
338.000000000000
20
235.500000000000
30
0.0
11
275.000000000000
21
235.500000000000
31
0.0
0
LINE
5
6fb
100
AcDbEntity
8
1-8
6
CONTINUOUS
62
3
100
AcDbLine
10
338.000000000000
20
235.500000000000
30
0.0
11
275.000000000000
21
235.500000000000
31
0.0
0
LINE
5
6fc
100
AcDbEntity
8
1-8
6
CONTINUOUS
62
3
100
AcDbLine
10
293.000000000000
20
235.500000000000
30
0.0
11
401.000000000000
21
235.500000000000
31
0.0
0
LINE
5
6fd
100
AcDbEntity
8
1-8
6
CONTINUOUS
62
3
100
AcDbLine
10
338.000000000000
20
231.000000000000
30
0.0
11
275.000000000000
21
231.000000000000
31
0.0
0
LINE
5
6fe
100
AcDbEntity
8
1-8
6
CONTINUOUS
62
3
100
AcDbLine
10
338.000000000000
20
231.000000000000
30
0.0
11
275.000000000000
21
231.000000000000
31
0.0
0
LINE
5
6ff
100
AcDbEntity
8
1-8
6
CONTINUOUS
62
3
100
AcDbLine
10
293.000000000000
20
231.000000000000
30
0.0
11
401.000000000000
21
231.000000000000
31
0.0
0
LINE
5
700
100
AcDbEntity
8
1-8
6
CONTINUOUS
62
3
100
AcDbLine
10
338.000000000000
20
226.500000000000
30
0.0
11
275.000000000000
21
226.500000000000
31
0.0
0
LINE
5
701
100
AcDbEntity
8
1-8
6
CONTINUOUS
62
3
100
AcDbLine
10
338.000000000000
20
226.500000000000
30
0.0
11
275.000000000000
21
226.500000000000
31
0.0
0
LINE
5
702
100
AcDbEntity
8
1-8
6
CONTINUOUS
62
3
100
AcDbLine
10
293.000000000000
20
226.500000000000
30
0.0
11
401.000000000000
21
226.500000000000
31
0.0
0
LINE
5
703
100
AcDbEntity
8
1-8
6
CONTINUOUS
62
3
100
AcDbLine
10
338.000000000000
20
222.000000000000
30
0.0
11
275.000000000000
21
222.000000000000
31
0.0
0
LINE
5
704
100
AcDbEntity
8
1-8
6
CONTINUOUS
62
3
100
AcDbLine
10
338.000000000000
20
222.000000000000
30
0.0
11
275.000000000000
21
222.000000000000
31
0.0
0
LINE
5
705
100
AcDbEntity
8
1-8
6
CONTINUOUS
62
3
100
AcDbLine
10
293.000000000000
20
222.000000000000
30
0.0
11
401.000000000000
21
222.000000000000
31
0.0
0
LINE
5
706
100
AcDbEntity
8
1-8
6
CONTINUOUS
62
3
100
AcDbLine
10
338.000000000000
20
217.500000000000
30
0.0
11
275.000000000000
21
217.500000000000
31
0.0
0
LINE
5
707
100
AcDbEntity
8
1-8
6
CONTINUOUS
62
3
100
AcDbLine
10
338.000000000000
20
217.500000000000
30
0.0
11
275.000000000000
21
217.500000000000
31
0.0
0
LINE
5
708
100
AcDbEntity
8
1-8
6
CONTINUOUS
62
3
100
AcDbLine
10
293.000000000000
20
217.500000000000
30
0.0
11
401.000000000000
21
217.500000000000
31
0.0
0
LINE
5
709
100
AcDbEntity
8
1-8
6
CONTINUOUS
62
3
100
AcDbLine
10
338.000000000000
20
213.000000000000
30
0.0
11
275.000000000000
21
213.000000000000
31
0.0
0
LINE
5
70a
100
AcDbEntity
8
1-8
6
CONTINUOUS
62
3
100
AcDbLine
10
338.000000000000
20
213.000000000000
30
0.0
11
275.000000000000
21
213.000000000000
31
0.0
0
LINE
5
70b
100
AcDbEntity
8
1-8
6
CONTINUOUS
62
3
100
AcDbLine
10
293.000000000000
20
213.000000000000
30
0.0
11
401.000000000000
21
213.000000000000
31
0.0
0
LINE
5
70c
100
AcDbEntity
8
1-8
6
CONTINUOUS
62
3
100
AcDbLine
10
338.000000000000
20
208.500000000000
30
0.0
11
275.000000000000
21
208.500000000000
31
0.0
0
LINE
5
70d
100
AcDbEntity
8
1-8
6
CONTINUOUS
62
3
100
AcDbLine
10
338.000000000000
20
208.500000000000
30
0.0
11
275.000000000000
21
208.500000000000
31
0.0
0
LINE
5
70e
100
AcDbEntity
8
1-8
6
CONTINUOUS
62
3
100
AcDbLine
10
293.000000000000
20
208.500000000000
30
0.0
11
401.000000000000
21
208.500000000000
31
0.0
0
LINE
5
70f
100
AcDbEntity
8
1-8
6
CONTINUOUS
62
3
100
AcDbLine
10
338.000000000000
20
271.500000000000
30
0.0
11
338.000000000000
21
190.500100000000
31
0.0
0
LINE
5
710
100
AcDbEntity
8
1-8
6
CONTINUOUS
62
7
100
AcDbLine
10
350.801800000000
20
139.937600000000
30
0.0
11
373.259200000000
21
139.937600000000
31
0.0
0
LINE
5
711
100
AcDbEntity
8
1-8
6
CONTINUOUS
62
7
100
AcDbLine
10
350.801800000000
20
139.477900000000
30
0.0
11
373.259200000000
21
139.477900000000
31
0.0
0
LINE
5
712
100
AcDbEntity
8
1-8
6
CONTINUOUS
62
3
100
AcDbLine
10
293.000000000000
20
271.500000000000
30
0.0
11
293.000000000000
21
190.500100000000
31
0.0
0
LINE
5
713
100
AcDbEntity
8
1-8
6
CONTINUOUS
62
3
100
AcDbLine
10
347.000000000000
20
271.500000000000
30
0.0
11
347.000000000000
21
190.500100000000
31
0.0
0
LINE
5
714
100
AcDbEntity
8
1-8
6
CONTINUOUS
62
3
100
AcDbLine
10
356.000000000000
20
271.500000000000
30
0.0
11
356.000000000000
21
190.500100000000
31
0.0
0
LINE
5
715
100
AcDbEntity
8
1-8
6
CONTINUOUS
62
3
100
AcDbLine
10
338.000000000000
20
204.000000000000
30
0.0
11
275.000000000000
21
204.000000000000
31
0.0
0
LINE
5
716
100
AcDbEntity
8
1-8
6
CONTINUOUS
62
3
100
AcDbLine
10
338.000000000000
20
204.000000000000
30
0.0
11
275.000000000000
21
204.000000000000
31
0.0
0
LINE
5
717
100
AcDbEntity
8
1-8
6
CONTINUOUS
62
3
100
AcDbLine
10
293.000000000000
20
204.000000000000
30
0.0
11
401.000000000000
21
204.000000000000
31
0.0
0
LINE
5
718
100
AcDbEntity
8
1-8
6
CONTINUOUS
62
3
100
AcDbLine
10
338.000000000000
20
199.500000000000
30
0.0
11
275.000000000000
21
199.500000000000
31
0.0
0
LINE
5
719
100
AcDbEntity
8
1-8
6
CONTINUOUS
62
3
100
AcDbLine
10
338.000000000000
20
199.500000000000
30
0.0
11
275.000000000000
21
199.500000000000
31
0.0
0
LINE
5
71a
100
AcDbEntity
8
1-8
6
CONTINUOUS
62
3
100
AcDbLine
10
293.000000000000
20
199.500000000000
30
0.0
11
401.000000000000
21
199.500000000000
31
0.0
0
LINE
5
71b
100
AcDbEntity
8
1-8
6
CONTINUOUS
62
3
100
AcDbLine
10
338.000000000000
20
195.000000000000
30
0.0
11
275.000000000000
21
195.000000000000
31
0.0
0
LINE
5
71c
100
AcDbEntity
8
1-8
6
CONTINUOUS
62
3
100
AcDbLine
10
338.000000000000
20
195.000000000000
30
0.0
11
275.000000000000
21
195.000000000000
31
0.0
0
LINE
5
71d
100
AcDbEntity
8
1-8
6
CONTINUOUS
62
3
100
AcDbLine
10
293.000000000000
20
195.000000000000
30
0.0
11
401.000000000000
21
195.000000000000
31
0.0
0
LINE
5
71e
100
AcDbEntity
8
1-8
6
CONTINUOUS
62
3
100
AcDbLine
10
338.000000000000
20
190.500100000000
30
0.0
11
275.000000000000
21
190.500100000000
31
0.0
0
LINE
5
71f
100
AcDbEntity
8
1-8
6
CONTINUOUS
62
3
100
AcDbLine
10
338.000000000000
20
190.500100000000
30
0.0
11
275.000000000000
21
190.500100000000
31
0.0
0
LINE
5
720
100
AcDbEntity
8
1-8
6
CONTINUOUS
62
3
100
AcDbLine
10
293.000000000000
20
190.500100000000
30
0.0
11
401.000000000000
21
190.500100000000
31
0.0
0
LINE
5
721
100
AcDbEntity
8
1-8
6
CONTINUOUS
62
3
100
AcDbLine
10
365.000000000000
20
267.000000000000
30
0.0
11
365.000000000000
21
190.500100000000
31
0.0
0
LINE
5
722
100
AcDbEntity
8
1-8
6
CONTINUOUS
62
3
100
AcDbLine
10
365.000000000000
20
267.000000000000
30
0.0
11
365.000000000000
21
190.500100000000
31
0.0
0
LINE
5
723
100
AcDbEntity
8
1-8
6
CONTINUOUS
62
3
100
AcDbLine
10
329.000000000000
20
271.500000000000
30
0.0
11
329.000000000000
21
190.500100000000
31
0.0
0
LINE
5
724
100
AcDbEntity
8
1-E
6
CONTINUOUS
62
4
100
AcDbLine
10
69.781400000000
20
230.747900000000
30
0.0
11
110.284700000000
21
230.747900000000
31
0.0
0
LINE
5
725
100
AcDbEntity
8
1-E
6
CONTINUOUS
62
4
100
AcDbLine
10
69.781400000000
20
220.491000000000
30
0.0
11
69.781400000000
21
231.557900000000
31
0.0
0
LINE
5
726
100
AcDbEntity
8
1-E
6
CONTINUOUS
62
4
100
AcDbLine
10
110.284700000000
20
220.491000000000
30
0.0
11
110.284700000000
21
231.557900000000
31
0.0
0
LINE
5
727
100
AcDbEntity
8
1-E
6
CONTINUOUS
62
4
100
AcDbLine
10
69.781400000000
20
230.747900000000
30
0.0
11
71.346200000000
21
231.167200000000
31
0.0
0
LINE
5
728
100
AcDbEntity
8
1-E
6
CONTINUOUS
62
4
100
AcDbLine
10
69.781400000000
20
230.747900000000
30
0.0
11
71.346200000000
21
230.328600000000
31
0.0
0
LINE
5
729
100
AcDbEntity
8
1-E
6
CONTINUOUS
62
4
100
AcDbLine
10
110.284700000000
20
230.747900000000
30
0.0
11
108.719900000000
21
231.167200000000
31
0.0
0
LINE
5
72a
100
AcDbEntity
8
1-E
6
CONTINUOUS
62
4
100
AcDbLine
10
110.284700000000
20
230.747900000000
30
0.0
11
108.719900000000
21
230.328600000000
31
0.0
0
LINE
5
72b
100
AcDbEntity
8
1-8
6
CONTINUOUS
62
3
100
AcDbLine
10
383.000000000000
20
271.500000000000
30
0.0
11
383.000000000000
21
190.500100000000
31
0.0
0
LINE
5
72c
100
AcDbEntity
8
1-8
6
CONTINUOUS
62
3
100
AcDbLine
10
392.000000000000
20
271.500000000000
30
0.0
11
392.000000000000
21
190.500100000000
31
0.0
0
LINE
5
72d
100
AcDbEntity
8
1-8
6
CONTINUOUS
62
3
100
AcDbLine
10
401.000000000000
20
271.500000000000
30
0.0
11
401.000000000000
21
190.500100000000
31
0.0
0
LINE
5
72e
100
AcDbEntity
8
1-8
6
CONTINUOUS
62
3
100
AcDbLine
10
374.000000000000
20
267.000000000000
30
0.0
11
374.000000000000
21
190.500100000000
31
0.0
0
LINE
5
72f
100
AcDbEntity
8
1-8
6
CONTINUOUS
62
3
100
AcDbLine
10
374.000000000000
20
271.500000000000
30
0.0
11
374.000000000000
21
190.500100000000
31
0.0
0
LINE
5
730
100
AcDbEntity
8
1-8
6
CONTINUOUS
62
3
100
AcDbLine
10
275.000000000000
20
262.500000000000
30
0.0
11
401.000000000000
21
262.500000000000
31
0.0
0
LINE
5
731
100
AcDbEntity
8
1-8
6
CONTINUOUS
62
3
100
AcDbLine
10
356.000000000000
20
267.000000000000
30
0.0
11
374.000000000000
21
267.000000000000
31
0.0
0
LINE
5
732
100
AcDbEntity
8
1-8
6
CONTINUOUS
62
3
100
AcDbLine
10
275.000000000000
20
271.500000000000
30
0.0
11
275.000000000000
21
190.500100000000
31
0.0
0
ARC
5
733
100
AcDbEntity
8
1-0
6
CONTINUOUS
62
7
100
AcDbCircle
10
176.335600000000
20
86.400700000000
30
0.0
40
0.800000000000
100
AcDbArc
50
0.000000000000
51
90.000000000000
0
CIRCLE
5
734
100
AcDbEntity
8
1-1
6
CONTINUOUS
62
3
100
AcDbCircle
10
174.335600000000
20
143.760800000000
30
0.0
40
0.800000000000
0
CIRCLE
5
735
100
AcDbEntity
8
1-1
6
CONTINUOUS
62
3
100
AcDbCircle
10
174.335600000000
20
143.760800000000
30
0.0
40
1.600000000000
0
ARC
5
736
100
AcDbEntity
8
1-A
6
CONTINUOUS
62
2
100
AcDbCircle
10
168.906500000000
20
206.400700000000
30
0.0
40
0.800000000000
100
AcDbArc
50
90.000000000000
51
174.999000000000
0
ARC
5
737
100
AcDbEntity
8
1-A
6
CONTINUOUS
62
2
100
AcDbCircle
10
167.331100000000
20
202.160700000000
30
0.0
40
0.400000000000
100
AcDbArc
50
270.000000000000
51
355.001000000000
0
ARC
5
738
100
AcDbEntity
8
1-A
6
CONTINUOUS
62
2
100
AcDbCircle
10
179.764500000000
20
206.400700000000
30
0.0
40
0.800000000000
100
AcDbArc
50
5.001000000000
51
90.000000000000
0
ARC
5
739
100
AcDbEntity
8
1-A
6
CONTINUOUS
62
2
100
AcDbCircle
10
181.340200000000
20
202.160700000000
30
0.0
40
0.400000000000
100
AcDbArc
50
184.999000000000
51
270.000000000000
0
ARC
5
73a
100
AcDbEntity
8
1-A
6
DOT
62
2
100
AcDbCircle
10
65.071500000000
20
206.240900000000
30
0.0
40
0.480000000000
100
AcDbArc
50
0.000000000000
51
90.000000000000
0
ARC
5
73b
100
AcDbEntity
8
1-A
6
DOT
62
2
100
AcDbCircle
10
65.071500000000
20
206.240800000000
30
0.0
40
0.960000000000
100
AcDbArc
50
0.000000000000
51
90.000000000000
0
ARC
5
73c
100
AcDbEntity
8
1-A
6
DOT
62
2
100
AcDbCircle
10
114.991400000000
20
206.240900000000
30
0.0
40
0.480000000000
100
AcDbArc
50
90.000000000000
51
180.000000000000
0
ARC
5
73d
100
AcDbEntity
8
1-A
6
DOT
62
2
100
AcDbCircle
10
114.991400000000
20
206.240800000000
30
0.0
40
0.960000000000
100
AcDbArc
50
90.000000000000
51
180.000000000000
0
CIRCLE
5
73e
100
AcDbEntity
8
1-0
6
CONTINUOUS
62
7
100
AcDbCircle
10
176.215600000000
20
138.760800000000
30
0.0
40
0.400000000000
0
ARC
5
73f
100
AcDbEntity
8
1-0
6
CONTINUOUS
62
7
100
AcDbCircle
10
176.215600000000
20
138.760800000000
30
0.0
40
1.000000000000
100
AcDbArc
50
270.000000000000
51
540.000000000000
0
ARC
5
740
100
AcDbEntity
8
1-3
6
CONTINUOUS
62
6
100
AcDbCircle
10
172.083600000000
20
236.107800000000
30
0.0
40
0.800000000000
100
AcDbArc
50
90.000000000000
51
180.000000000000
0
ARC
5
741
100
AcDbEntity
8
1-3
6
CONTINUOUS
62
6
100
AcDbCircle
10
176.587600000000
20
236.107800000000
30
0.0
40
0.800000000000
100
AcDbArc
50
0.000000000000
51
90.000000000000
0
ARC
5
742
100
AcDbEntity
8
1-A
6
CONTINUOUS
62
6
100
AcDbCircle
10
155.532300000000
20
218.480800000000
30
0.0
40
1.200000000000
100
AcDbArc
50
90.000000000000
51
270.000000000000
0
ARC
5
743
100
AcDbEntity
8
1-A
6
CONTINUOUS
62
6
100
AcDbCircle
10
193.135600000000
20
218.480800000000
30
0.0
40
1.200000000000
100
AcDbArc
50
270.000000000000
51
450.000000000000
0
ARC
5
744
100
AcDbEntity
8
1-A
6
CONTINUOUS
62
6
100
AcDbCircle
10
178.335600000000
20
213.600800000000
30
0.0
40
0.400000000000
100
AcDbArc
50
359.994000000000
51
450.000000000000
0
ARC
5
745
100
AcDbEntity
8
1-A
6
CONTINUOUS
62
6
100
AcDbCircle
10
179.759700000000
20
209.280800000000
30
0.0
40
0.400000000000
100
AcDbArc
50
0.000000000000
51
90.000000000000
0
ARC
5
746
100
AcDbEntity
8
1-A
6
CONTINUOUS
62
6
100
AcDbCircle
10
179.135600000000
20
210.080800000000
30
0.0
40
0.400000000000
100
AcDbArc
50
180.000000000000
51
270.000000000000
0
ARC
5
747
100
AcDbEntity
8
1-A
6
CONTINUOUS
62
6
100
AcDbCircle
10
170.335600000000
20
213.600800000000
30
0.0
40
0.400000000000
100
AcDbArc
50
90.000000000000
51
180.006000000000
0
ARC
5
748
100
AcDbEntity
8
1-A
6
CONTINUOUS
62
6
100
AcDbCircle
10
168.911500000000
20
209.280800000000
30
0.0
40
0.400000000000
100
AcDbArc
50
90.000000000000
51
180.000000000000
0
ARC
5
749
100
AcDbEntity
8
1-A
6
CONTINUOUS
62
6
100
AcDbCircle
10
169.535600000000
20
210.080800000000
30
0.0
40
0.400000000000
100
AcDbArc
50
270.000000000000
51
360.000000000000
0
ARC
5
74a
100
AcDbEntity
8
1-3
6
CONTINUOUS
62
6
100
AcDbCircle
10
92.283400000000
20
236.107800000000
30
0.0
40
0.800000000000
100
AcDbArc
50
0.000000000000
51
90.000000000000
0
ARC
5
74b
100
AcDbEntity
8
1-3
6
CONTINUOUS
62
6
100
AcDbCircle
10
87.779300000000
20
236.107800000000
30
0.0
40
0.800000000000
100
AcDbArc
50
90.000000000000
51
180.000000000000
0
ARC
5
74c
100
AcDbEntity
8
1-A
6
CONTINUOUS
62
6
100
AcDbCircle
10
108.834600000000
20
218.480800000000
30
0.0
40
1.200000000000
100
AcDbArc
50
270.000000000000
51
450.000000000000
0
ARC
5
74d
100
AcDbEntity
8
1-A
6
CONTINUOUS
62
6
100
AcDbCircle
10
71.231300000000
20
218.480800000000
30
0.0
40
1.200000000000
100
AcDbArc
50
90.000000000000
51
270.000000000000
0
ARC
5
74e
100
AcDbEntity
8
1-A
6
CONTINUOUS
62
6
100
AcDbCircle
10
86.031300000000
20
213.600800000000
30
0.0
40
0.400000000000
100
AcDbArc
50
90.000000000000
51
180.006000000000
0
ARC
5
74f
100
AcDbEntity
8
1-A
6
CONTINUOUS
62
6
100
AcDbCircle
10
84.607200000000
20
209.280800000000
30
0.0
40
0.400000000000
100
AcDbArc
50
90.000000000000
51
180.000000000000
0
ARC
5
750
100
AcDbEntity
8
1-A
6
CONTINUOUS
62
6
100
AcDbCircle
10
85.231300000000
20
210.080800000000
30
0.0
40
0.400000000000
100
AcDbArc
50
270.000000000000
51
360.000000000000
0
ARC
5
751
100
AcDbEntity
8
1-A
6
CONTINUOUS
62
6
100
AcDbCircle
10
94.031300000000
20
213.600800000000
30
0.0
40
0.400000000000
100
AcDbArc
50
359.994000000000
51
450.000000000000
0
ARC
5
752
100
AcDbEntity
8
1-A
6
CONTINUOUS
62
6
100
AcDbCircle
10
95.455400000000
20
209.280800000000
30
0.0
40
0.400000000000
100
AcDbArc
50
0.000000000000
51
90.000000000000
0
ARC
5
753
100
AcDbEntity
8
1-A
6
CONTINUOUS
62
6
100
AcDbCircle
10
94.831300000000
20
210.080800000000
30
0.0
40
0.400000000000
100
AcDbArc
50
180.000000000000
51
270.000000000000
0
ARC
5
754
100
AcDbEntity
8
1-A
6
CONTINUOUS
62
6
100
AcDbCircle
10
90.031300000000
20
216.400800000000
30
0.0
40
4.000000000000
100
AcDbArc
50
351.682000000000
51
372.709000000000
0
ARC
5
755
100
AcDbEntity
8
1-A
6
CONTINUOUS
62
6
100
AcDbCircle
10
87.901900000000
20
215.129200000000
30
0.0
40
0.400000000000
100
AcDbArc
50
261.049000000000
51
441.049000000000
0
ARC
5
756
100
AcDbEntity
8
1-A
6
CONTINUOUS
62
6
100
AcDbCircle
10
90.031300000000
20
216.400800000000
30
0.0
40
4.000000000000
100
AcDbArc
50
167.291000000000
51
188.318000000000
0
ARC
5
757
100
AcDbEntity
8
1-A
6
CONTINUOUS
62
6
100
AcDbCircle
10
90.031300000000
20
216.480800000000
30
0.0
40
4.000000000000
100
AcDbArc
50
324.550000000000
51
339.159000000000
0
ARC
5
758
100
AcDbEntity
8
1-A
6
CONTINUOUS
62
6
100
AcDbCircle
10
90.031300000000
20
216.480800000000
30
0.0
40
4.000000000000
100
AcDbArc
50
200.841000000000
51
215.450000000000
0
ARC
5
759
100
AcDbEntity
8
1-A
6
CONTINUOUS
62
6
100
AcDbCircle
10
174.335600000000
20
216.480800000000
30
0.0
40
4.000000000000
100
AcDbArc
50
168.463000000000
51
215.450000000000
0
ARC
5
75a
100
AcDbEntity
8
1-A
6
CONTINUOUS
62
6
100
AcDbCircle
10
174.335600000000
20
216.480800000000
30
0.0
40
4.000000000000
100
AcDbArc
50
324.550000000000
51
371.537000000000
0
ELLIPSE
  5
75b
100
AcDbEntity
8
1-E
6
CONTINUOUS
62
4
100
AcDbEllipse
10
174.335600000000
20
215.214100000000
30
0.0
11
-0.800000000000
21
0.000000000000
31
0.0
210
0.0
220
0.0
230
1.0
40
0.600000000000
41
0.000000000000
42
3.141592653580
0
ARC
5
75c
100
AcDbEntity
8
1-0
6
CONTINUOUS
62
7
100
AcDbCircle
10
174.647600000000
20
136.160800000000
30
0.0
40
0.993500000000
100
AcDbArc
50
162.412000000000
51
197.588000000000
0
ARC
5
75d
100
AcDbEntity
8
1-0
6
CONTINUOUS
62
7
100
AcDbCircle
10
173.919900000000
20
135.710400000000
30
0.0
40
0.265800000000
100
AcDbArc
50
145.615000000000
51
205.614000000000
0
ARC
5
75e
100
AcDbEntity
8
1-0
6
CONTINUOUS
62
7
100
AcDbCircle
10
173.919900000000
20
136.611100000000
30
0.0
40
0.265800000000
100
AcDbArc
50
154.386000000000
51
214.385000000000
0
ARC
5
75f
100
AcDbEntity
8
1-0
6
CONTINUOUS
62
7
100
AcDbCircle
10
174.647600000000
20
89.760700000000
30
0.0
40
0.993500000000
100
AcDbArc
50
162.412000000000
51
197.588000000000
0
ARC
5
760
100
AcDbEntity
8
1-0
6
CONTINUOUS
62
7
100
AcDbCircle
10
173.919900000000
20
89.310400000000
30
0.0
40
0.265800000000
100
AcDbArc
50
145.615000000000
51
205.614000000000
0
ARC
5
761
100
AcDbEntity
8
1-0
6
CONTINUOUS
62
7
100
AcDbCircle
10
173.919900000000
20
90.211100000000
30
0.0
40
0.265800000000
100
AcDbArc
50
154.386000000000
51
214.385000000000
0
ARC
5
762
100
AcDbEntity
8
1-0
6
CONTINUOUS
62
7
100
AcDbCircle
10
294.322500000000
20
69.999500000000
30
0.0
40
0.666700000000
100
AcDbArc
50
180.000000000000
51
270.000000000000
0
ARC
5
763
100
AcDbEntity
8
1-0
6
CONTINUOUS
62
7
100
AcDbCircle
10
292.322600000000
20
77.066200000000
30
0.0
40
1.333300000000
100
AcDbArc
50
0.000000000000
51
90.000000000000
0
CIRCLE
5
764
100
AcDbEntity
8
1-1
6
CONTINUOUS
62
3
100
AcDbCircle
10
288.989200000000
20
148.666200000000
30
0.0
40
1.333300000000
0
CIRCLE
5
765
100
AcDbEntity
8
1-1
6
CONTINUOUS
62
3
100
AcDbCircle
10
288.989200000000
20
148.666200000000
30
0.0
40
2.666700000000
0
CIRCLE
5
766
100
AcDbEntity
8
1-0
6
CONTINUOUS
62
7
100
AcDbCircle
10
292.122600000000
20
140.332900000000
30
0.0
40
0.666700000000
0
ARC
5
767
100
AcDbEntity
8
1-0
6
CONTINUOUS
62
7
100
AcDbCircle
10
292.122600000000
20
140.332900000000
30
0.0
40
1.666700000000
100
AcDbArc
50
270.000000000000
51
540.000000000000
0
ARC
5
768
100
AcDbEntity
8
2-0
6
CONTINUOUS
62
7
100
AcDbCircle
10
289.431800000000
20
135.999600000000
30
0.0
40
1.655900000000
100
AcDbArc
50
162.412000000000
51
197.588000000000
0
ARC
5
769
100
AcDbEntity
8
2-0
6
CONTINUOUS
62
7
100
AcDbCircle
10
288.218900000000
20
135.249000000000
30
0.0
40
0.443000000000
100
AcDbArc
50
145.615000000000
51
205.614000000000
0
ARC
5
76a
100
AcDbEntity
8
2-0
6
CONTINUOUS
62
7
100
AcDbCircle
10
288.218900000000
20
136.750100000000
30
0.0
40
0.443000000000
100
AcDbArc
50
154.386000000000
51
214.385000000000
0
ARC
5
76b
100
AcDbEntity
8
2-0
6
CONTINUOUS
62
7
100
AcDbCircle
10
289.431800000000
20
82.666100000000
30
0.0
40
1.655900000000
100
AcDbArc
50
162.412000000000
51
197.588000000000
0
ARC
5
76c
100
AcDbEntity
8
2-0
6
CONTINUOUS
62
7
100
AcDbCircle
10
288.218900000000
20
81.915600000000
30
0.0
40
0.443000000000
100
AcDbArc
50
145.615000000000
51
205.614000000000
0
ARC
5
76d
100
AcDbEntity
8
2-0
6
CONTINUOUS
62
7
100
AcDbCircle
10
288.218900000000
20
83.416700000000
30
0.0
40
0.443000000000
100
AcDbArc
50
154.386000000000
51
214.385000000000
0
ELLIPSE
  5
76e
100
AcDbEntity
8
0-0
6
CONTINUOUS
62
3
100
AcDbEllipse
10
294.499300000000
20
17.902900000000
30
0.0
11
3.000000000000
21
0.000000000000
31
0.0
210
0.0
220
0.0
230
1.0
40
0.833300000000
41
0.000000000000
42
6.283185307180
0
ARC
5
76f
100
AcDbEntity
8
0-0
6
CONTINUOUS
62
3
100
AcDbCircle
10
292.882600000000
20
17.104200000000
30
0.0
40
1.000000000000
100
AcDbArc
50
60.000000000000
51
105.000000000000
0
ARC
5
770
100
AcDbEntity
8
0-0
6
CONTINUOUS
62
3
100
AcDbCircle
10
293.907100000000
20
17.378800000000
30
0.0
40
1.000000000000
100
AcDbArc
50
60.000000000000
51
105.000000000000
0
ARC
5
771
100
AcDbEntity
8
0-0
6
CONTINUOUS
62
3
100
AcDbCircle
10
294.931600000000
20
17.653300000000
30
0.0
40
1.000000000000
100
AcDbArc
50
60.000000000000
51
105.000000000000
0
ELLIPSE
  5
772
100
AcDbEntity
8
0-0
6
CONTINUOUS
62
3
100
AcDbEllipse
10
294.499300000000
20
17.902900000000
30
0.0
11
2.500000000000
21
0.000000000000
31
0.0
210
0.0
220
0.0
230
1.0
40
0.800000000000
41
0.270792616483
42
6.145261525885
0
POLYLINE
5
773
100
AcDbEntity
  8
2-0
6
CONTINUOUS
62
4
100
AcDb2dPolyline
66
1
10
0
20
0
70
1
40
0.400
41
0.400
0
VERTEX
5
774
100
AcDbEntity
  8
2-0
6
CONTINUOUS
62
4
100
AcDbVertex
100
AcDb2dVertex
10
290.896
20
80.881
30
0.0
42
1.000
0
VERTEX
5
775
100
AcDbEntity
  8
2-0
6
CONTINUOUS
62
4
100
AcDbVertex
100
AcDb2dVertex
10
291.296
20
80.881
30
0.0
42
1.000
0
SEQEND
5
776
100
AcDbEntity
  8
2-0
0
POLYLINE
5
777
100
AcDbEntity
  8
2-0
6
CONTINUOUS
62
4
100
AcDb2dPolyline
66
1
10
0
20
0
70
1
40
0.400
41
0.400
0
VERTEX
5
778
100
AcDbEntity
  8
2-0
6
CONTINUOUS
62
4
100
AcDbVertex
100
AcDb2dVertex
10
293.796
20
144.079
30
0.0
42
1.000
0
VERTEX
5
779
100
AcDbEntity
  8
2-0
6
CONTINUOUS
62
4
100
AcDbVertex
100
AcDb2dVertex
10
294.196
20
144.079
30
0.0
42
1.000
0
SEQEND
5
77a
100
AcDbEntity
  8
2-0
0
MTEXT
5
77b
100
AcDbEntity
8
1-A
62
7
370
-3
100
AcDbMText
10
87.633
20
157.992
30
0.0
40
2.055
41
0.000
71
7
72
1
1
\W0.972;{\W0.700;ｽﾋﾟﾝﾄﾞﾙ}φ
7
STANDARD
11
0.00000
21
1.00000
31
0.0
0
TEXT
5
77c
100
AcDbEntity
8
1-E
62
7
370
-3
100
AcDbText
10
88.842
20
60.299
30
0.0
40
2.176
1
Ｃ
41
0.856
50
0.000
100
AcDbText
0
TEXT
5
77d
100
AcDbEntity
8
1-E
62
7
370
-3
100
AcDbText
10
88.842
20
53.899
30
0.0
40
2.176
1
Ｅ
41
0.856
50
0.000
100
AcDbText
0
TEXT
5
77e
100
AcDbEntity
8
1-E
62
7
370
-3
100
AcDbText
10
41.093
20
112.571
30
0.0
40
2.176
1
Ｄ
41
0.856
50
90.000
100
AcDbText
0
TEXT
5
77f
100
AcDbEntity
8
1-E
62
7
370
-3
100
AcDbText
10
34.693
20
118.571
30
0.0
40
2.176
1
Ｆ
41
0.856
50
90.000
100
AcDbText
0
TEXT
5
780
100
AcDbEntity
8
1-E
62
7
370
-3
100
AcDbText
10
28.293
20
146.571
30
0.0
40
2.176
1
Ｇ
41
0.856
50
90.000
100
AcDbText
0
TEXT
5
781
100
AcDbEntity
8
1-E
62
7
370
-3
100
AcDbText
10
112.201
20
250.741
30
0.0
40
2.176
1
平巻式巻上機
41
0.856
50
0.000
100
AcDbText
0
TEXT
5
782
100
AcDbEntity
8
1-E
62
7
370
-3
100
AcDbText
10
112.201
20
244.341
30
0.0
40
2.176
1
ハンドル
41
0.856
50
0.000
100
AcDbText
0
TEXT
5
783
100
AcDbEntity
8
1-E
62
7
370
-3
100
AcDbText
10
112.201
20
237.941
30
0.0
40
2.176
1
ｽﾋﾟﾝﾄﾞﾙｶﾊﾞｰ  65A
41
0.763
50
0.000
100
AcDbText
0
TEXT
5
784
100
AcDbEntity
8
1-B
62
7
370
-3
100
AcDbText
10
153.660
20
114.427
30
0.0
40
2.176
1
水圧方向
41
0.856
50
0.000
100
AcDbText
0
MTEXT
5
785
100
AcDbEntity
8
1-E
62
7
370
-3
100
AcDbMText
10
155.150
20
143.897
30
0.0
40
2.055
41
0.000
71
7
72
1
1
\W0.972;▽{\W0.700;H.W.L}
7
STANDARD
11
1.00000
21
0.00000
31
0.0
0
TEXT
5
786
100
AcDbEntity
8
1-E
62
7
370
-3
100
AcDbText
10
145.093
20
114.414
30
0.0
40
2.176
1
Ｉ
41
0.856
50
90.000
100
AcDbText
0
TEXT
5
787
100
AcDbEntity
8
1-E
62
7
370
-3
100
AcDbText
10
137.093
20
89.825
30
0.0
40
2.176
1
100
41
0.689
50
90.000
100
AcDbText
0
TEXT
5
788
100
AcDbEntity
8
1-E
62
7
370
-3
100
AcDbText
10
88.842
20
66.699
30
0.0
40
2.176
1
Ａ
41
0.856
50
0.000
100
AcDbText
0
TEXT
5
789
100
AcDbEntity
8
1-E
62
7
370
-3
100
AcDbText
10
192.757
20
110.571
30
0.0
40
2.176
1
Ｂ
41
0.856
50
90.000
100
AcDbText
0
MTEXT
5
78a
100
AcDbEntity
8
1-E
62
7
370
-3
100
AcDbMText
10
137.335
20
144.533
30
0.0
40
2.055
41
0.000
71
7
72
1
1
\W0.972;≠{\W0.700;100}
7
STANDARD
11
0.00000
21
1.00000
31
0.0
0
MTEXT
5
78b
100
AcDbEntity
8
1-E
62
7
370
-3
100
AcDbMText
10
37.991
20
229.614
30
0.0
40
2.055
41
0.000
71
7
72
1
1
\W0.972;上部{\W0.700;ﾋﾟｱ- C180x75x7}
7
STANDARD
11
1.00000
21
0.00000
31
0.0
0
TEXT
5
78c
100
AcDbEntity
8
2-0
62
7
370
-3
100
AcDbText
10
285.986
20
57.504
30
0.0
40
2.176
1
100
41
0.689
50
0.000
100
AcDbText
0
TEXT
5
78d
100
AcDbEntity
8
2-0
62
7
370
-3
100
AcDbText
10
314.984
20
106.143
30
0.0
40
2.176
1
Ｂ
41
0.856
50
90.000
100
AcDbText
0
TEXT
5
78e
100
AcDbEntity
8
1-B
62
7
370
-3
100
AcDbText
10
262.281
20
107.399
30
0.0
40
2.176
1
水圧方向
41
0.856
50
0.000
100
AcDbText
0
TEXT
5
78f
100
AcDbEntity
8
2-0
62
7
370
-3
100
AcDbText
10
314.984
20
140.264
30
0.0
40
2.176
1
100
41
0.689
50
90.000
100
AcDbText
0
TEXT
5
790
100
AcDbEntity
8
1-E
62
7
370
-3
100
AcDbText
10
300.667
20
157.488
30
0.0
40
2.176
1
上部戸当り
41
0.856
50
0.000
100
AcDbText
0
TEXT
5
791
100
AcDbEntity
8
2-B
62
3
370
-3
100
AcDbText
10
277.697
20
171.945
30
0.0
40
3.626
1
側部詳細図
41
0.856
50
0.000
100
AcDbText
0
MTEXT
5
792
100
AcDbEntity
8
1-E
62
7
370
-3
100
AcDbMText
10
244.199
20
60.271
30
0.0
40
2.055
41
0.000
71
7
72
1
1
\W0.972;皿ＢＴ＆ＮＴ{\W0.700;  M8}
7
STANDARD
11
1.00000
21
0.00000
31
0.0
0
MTEXT
5
793
100
AcDbEntity
8
1-E
62
7
370
-3
100
AcDbMText
10
240.774
20
73.071
30
0.0
40
2.055
41
0.000
71
7
72
1
1
\W0.972;水密ゴム　平型{\W0.700; 60x10t}
7
STANDARD
11
1.00000
21
0.00000
31
0.0
0
MTEXT
5
794
100
AcDbEntity
8
1-E
62
7
370
-3
100
AcDbMText
10
241.955
20
52.271
30
0.0
40
2.055
41
0.000
71
7
72
1
1
\W0.972;下部戸当り{\W0.700; L100x75x7}
7
STANDARD
11
1.00000
21
0.00000
31
0.0
0
TEXT
5
795
100
AcDbEntity
8
2-0
62
7
370
-3
100
AcDbText
10
190.406
20
81.244
30
0.0
40
2.176
1
開口部は、シ－リング剤充填とする。
41
0.856
50
0.000
100
AcDbText
0
TEXT
5
796
100
AcDbEntity
8
1-0
62
7
370
-3
100
AcDbText
10
175.818
20
28.167
30
0.0
40
2.720
1
　　　　　青色（マンセル値１０Ｂ５／１０）と致します。
41
0.856
50
0.000
100
AcDbText
0
TEXT
5
797
100
AcDbEntity
8
1-0
62
7
370
-3
100
AcDbText
10
175.818
20
22.167
30
0.0
40
2.720
1
　　　　　ＳＵＳ部は、酸洗い後、水洗い処理と致します。
41
0.856
50
0.000
100
AcDbText
0
TEXT
5
798
100
AcDbEntity
8
1-0
62
7
370
-3
100
AcDbText
10
175.818
20
34.020
30
0.0
40
2.720
1
注記　１．塗装　下地処理後、ポリウレタン樹脂塗料とし色調は
41
0.856
50
0.000
100
AcDbText
0
TEXT
5
799
100
AcDbEntity
8
0-0
62
7
370
-3
100
AcDbText
10
299.888
20
16.876
30
0.0
40
3.626
1
三重重工業株式会社
41
0.856
50
0.000
100
AcDbText
0
TEXT
5
79a
100
AcDbEntity
8
0-0
62
7
370
-3
100
AcDbText
10
312.879
20
278.876
30
0.0
40
2.719
1
記号
41
0.856
50
0.000
100
AcDbText
0
TEXT
5
79b
100
AcDbEntity
8
0-0
62
7
370
-3
100
AcDbText
10
328.129
20
278.876
30
0.0
40
2.719
1
修　　　　　　　正
41
0.856
50
0.000
100
AcDbText
0
TEXT
5
79c
100
AcDbEntity
8
0-0
62
7
370
-3
100
AcDbText
10
368.879
20
278.876
30
0.0
40
2.719
1
日　　付
41
0.856
50
0.000
100
AcDbText
0
TEXT
5
79d
100
AcDbEntity
8
0-0
62
7
370
-3
100
AcDbText
10
388.629
20
278.876
30
0.0
40
2.719
1
担　　当
41
0.856
50
0.000
100
AcDbText
0
TEXT
5
79e
100
AcDbEntity
8
1-8
62
7
370
-3
100
AcDbText
10
277.958
20
259.073
30
0.0
40
3.059
1
１
41
0.856
50
0.000
100
AcDbText
0
TEXT
5
79f
100
AcDbEntity
8
1-8
62
7
370
-3
100
AcDbText
10
277.958
20
254.573
30
0.0
40
3.059
1
２
41
0.856
50
0.000
100
AcDbText
0
TEXT
5
7a0
100
AcDbEntity
8
1-8
62
7
370
-3
100
AcDbText
10
277.958
20
250.073
30
0.0
40
3.059
1
３
41
0.856
50
0.000
100
AcDbText
0
TEXT
5
7a1
100
AcDbEntity
8
1-8
62
7
370
-3
100
AcDbText
10
277.958
20
245.573
30
0.0
40
3.059
1
４
41
0.856
50
0.000
100
AcDbText
0
TEXT
5
7a2
100
AcDbEntity
8
1-8
62
7
370
-3
100
AcDbText
10
277.958
20
241.073
30
0.0
40
3.059
1
５
41
0.856
50
0.000
100
AcDbText
0
TEXT
5
7a3
100
AcDbEntity
8
1-8
62
7
370
-3
100
AcDbText
10
277.958
20
236.573
30
0.0
40
3.059
1
６
41
0.856
50
0.000
100
AcDbText
0
TEXT
5
7a4
100
AcDbEntity
8
1-8
62
7
370
-3
100
AcDbText
10
277.958
20
232.073
30
0.0
40
3.059
1
７
41
0.856
50
0.000
100
AcDbText
0
TEXT
5
7a5
100
AcDbEntity
8
1-8
62
7
370
-3
100
AcDbText
10
277.958
20
227.573
30
0.0
40
3.059
1
８
41
0.856
50
0.000
100
AcDbText
0
TEXT
5
7a6
100
AcDbEntity
8
1-8
62
7
370
-3
100
AcDbText
10
277.958
20
223.073
30
0.0
40
3.059
1
９
41
0.856
50
0.000
100
AcDbText
0
TEXT
5
7a7
100
AcDbEntity
8
1-8
62
7
370
-3
100
AcDbText
10
277.817
20
218.573
30
0.0
40
3.059
1
10
41
0.725
50
0.000
100
AcDbText
0
TEXT
5
7a8
100
AcDbEntity
8
1-8
62
7
370
-3
100
AcDbText
10
277.817
20
214.073
30
0.0
40
3.059
1
11
41
0.860
50
0.000
100
AcDbText
0
TEXT
5
7a9
100
AcDbEntity
8
1-8
62
7
370
-3
100
AcDbText
10
277.817
20
209.573
30
0.0
40
3.059
1
12
41
0.600
50
0.000
100
AcDbText
0
TEXT
5
7aa
100
AcDbEntity
8
1-8
62
4
370
-3
100
AcDbText
10
286.512
20
259.269
30
0.0
40
2.549
1
300
41
0.585
50
0.000
100
AcDbText
0
TEXT
5
7ab
100
AcDbEntity
8
1-8
62
4
370
-3
100
AcDbText
10
286.512
20
254.769
30
0.0
40
2.549
1
300
41
0.585
50
0.000
100
AcDbText
0
TEXT
5
7ac
100
AcDbEntity
8
1-8
62
4
370
-3
100
AcDbText
10
286.512
20
250.269
30
0.0
40
2.549
1
400
41
0.598
50
0.000
100
AcDbText
0
TEXT
5
7ad
100
AcDbEntity
8
1-8
62
4
370
-3
100
AcDbText
10
286.512
20
245.769
30
0.0
40
2.549
1
400
41
0.598
50
0.000
100
AcDbText
0
TEXT
5
7ae
100
AcDbEntity
8
1-8
62
4
370
-3
100
AcDbText
10
286.512
20
241.269
30
0.0
40
2.549
1
500
41
0.578
50
0.000
100
AcDbText
0
TEXT
5
7af
100
AcDbEntity
8
1-8
62
4
370
-3
100
AcDbText
10
286.512
20
236.769
30
0.0
40
2.549
1
500
41
0.578
50
0.000
100
AcDbText
0
TEXT
5
7b0
100
AcDbEntity
8
1-8
62
4
370
-3
100
AcDbText
10
286.512
20
232.269
30
0.0
40
2.549
1
600
41
0.580
50
0.000
100
AcDbText
0
TEXT
5
7b1
100
AcDbEntity
8
1-8
62
4
370
-3
100
AcDbText
10
286.512
20
227.769
30
0.0
40
2.549
1
600
41
0.580
50
0.000
100
AcDbText
0
TEXT
5
7b2
100
AcDbEntity
8
1-8
62
4
370
-3
100
AcDbText
10
286.512
20
223.269
30
0.0
40
2.549
1
700
41
0.596
50
0.000
100
AcDbText
0
TEXT
5
7b3
100
AcDbEntity
8
1-8
62
4
370
-3
100
AcDbText
10
286.512
20
218.769
30
0.0
40
2.549
1
700
41
0.596
50
0.000
100
AcDbText
0
TEXT
5
7b4
100
AcDbEntity
8
1-8
62
4
370
-3
100
AcDbText
10
286.512
20
214.269
30
0.0
40
2.549
1
800
41
0.575
50
0.000
100
AcDbText
0
TEXT
5
7b5
100
AcDbEntity
8
1-8
62
4
370
-3
100
AcDbText
10
286.512
20
209.769
30
0.0
40
2.549
1
800
41
0.575
50
0.000
100
AcDbText
0
TEXT
5
7b6
100
AcDbEntity
8
1-8
62
4
370
-3
100
AcDbText
10
295.512
20
259.269
30
0.0
40
2.549
1
200
41
0.560
50
0.000
100
AcDbText
0
TEXT
5
7b7
100
AcDbEntity
8
1-8
62
4
370
-3
100
AcDbText
10
295.512
20
254.769
30
0.0
40
2.549
1
300
41
0.585
50
0.000
100
AcDbText
0
TEXT
5
7b8
100
AcDbEntity
8
1-8
62
4
370
-3
100
AcDbText
10
295.512
20
245.769
30
0.0
40
2.549
1
400
41
0.598
50
0.000
100
AcDbText
0
TEXT
5
7b9
100
AcDbEntity
8
1-8
62
4
370
-3
100
AcDbText
10
295.512
20
241.269
30
0.0
40
2.549
1
300
41
0.585
50
0.000
100
AcDbText
0
TEXT
5
7ba
100
AcDbEntity
8
1-8
62
4
370
-3
100
AcDbText
10
295.512
20
236.769
30
0.0
40
2.549
1
500
41
0.578
50
0.000
100
AcDbText
0
TEXT
5
7bb
100
AcDbEntity
8
1-8
62
4
370
-3
100
AcDbText
10
295.512
20
232.269
30
0.0
40
2.549
1
400
41
0.598
50
0.000
100
AcDbText
0
TEXT
5
7bc
100
AcDbEntity
8
1-8
62
4
370
-3
100
AcDbText
10
295.512
20
227.769
30
0.0
40
2.549
1
600
41
0.580
50
0.000
100
AcDbText
0
TEXT
5
7bd
100
AcDbEntity
8
1-8
62
4
370
-3
100
AcDbText
10
295.512
20
223.269
30
0.0
40
2.549
1
500
41
0.578
50
0.000
100
AcDbText
0
TEXT
5
7be
100
AcDbEntity
8
1-8
62
4
370
-3
100
AcDbText
10
295.512
20
218.769
30
0.0
40
2.549
1
700
41
0.596
50
0.000
100
AcDbText
0
TEXT
5
7bf
100
AcDbEntity
8
1-8
62
4
370
-3
100
AcDbText
10
295.512
20
214.269
30
0.0
40
2.549
1
500
41
0.578
50
0.000
100
AcDbText
0
TEXT
5
7c0
100
AcDbEntity
8
1-8
62
4
370
-3
100
AcDbText
10
295.512
20
209.769
30
0.0
40
2.549
1
800
41
0.575
50
0.000
100
AcDbText
0
TEXT
5
7c1
100
AcDbEntity
8
1-8
62
4
370
-3
100
AcDbText
10
304.512
20
259.269
30
0.0
40
2.549
1
410
41
0.654
50
0.000
100
AcDbText
0
TEXT
5
7c2
100
AcDbEntity
8
1-8
62
4
370
-3
100
AcDbText
10
304.512
20
254.769
30
0.0
40
2.549
1
410
41
0.654
50
0.000
100
AcDbText
0
TEXT
5
7c3
100
AcDbEntity
8
1-8
62
4
370
-3
100
AcDbText
10
304.512
20
250.269
30
0.0
40
2.549
1
510
41
0.631
50
0.000
100
AcDbText
0
TEXT
5
7c4
100
AcDbEntity
8
1-8
62
4
370
-3
100
AcDbText
10
304.512
20
245.769
30
0.0
40
2.549
1
510
41
0.631
50
0.000
100
AcDbText
0
TEXT
5
7c5
100
AcDbEntity
8
1-8
62
4
370
-3
100
AcDbText
10
304.512
20
241.269
30
0.0
40
2.549
1
610
41
0.633
50
0.000
100
AcDbText
0
TEXT
5
7c6
100
AcDbEntity
8
1-8
62
4
370
-3
100
AcDbText
10
304.512
20
236.769
30
0.0
40
2.549
1
610
41
0.633
50
0.000
100
AcDbText
0
TEXT
5
7c7
100
AcDbEntity
8
1-8
62
4
370
-3
100
AcDbText
10
304.512
20
232.269
30
0.0
40
2.549
1
710
41
0.652
50
0.000
100
AcDbText
0
TEXT
5
7c8
100
AcDbEntity
8
1-8
62
4
370
-3
100
AcDbText
10
304.512
20
227.769
30
0.0
40
2.549
1
710
41
0.652
50
0.000
100
AcDbText
0
TEXT
5
7c9
100
AcDbEntity
8
1-8
62
4
370
-3
100
AcDbText
10
304.512
20
223.269
30
0.0
40
2.549
1
810
41
0.627
50
0.000
100
AcDbText
0
TEXT
5
7ca
100
AcDbEntity
8
1-8
62
4
370
-3
100
AcDbText
10
304.512
20
218.769
30
0.0
40
2.549
1
810
41
0.627
50
0.000
100
AcDbText
0
TEXT
5
7cb
100
AcDbEntity
8
1-8
62
4
370
-3
100
AcDbText
10
304.512
20
214.269
30
0.0
40
2.549
1
910
41
0.654
50
0.000
100
AcDbText
0
TEXT
5
7cc
100
AcDbEntity
8
1-8
62
4
370
-3
100
AcDbText
10
304.512
20
209.769
30
0.0
40
2.549
1
910
41
0.654
50
0.000
100
AcDbText
0
TEXT
5
7cd
100
AcDbEntity
8
1-8
62
4
370
-3
100
AcDbText
10
295.512
20
250.269
30
0.0
40
2.549
1
250
41
0.521
50
0.000
100
AcDbText
0
TEXT
5
7ce
100
AcDbEntity
8
1-8
62
7
370
-3
100
AcDbText
10
357.411
20
42.567
30
0.0
40
3.554
1
簡易スルースゲート
41
0.856
50
0.000
100
AcDbText
0
TEXT
5
7cf
100
AcDbEntity
8
1-8
62
7
370
-3
100
AcDbText
10
354.283
20
122.696
30
0.0
40
2.719
1
ＳＳ４００
41
0.856
50
0.000
100
AcDbText
0
TEXT
5
7d0
100
AcDbEntity
8
1-8
62
7
370
-3
100
AcDbText
10
354.283
20
112.696
30
0.0
40
2.719
1
ＳＳ４００
41
0.856
50
0.000
100
AcDbText
0
TEXT
5
7d1
100
AcDbEntity
8
1-8
62
7
370
-3
100
AcDbText
10
351.400
20
140.906
30
0.0
40
3.626
1
標準材質表
41
0.856
50
0.000
100
AcDbText
0
TEXT
5
7d2
100
AcDbEntity
8
1-8
62
7
370
-3
100
AcDbText
10
357.862
20
127.775
30
0.0
40
2.719
1
鋼　製
41
0.856
50
0.000
100
AcDbText
0
TEXT
5
7d3
100
AcDbEntity
8
1-8
62
7
370
-3
100
AcDbText
10
359.802
20
117.550
30
0.0
40
2.719
1
ＣＲ
41
0.856
50
0.000
100
AcDbText
0
MTEXT
5
7d4
100
AcDbEntity
8
1-8
62
7
370
-3
100
AcDbMText
10
362.504
20
48.721
30
0.0
40
2.568
41
0.000
71
7
72
1
1
\W0.972;型式{\W0.700; KMSL-     -4S}
7
STANDARD
11
1.00000
21
0.00000
31
0.0
0
TEXT
5
7d5
100
AcDbEntity
8
1-8
62
4
370
-3
100
AcDbText
10
322.512
20
259.269
30
0.0
40
2.549
1
440
41
0.571
50
0.000
100
AcDbText
0
TEXT
5
7d6
100
AcDbEntity
8
1-8
62
4
370
-3
100
AcDbText
10
322.512
20
254.769
30
0.0
40
2.549
1
440
41
0.571
50
0.000
100
AcDbText
0
TEXT
5
7d7
100
AcDbEntity
8
1-8
62
4
370
-3
100
AcDbText
10
322.512
20
250.269
30
0.0
40
2.549
1
540
41
0.554
50
0.000
100
AcDbText
0
TEXT
5
7d8
100
AcDbEntity
8
1-8
62
4
370
-3
100
AcDbText
10
322.512
20
245.769
30
0.0
40
2.549
1
540
41
0.554
50
0.000
100
AcDbText
0
TEXT
5
7d9
100
AcDbEntity
8
1-8
62
4
370
-3
100
AcDbText
10
322.512
20
241.269
30
0.0
40
2.549
1
640
41
0.555
50
0.000
100
AcDbText
0
TEXT
5
7da
100
AcDbEntity
8
1-8
62
4
370
-3
100
AcDbText
10
322.512
20
236.769
30
0.0
40
2.549
1
640
41
0.555
50
0.000
100
AcDbText
0
TEXT
5
7db
100
AcDbEntity
8
1-8
62
4
370
-3
100
AcDbText
10
322.512
20
232.269
30
0.0
40
2.549
1
740
41
0.569
50
0.000
100
AcDbText
0
TEXT
5
7dc
100
AcDbEntity
8
1-8
62
4
370
-3
100
AcDbText
10
322.512
20
227.769
30
0.0
40
2.549
1
740
41
0.569
50
0.000
100
AcDbText
0
TEXT
5
7dd
100
AcDbEntity
8
1-8
62
4
370
-3
100
AcDbText
10
322.512
20
223.269
30
0.0
40
2.549
1
840
41
0.550
50
0.000
100
AcDbText
0
TEXT
5
7de
100
AcDbEntity
8
1-8
62
4
370
-3
100
AcDbText
10
322.512
20
218.769
30
0.0
40
2.549
1
840
41
0.550
50
0.000
100
AcDbText
0
TEXT
5
7df
100
AcDbEntity
8
1-8
62
4
370
-3
100
AcDbText
10
322.512
20
214.269
30
0.0
40
2.549
1
940
41
0.571
50
0.000
100
AcDbText
0
TEXT
5
7e0
100
AcDbEntity
8
1-8
62
4
370
-3
100
AcDbText
10
322.512
20
209.769
30
0.0
40
2.549
1
940
41
0.571
50
0.000
100
AcDbText
0
TEXT
5
7e1
100
AcDbEntity
8
1-8
62
4
370
-3
100
AcDbText
10
330.809
20
259.269
30
0.0
40
2.549
1
----
41
0.525
50
0.000
100
AcDbText
0
TEXT
5
7e2
100
AcDbEntity
8
1-8
62
4
370
-3
100
AcDbText
10
339.809
20
259.269
30
0.0
40
2.549
1
----
41
0.525
50
0.000
100
AcDbText
0
TEXT
5
7e3
100
AcDbEntity
8
1-8
62
4
370
-3
100
AcDbText
10
330.809
20
254.769
30
0.0
40
2.549
1
----
41
0.525
50
0.000
100
AcDbText
0
TEXT
5
7e4
100
AcDbEntity
8
1-8
62
4
370
-3
100
AcDbText
10
339.809
20
254.769
30
0.0
40
2.549
1
----
41
0.525
50
0.000
100
AcDbText
0
TEXT
5
7e5
100
AcDbEntity
8
1-8
62
4
370
-3
100
AcDbText
10
330.809
20
250.269
30
0.0
40
2.549
1
----
41
0.525
50
0.000
100
AcDbText
0
TEXT
5
7e6
100
AcDbEntity
8
1-8
62
4
370
-3
100
AcDbText
10
339.809
20
250.269
30
0.0
40
2.549
1
----
41
0.525
50
0.000
100
AcDbText
0
TEXT
5
7e7
100
AcDbEntity
8
1-8
62
4
370
-3
100
AcDbText
10
330.809
20
245.769
30
0.0
40
2.549
1
----
41
0.525
50
0.000
100
AcDbText
0
TEXT
5
7e8
100
AcDbEntity
8
1-8
62
4
370
-3
100
AcDbText
10
339.809
20
245.769
30
0.0
40
2.549
1
----
41
0.525
50
0.000
100
AcDbText
0
TEXT
5
7e9
100
AcDbEntity
8
1-8
62
4
370
-3
100
AcDbText
10
330.809
20
241.269
30
0.0
40
2.549
1
----
41
0.525
50
0.000
100
AcDbText
0
TEXT
5
7ea
100
AcDbEntity
8
1-8
62
4
370
-3
100
AcDbText
10
339.809
20
241.269
30
0.0
40
2.549
1
----
41
0.525
50
0.000
100
AcDbText
0
TEXT
5
7eb
100
AcDbEntity
8
1-8
62
4
370
-3
100
AcDbText
10
330.809
20
236.769
30
0.0
40
2.549
1
----
41
0.525
50
0.000
100
AcDbText
0
TEXT
5
7ec
100
AcDbEntity
8
1-8
62
4
370
-3
100
AcDbText
10
339.809
20
236.769
30
0.0
40
2.549
1
----
41
0.525
50
0.000
100
AcDbText
0
TEXT
5
7ed
100
AcDbEntity
8
1-8
62
4
370
-3
100
AcDbText
10
330.809
20
232.269
30
0.0
40
2.549
1
----
41
0.525
50
0.000
100
AcDbText
0
TEXT
5
7ee
100
AcDbEntity
8
1-8
62
4
370
-3
100
AcDbText
10
339.809
20
232.269
30
0.0
40
2.549
1
----
41
0.525
50
0.000
100
AcDbText
0
TEXT
5
7ef
100
AcDbEntity
8
1-8
62
4
370
-3
100
AcDbText
10
330.809
20
227.769
30
0.0
40
2.549
1
----
41
0.525
50
0.000
100
AcDbText
0
TEXT
5
7f0
100
AcDbEntity
8
1-8
62
4
370
-3
100
AcDbText
10
339.809
20
227.769
30
0.0
40
2.549
1
----
41
0.525
50
0.000
100
AcDbText
0
TEXT
5
7f1
100
AcDbEntity
8
1-8
62
4
370
-3
100
AcDbText
10
330.809
20
223.269
30
0.0
40
2.549
1
----
41
0.525
50
0.000
100
AcDbText
0
TEXT
5
7f2
100
AcDbEntity
8
1-8
62
4
370
-3
100
AcDbText
10
339.809
20
223.269
30
0.0
40
2.549
1
----
41
0.525
50
0.000
100
AcDbText
0
TEXT
5
7f3
100
AcDbEntity
8
1-8
62
4
370
-3
100
AcDbText
10
330.809
20
218.769
30
0.0
40
2.549
1
----
41
0.525
50
0.000
100
AcDbText
0
TEXT
5
7f4
100
AcDbEntity
8
1-8
62
4
370
-3
100
AcDbText
10
339.809
20
218.769
30
0.0
40
2.549
1
----
41
0.525
50
0.000
100
AcDbText
0
TEXT
5
7f5
100
AcDbEntity
8
1-8
62
4
370
-3
100
AcDbText
10
330.809
20
214.269
30
0.0
40
2.549
1
----
41
0.525
50
0.000
100
AcDbText
0
TEXT
5
7f6
100
AcDbEntity
8
1-8
62
4
370
-3
100
AcDbText
10
339.809
20
214.269
30
0.0
40
2.549
1
----
41
0.525
50
0.000
100
AcDbText
0
TEXT
5
7f7
100
AcDbEntity
8
1-8
62
4
370
-3
100
AcDbText
10
330.809
20
209.769
30
0.0
40
2.549
1
----
41
0.525
50
0.000
100
AcDbText
0
TEXT
5
7f8
100
AcDbEntity
8
1-8
62
4
370
-3
100
AcDbText
10
339.809
20
209.769
30
0.0
40
2.549
1
----
41
0.525
50
0.000
100
AcDbText
0
TEXT
5
7f9
100
AcDbEntity
8
1-8
62
7
370
-3
100
AcDbText
10
277.817
20
205.073
30
0.0
40
3.059
1
13
41
0.645
50
0.000
100
AcDbText
0
TEXT
5
7fa
100
AcDbEntity
8
1-8
62
4
370
-3
100
AcDbText
10
286.512
20
205.269
30
0.0
40
2.549
1
900
41
0.598
50
0.000
100
AcDbText
0
TEXT
5
7fb
100
AcDbEntity
8
1-8
62
4
370
-3
100
AcDbText
10
295.512
20
205.269
30
0.0
40
2.549
1
600
41
0.580
50
0.000
100
AcDbText
0
TEXT
5
7fc
100
AcDbEntity
8
1-8
62
4
370
-3
100
AcDbText
10
303.558
20
205.269
30
0.0
40
2.549
1
1010
41
0.725
50
0.000
100
AcDbText
0
TEXT
5
7fd
100
AcDbEntity
8
1-8
62
4
370
-3
100
AcDbText
10
321.558
20
205.269
30
0.0
40
2.549
1
1040
41
0.647
50
0.000
100
AcDbText
0
TEXT
5
7fe
100
AcDbEntity
8
1-8
62
4
370
-3
100
AcDbText
10
330.809
20
205.269
30
0.0
40
2.549
1
----
41
0.525
50
0.000
100
AcDbText
0
TEXT
5
7ff
100
AcDbEntity
8
1-8
62
4
370
-3
100
AcDbText
10
339.809
20
205.269
30
0.0
40
2.549
1
----
41
0.525
50
0.000
100
AcDbText
0
TEXT
5
800
100
AcDbEntity
8
1-8
62
7
370
-3
100
AcDbText
10
277.817
20
200.573
30
0.0
40
3.059
1
14
41
0.669
50
0.000
100
AcDbText
0
TEXT
5
801
100
AcDbEntity
8
1-8
62
4
370
-3
100
AcDbText
10
286.512
20
200.769
30
0.0
40
2.549
1
900
41
0.598
50
0.000
100
AcDbText
0
TEXT
5
802
100
AcDbEntity
8
1-8
62
4
370
-3
100
AcDbText
10
295.512
20
200.769
30
0.0
40
2.549
1
900
41
0.598
50
0.000
100
AcDbText
0
TEXT
5
803
100
AcDbEntity
8
1-8
62
4
370
-3
100
AcDbText
10
303.558
20
200.769
30
0.0
40
2.549
1
1010
41
0.725
50
0.000
100
AcDbText
0
TEXT
5
804
100
AcDbEntity
8
1-8
62
4
370
-3
100
AcDbText
10
321.558
20
200.769
30
0.0
40
2.549
1
1040
41
0.647
50
0.000
100
AcDbText
0
TEXT
5
805
100
AcDbEntity
8
1-8
62
4
370
-3
100
AcDbText
10
330.809
20
200.769
30
0.0
40
2.549
1
----
41
0.525
50
0.000
100
AcDbText
0
TEXT
5
806
100
AcDbEntity
8
1-8
62
4
370
-3
100
AcDbText
10
339.809
20
200.769
30
0.0
40
2.549
1
----
41
0.525
50
0.000
100
AcDbText
0
TEXT
5
807
100
AcDbEntity
8
1-8
62
7
370
-3
100
AcDbText
10
277.817
20
196.073
30
0.0
40
3.059
1
15
41
0.633
50
0.000
100
AcDbText
0
TEXT
5
808
100
AcDbEntity
8
1-8
62
4
370
-3
100
AcDbText
10
285.558
20
196.269
30
0.0
40
2.549
1
1000
41
0.672
50
0.000
100
AcDbText
0
TEXT
5
809
100
AcDbEntity
8
1-8
62
4
370
-3
100
AcDbText
10
295.512
20
196.269
30
0.0
40
2.549
1
600
41
0.580
50
0.000
100
AcDbText
0
TEXT
5
80a
100
AcDbEntity
8
1-8
62
4
370
-3
100
AcDbText
10
303.558
20
196.269
30
0.0
40
2.549
1
1110
41
0.787
50
0.000
100
AcDbText
0
TEXT
5
80b
100
AcDbEntity
8
1-8
62
4
370
-3
100
AcDbText
10
321.558
20
196.269
30
0.0
40
2.549
1
1140
41
0.696
50
0.000
100
AcDbText
0
TEXT
5
80c
100
AcDbEntity
8
1-8
62
4
370
-3
100
AcDbText
10
330.809
20
196.269
30
0.0
40
2.549
1
----
41
0.525
50
0.000
100
AcDbText
0
TEXT
5
80d
100
AcDbEntity
8
1-8
62
4
370
-3
100
AcDbText
10
339.809
20
196.269
30
0.0
40
2.549
1
----
41
0.525
50
0.000
100
AcDbText
0
TEXT
5
80e
100
AcDbEntity
8
1-8
62
7
370
-3
100
AcDbText
10
277.817
20
191.573
30
0.0
40
3.059
1
16
41
0.636
50
0.000
100
AcDbText
0
TEXT
5
80f
100
AcDbEntity
8
1-8
62
4
370
-3
100
AcDbText
10
285.558
20
191.769
30
0.0
40
2.549
1
1000
41
0.672
50
0.000
100
AcDbText
0
TEXT
5
810
100
AcDbEntity
8
1-8
62
4
370
-3
100
AcDbText
10
294.558
20
191.769
30
0.0
40
2.549
1
1000
41
0.672
50
0.000
100
AcDbText
0
TEXT
5
811
100
AcDbEntity
8
1-8
62
4
370
-3
100
AcDbText
10
303.558
20
191.769
30
0.0
40
2.549
1
1110
41
0.787
50
0.000
100
AcDbText
0
TEXT
5
812
100
AcDbEntity
8
1-8
62
4
370
-3
100
AcDbText
10
321.558
20
191.769
30
0.0
40
2.549
1
1140
41
0.696
50
0.000
100
AcDbText
0
TEXT
5
813
100
AcDbEntity
8
1-8
62
4
370
-3
100
AcDbText
10
330.809
20
191.769
30
0.0
40
2.549
1
----
41
0.525
50
0.000
100
AcDbText
0
TEXT
5
814
100
AcDbEntity
8
1-8
62
4
370
-3
100
AcDbText
10
339.809
20
191.769
30
0.0
40
2.549
1
----
41
0.525
50
0.000
100
AcDbText
0
TEXT
5
815
100
AcDbEntity
8
1-8
62
7
370
-3
100
AcDbText
10
353.339
20
107.550
30
0.0
40
2.719
1
ＳＵＳ３０４
41
0.856
50
0.000
100
AcDbText
0
TEXT
5
816
100
AcDbEntity
8
1-8
62
7
370
-3
100
AcDbText
10
354.955
20
97.550
30
0.0
40
2.719
1
ＦＣ２００
41
0.856
50
0.000
100
AcDbText
0
TEXT
5
817
100
AcDbEntity
8
1-8
62
7
370
-3
100
AcDbText
10
358.186
20
102.550
30
0.0
40
2.719
1
ＳＧＰ
41
0.856
50
0.000
100
AcDbText
0
TEXT
5
818
100
AcDbEntity
8
1-8
62
7
370
-3
100
AcDbText
10
354.955
20
92.550
30
0.0
40
2.719
1
ＦＣ２００
41
0.856
50
0.000
100
AcDbText
0
MTEXT
5
819
100
AcDbEntity
8
1-8
62
4
370
-3
100
AcDbMText
10
329.557
20
184.781
30
0.0
40
2.140
41
0.000
71
7
72
1
1
\W0.972;{\W0.700;[}注意{\W0.700;]}
7
STANDARD
11
1.00000
21
0.00000
31
0.0
0
TEXT
5
81a
100
AcDbEntity
8
1-8
62
4
370
-3
100
AcDbText
10
329.585
20
181.434
30
0.0
40
2.266
1
・標記以外の寸法も製作できますので御指定下さい。
41
0.856
50
0.000
100
AcDbText
0
TEXT
5
81b
100
AcDbEntity
8
1-8
62
4
370
-3
100
AcDbText
10
349.512
20
259.269
30
0.0
40
2.549
1
400
41
0.598
50
0.000
100
AcDbText
0
TEXT
5
81c
100
AcDbEntity
8
1-8
62
4
370
-3
100
AcDbText
10
376.818
20
259.269
30
0.0
40
2.549
1
32
41
0.487
50
0.000
100
AcDbText
0
TEXT
5
81d
100
AcDbEntity
8
1-8
62
4
370
-3
100
AcDbText
10
349.512
20
254.769
30
0.0
40
2.549
1
400
41
0.598
50
0.000
100
AcDbText
0
TEXT
5
81e
100
AcDbEntity
8
1-8
62
4
370
-3
100
AcDbText
10
349.512
20
250.269
30
0.0
40
2.549
1
400
41
0.598
50
0.000
100
AcDbText
0
TEXT
5
81f
100
AcDbEntity
8
1-8
62
4
370
-3
100
AcDbText
10
349.512
20
245.769
30
0.0
40
2.549
1
400
41
0.598
50
0.000
100
AcDbText
0
TEXT
5
820
100
AcDbEntity
8
1-8
62
4
370
-3
100
AcDbText
10
349.512
20
241.269
30
0.0
40
2.549
1
400
41
0.598
50
0.000
100
AcDbText
0
TEXT
5
821
100
AcDbEntity
8
1-8
62
4
370
-3
100
AcDbText
10
349.512
20
236.769
30
0.0
40
2.549
1
400
41
0.598
50
0.000
100
AcDbText
0
TEXT
5
822
100
AcDbEntity
8
1-8
62
4
370
-3
100
AcDbText
10
349.512
20
232.269
30
0.0
40
2.549
1
400
41
0.598
50
0.000
100
AcDbText
0
TEXT
5
823
100
AcDbEntity
8
1-8
62
4
370
-3
100
AcDbText
10
349.512
20
227.769
30
0.0
40
2.549
1
400
41
0.598
50
0.000
100
AcDbText
0
TEXT
5
824
100
AcDbEntity
8
1-8
62
4
370
-3
100
AcDbText
10
349.512
20
223.269
30
0.0
40
2.549
1
400
41
0.598
50
0.000
100
AcDbText
0
TEXT
5
825
100
AcDbEntity
8
1-8
62
4
370
-3
100
AcDbText
10
349.512
20
218.769
30
0.0
40
2.549
1
400
41
0.598
50
0.000
100
AcDbText
0
TEXT
5
826
100
AcDbEntity
8
1-8
62
4
370
-3
100
AcDbText
10
349.512
20
214.269
30
0.0
40
2.549
1
500
41
0.578
50
0.000
100
AcDbText
0
TEXT
5
827
100
AcDbEntity
8
1-8
62
4
370
-3
100
AcDbText
10
349.512
20
209.769
30
0.0
40
2.549
1
500
41
0.578
50
0.000
100
AcDbText
0
TEXT
5
828
100
AcDbEntity
8
1-8
62
4
370
-3
100
AcDbText
10
349.512
20
205.269
30
0.0
40
2.549
1
500
41
0.578
50
0.000
100
AcDbText
0
TEXT
5
829
100
AcDbEntity
8
1-8
62
4
370
-3
100
AcDbText
10
349.512
20
200.769
30
0.0
40
2.549
1
500
41
0.578
50
0.000
100
AcDbText
0
TEXT
5
82a
100
AcDbEntity
8
1-8
62
4
370
-3
100
AcDbText
10
349.512
20
196.269
30
0.0
40
2.549
1
500
41
0.578
50
0.000
100
AcDbText
0
TEXT
5
82b
100
AcDbEntity
8
1-8
62
4
370
-3
100
AcDbText
10
349.512
20
191.769
30
0.0
40
2.549
1
500
41
0.578
50
0.000
100
AcDbText
0
TEXT
5
82c
100
AcDbEntity
8
1-8
62
4
370
-3
100
AcDbText
10
376.818
20
205.269
30
0.0
40
2.549
1
40
41
0.584
50
0.000
100
AcDbText
0
TEXT
5
82d
100
AcDbEntity
8
1-8
62
4
370
-3
100
AcDbText
10
376.818
20
200.769
30
0.0
40
2.549
1
40
41
0.584
50
0.000
100
AcDbText
0
TEXT
5
82e
100
AcDbEntity
8
1-8
62
4
370
-3
100
AcDbText
10
376.818
20
196.269
30
0.0
40
2.549
1
40
41
0.584
50
0.000
100
AcDbText
0
TEXT
5
82f
100
AcDbEntity
8
1-8
62
4
370
-3
100
AcDbText
10
376.818
20
191.769
30
0.0
40
2.549
1
40
41
0.584
50
0.000
100
AcDbText
0
TEXT
5
830
100
AcDbEntity
8
1-8
62
4
370
-3
100
AcDbText
10
376.818
20
254.769
30
0.0
40
2.549
1
32
41
0.487
50
0.000
100
AcDbText
0
TEXT
5
831
100
AcDbEntity
8
1-8
62
4
370
-3
100
AcDbText
10
376.818
20
250.269
30
0.0
40
2.549
1
32
41
0.487
50
0.000
100
AcDbText
0
TEXT
5
832
100
AcDbEntity
8
1-8
62
4
370
-3
100
AcDbText
10
376.818
20
245.769
30
0.0
40
2.549
1
32
41
0.487
50
0.000
100
AcDbText
0
TEXT
5
833
100
AcDbEntity
8
1-8
62
4
370
-3
100
AcDbText
10
376.818
20
241.269
30
0.0
40
2.549
1
32
41
0.487
50
0.000
100
AcDbText
0
TEXT
5
834
100
AcDbEntity
8
1-8
62
4
370
-3
100
AcDbText
10
376.818
20
236.769
30
0.0
40
2.549
1
32
41
0.487
50
0.000
100
AcDbText
0
TEXT
5
835
100
AcDbEntity
8
1-8
62
4
370
-3
100
AcDbText
10
376.818
20
232.269
30
0.0
40
2.549
1
32
41
0.487
50
0.000
100
AcDbText
0
TEXT
5
836
100
AcDbEntity
8
1-8
62
4
370
-3
100
AcDbText
10
376.818
20
227.769
30
0.0
40
2.549
1
32
41
0.487
50
0.000
100
AcDbText
0
TEXT
5
837
100
AcDbEntity
8
1-8
62
4
370
-3
100
AcDbText
10
376.818
20
223.269
30
0.0
40
2.549
1
32
41
0.487
50
0.000
100
AcDbText
0
TEXT
5
838
100
AcDbEntity
8
1-8
62
4
370
-3
100
AcDbText
10
376.818
20
218.769
30
0.0
40
2.549
1
32
41
0.487
50
0.000
100
AcDbText
0
TEXT
5
839
100
AcDbEntity
8
1-8
62
4
370
-3
100
AcDbText
10
376.818
20
214.269
30
0.0
40
2.549
1
40
41
0.584
50
0.000
100
AcDbText
0
TEXT
5
83a
100
AcDbEntity
8
1-8
62
4
370
-3
100
AcDbText
10
376.818
20
209.769
30
0.0
40
2.549
1
40
41
0.584
50
0.000
100
AcDbText
0
TEXT
5
83b
100
AcDbEntity
8
1-E
62
7
370
-3
100
AcDbText
10
78.765
20
231.698
30
0.0
40
2.203
1
Ｈ
41
0.856
50
0.000
100
AcDbText
0
TEXT
5
83c
100
AcDbEntity
8
1-8
62
7
370
-3
100
AcDbText
10
367.082
20
132.762
30
0.0
40
2.719
1
材　　　質
41
0.856
50
0.000
100
AcDbText
0
TEXT
5
83d
100
AcDbEntity
8
1-8
62
4
370
-3
100
AcDbText
10
313.512
20
259.269
30
0.0
40
2.549
1
250
41
0.521
50
0.000
100
AcDbText
0
TEXT
5
83e
100
AcDbEntity
8
1-8
62
4
370
-3
100
AcDbText
10
313.512
20
254.769
30
0.0
40
2.549
1
350
41
0.543
50
0.000
100
AcDbText
0
TEXT
5
83f
100
AcDbEntity
8
1-8
62
4
370
-3
100
AcDbText
10
313.512
20
245.769
30
0.0
40
2.549
1
450
41
0.554
50
0.000
100
AcDbText
0
TEXT
5
840
100
AcDbEntity
8
1-8
62
4
370
-3
100
AcDbText
10
313.512
20
241.269
30
0.0
40
2.549
1
350
41
0.543
50
0.000
100
AcDbText
0
TEXT
5
841
100
AcDbEntity
8
1-8
62
4
370
-3
100
AcDbText
10
313.512
20
236.769
30
0.0
40
2.549
1
550
41
0.537
50
0.000
100
AcDbText
0
TEXT
5
842
100
AcDbEntity
8
1-8
62
4
370
-3
100
AcDbText
10
313.512
20
232.269
30
0.0
40
2.549
1
450
41
0.554
50
0.000
100
AcDbText
0
TEXT
5
843
100
AcDbEntity
8
1-8
62
4
370
-3
100
AcDbText
10
313.512
20
227.769
30
0.0
40
2.549
1
650
41
0.538
50
0.000
100
AcDbText
0
TEXT
5
844
100
AcDbEntity
8
1-8
62
4
370
-3
100
AcDbText
10
313.512
20
223.269
30
0.0
40
2.549
1
550
41
0.537
50
0.000
100
AcDbText
0
TEXT
5
845
100
AcDbEntity
8
1-8
62
4
370
-3
100
AcDbText
10
313.512
20
218.769
30
0.0
40
2.549
1
750
41
0.552
50
0.000
100
AcDbText
0
TEXT
5
846
100
AcDbEntity
8
1-8
62
4
370
-3
100
AcDbText
10
313.512
20
214.269
30
0.0
40
2.549
1
550
41
0.537
50
0.000
100
AcDbText
0
TEXT
5
847
100
AcDbEntity
8
1-8
62
4
370
-3
100
AcDbText
10
313.512
20
209.769
30
0.0
40
2.549
1
850
41
0.534
50
0.000
100
AcDbText
0
TEXT
5
848
100
AcDbEntity
8
1-8
62
4
370
-3
100
AcDbText
10
313.512
20
250.269
30
0.0
40
2.549
1
300
41
0.585
50
0.000
100
AcDbText
0
TEXT
5
849
100
AcDbEntity
8
1-8
62
4
370
-3
100
AcDbText
10
313.512
20
205.269
30
0.0
40
2.549
1
650
41
0.538
50
0.000
100
AcDbText
0
TEXT
5
84a
100
AcDbEntity
8
1-8
62
4
370
-3
100
AcDbText
10
313.512
20
200.769
30
0.0
40
2.549
1
950
41
0.554
50
0.000
100
AcDbText
0
TEXT
5
84b
100
AcDbEntity
8
1-8
62
4
370
-3
100
AcDbText
10
313.512
20
196.269
30
0.0
40
2.549
1
650
41
0.538
50
0.000
100
AcDbText
0
TEXT
5
84c
100
AcDbEntity
8
1-8
62
4
370
-3
100
AcDbText
10
312.558
20
191.769
30
0.0
40
2.549
1
1050
41
0.630
50
0.000
100
AcDbText
0
TEXT
5
84d
100
AcDbEntity
8
1-8
62
4
370
-3
100
AcDbText
10
384.592
20
259.269
30
0.0
40
2.549
1
MF30
41
0.541
50
0.000
100
AcDbText
0
TEXT
5
84e
100
AcDbEntity
8
1-8
62
4
370
-3
100
AcDbText
10
384.592
20
254.769
30
0.0
40
2.549
1
MF30
41
0.541
50
0.000
100
AcDbText
0
TEXT
5
84f
100
AcDbEntity
8
1-8
62
4
370
-3
100
AcDbText
10
384.592
20
250.269
30
0.0
40
2.549
1
MF30
41
0.541
50
0.000
100
AcDbText
0
TEXT
5
850
100
AcDbEntity
8
1-8
62
4
370
-3
100
AcDbText
10
384.592
20
245.769
30
0.0
40
2.549
1
MF30
41
0.541
50
0.000
100
AcDbText
0
TEXT
5
851
100
AcDbEntity
8
1-8
62
4
370
-3
100
AcDbText
10
384.592
20
241.269
30
0.0
40
2.549
1
MF30
41
0.541
50
0.000
100
AcDbText
0
TEXT
5
852
100
AcDbEntity
8
1-8
62
4
370
-3
100
AcDbText
10
384.592
20
236.769
30
0.0
40
2.549
1
MF30
41
0.541
50
0.000
100
AcDbText
0
TEXT
5
853
100
AcDbEntity
8
1-8
62
4
370
-3
100
AcDbText
10
384.592
20
232.269
30
0.0
40
2.549
1
MF30
41
0.541
50
0.000
100
AcDbText
0
TEXT
5
854
100
AcDbEntity
8
1-8
62
4
370
-3
100
AcDbText
10
384.592
20
227.769
30
0.0
40
2.549
1
MF30
41
0.541
50
0.000
100
AcDbText
0
TEXT
5
855
100
AcDbEntity
8
1-8
62
4
370
-3
100
AcDbText
10
384.592
20
223.269
30
0.0
40
2.549
1
MF30
41
0.541
50
0.000
100
AcDbText
0
TEXT
5
856
100
AcDbEntity
8
1-8
62
4
370
-3
100
AcDbText
10
384.592
20
218.769
30
0.0
40
2.549
1
MF30
41
0.541
50
0.000
100
AcDbText
0
TEXT
5
857
100
AcDbEntity
8
1-8
62
4
370
-3
100
AcDbText
10
384.592
20
214.269
30
0.0
40
2.549
1
MF40
41
0.549
50
0.000
100
AcDbText
0
TEXT
5
858
100
AcDbEntity
8
1-8
62
4
370
-3
100
AcDbText
10
384.592
20
209.769
30
0.0
40
2.549
1
MF40
41
0.549
50
0.000
100
AcDbText
0
TEXT
5
859
100
AcDbEntity
8
1-8
62
4
370
-3
100
AcDbText
10
384.592
20
205.269
30
0.0
40
2.549
1
MF40
41
0.549
50
0.000
100
AcDbText
0
TEXT
5
85a
100
AcDbEntity
8
1-8
62
4
370
-3
100
AcDbText
10
384.592
20
200.769
30
0.0
40
2.549
1
MF40
41
0.549
50
0.000
100
AcDbText
0
TEXT
5
85b
100
AcDbEntity
8
1-8
62
4
370
-3
100
AcDbText
10
384.592
20
196.269
30
0.0
40
2.549
1
MF40
41
0.549
50
0.000
100
AcDbText
0
TEXT
5
85c
100
AcDbEntity
8
1-8
62
4
370
-3
100
AcDbText
10
384.592
20
191.769
30
0.0
40
2.549
1
MF40
41
0.549
50
0.000
100
AcDbText
0
TEXT
5
85d
100
AcDbEntity
8
1-8
62
4
370
-3
100
AcDbText
10
393.294
20
259.249
30
0.0
40
2.230
1
PL-9T
41
0.521
50
0.000
100
AcDbText
0
TEXT
5
85e
100
AcDbEntity
8
1-8
62
4
370
-3
100
AcDbText
10
393.294
20
254.749
30
0.0
40
2.230
1
PL-9T
41
0.521
50
0.000
100
AcDbText
0
TEXT
5
85f
100
AcDbEntity
8
1-8
62
4
370
-3
100
AcDbText
10
393.294
20
250.249
30
0.0
40
2.230
1
PL-9T
41
0.521
50
0.000
100
AcDbText
0
TEXT
5
860
100
AcDbEntity
8
1-8
62
4
370
-3
100
AcDbText
10
393.294
20
245.749
30
0.0
40
2.230
1
PL-9T
41
0.521
50
0.000
100
AcDbText
0
TEXT
5
861
100
AcDbEntity
8
1-8
62
4
370
-3
100
AcDbText
10
393.294
20
241.249
30
0.0
40
2.230
1
PL-9T
41
0.521
50
0.000
100
AcDbText
0
TEXT
5
862
100
AcDbEntity
8
1-8
62
4
370
-3
100
AcDbText
10
393.294
20
236.749
30
0.0
40
2.230
1
PL-9T
41
0.521
50
0.000
100
AcDbText
0
TEXT
5
863
100
AcDbEntity
8
1-8
62
4
370
-3
100
AcDbText
10
392.632
20
232.249
30
0.0
40
2.230
1
PL-12T
41
0.540
50
0.000
100
AcDbText
0
TEXT
5
864
100
AcDbEntity
8
1-8
62
4
370
-3
100
AcDbText
10
392.632
20
227.749
30
0.0
40
2.230
1
PL-12T
41
0.540
50
0.000
100
AcDbText
0
TEXT
5
865
100
AcDbEntity
8
1-8
62
4
370
-3
100
AcDbText
10
392.632
20
223.249
30
0.0
40
2.230
1
PL-12T
41
0.540
50
0.000
100
AcDbText
0
TEXT
5
866
100
AcDbEntity
8
1-8
62
4
370
-3
100
AcDbText
10
392.632
20
218.749
30
0.0
40
2.230
1
PL-12T
41
0.540
50
0.000
100
AcDbText
0
TEXT
5
867
100
AcDbEntity
8
1-8
62
4
370
-3
100
AcDbText
10
392.632
20
214.249
30
0.0
40
2.230
1
PL-12T
41
0.540
50
0.000
100
AcDbText
0
TEXT
5
868
100
AcDbEntity
8
1-8
62
4
370
-3
100
AcDbText
10
392.632
20
209.749
30
0.0
40
2.230
1
PL-12T
41
0.540
50
0.000
100
AcDbText
0
TEXT
5
869
100
AcDbEntity
8
1-8
62
4
370
-3
100
AcDbText
10
392.632
20
205.249
30
0.0
40
2.230
1
PL-16T
41
0.550
50
0.000
100
AcDbText
0
TEXT
5
86a
100
AcDbEntity
8
1-8
62
4
370
-3
100
AcDbText
10
392.632
20
200.749
30
0.0
40
2.230
1
PL-16T
41
0.550
50
0.000
100
AcDbText
0
TEXT
5
86b
100
AcDbEntity
8
1-8
62
4
370
-3
100
AcDbText
10
392.632
20
196.249
30
0.0
40
2.230
1
PL-16T
41
0.550
50
0.000
100
AcDbText
0
TEXT
5
86c
100
AcDbEntity
8
1-8
62
4
370
-3
100
AcDbText
10
392.632
20
191.749
30
0.0
40
2.230
1
PL-16T
41
0.550
50
0.000
100
AcDbText
0
TEXT
5
86d
100
AcDbEntity
8
1-8
62
4
370
-3
100
AcDbText
10
358.349
20
259.269
30
0.0
40
2.549
1
8.5
41
0.639
50
0.000
100
AcDbText
0
TEXT
5
86e
100
AcDbEntity
8
1-8
62
4
370
-3
100
AcDbText
10
358.349
20
254.769
30
0.0
40
2.549
1
8.5
41
0.639
50
0.000
100
AcDbText
0
TEXT
5
86f
100
AcDbEntity
8
1-8
62
4
370
-3
100
AcDbText
10
358.349
20
250.269
30
0.0
40
2.549
1
3.6
41
0.654
50
0.000
100
AcDbText
0
TEXT
5
870
100
AcDbEntity
8
1-8
62
4
370
-3
100
AcDbText
10
358.349
20
245.769
30
0.0
40
2.549
1
3.6
41
0.654
50
0.000
100
AcDbText
0
TEXT
5
871
100
AcDbEntity
8
1-8
62
4
370
-3
100
AcDbText
10
358.349
20
241.269
30
0.0
40
2.549
1
1.8
41
0.777
50
0.000
100
AcDbText
0
TEXT
5
872
100
AcDbEntity
8
1-8
62
4
370
-3
100
AcDbText
10
358.349
20
236.769
30
0.0
40
2.549
1
1.8
41
0.777
50
0.000
100
AcDbText
0
TEXT
5
873
100
AcDbEntity
8
1-8
62
4
370
-3
100
AcDbText
10
358.349
20
232.269
30
0.0
40
2.549
1
2.8
41
0.616
50
0.000
100
AcDbText
0
TEXT
5
874
100
AcDbEntity
8
1-8
62
4
370
-3
100
AcDbText
10
358.349
20
227.769
30
0.0
40
2.549
1
2.8
41
0.616
50
0.000
100
AcDbText
0
TEXT
5
875
100
AcDbEntity
8
1-8
62
4
370
-3
100
AcDbText
10
358.349
20
223.269
30
0.0
40
2.549
1
1.8
41
0.777
50
0.000
100
AcDbText
0
TEXT
5
876
100
AcDbEntity
8
1-8
62
4
370
-3
100
AcDbText
10
358.349
20
218.769
30
0.0
40
2.549
1
1.8
41
0.777
50
0.000
100
AcDbText
0
TEXT
5
877
100
AcDbEntity
8
1-8
62
4
370
-3
100
AcDbText
10
358.349
20
214.269
30
0.0
40
2.549
1
1.2
41
0.749
50
0.000
100
AcDbText
0
TEXT
5
878
100
AcDbEntity
8
1-8
62
4
370
-3
100
AcDbText
10
358.349
20
209.769
30
0.0
40
2.549
1
1.2
41
0.749
50
0.000
100
AcDbText
0
TEXT
5
879
100
AcDbEntity
8
1-8
62
4
370
-3
100
AcDbText
10
358.349
20
205.269
30
0.0
40
2.549
1
2.1
41
0.749
50
0.000
100
AcDbText
0
TEXT
5
87a
100
AcDbEntity
8
1-8
62
4
370
-3
100
AcDbText
10
358.349
20
200.769
30
0.0
40
2.549
1
2.1
41
0.749
50
0.000
100
AcDbText
0
TEXT
5
87b
100
AcDbEntity
8
1-8
62
4
370
-3
100
AcDbText
10
358.349
20
196.269
30
0.0
40
2.549
1
1.6
41
0.787
50
0.000
100
AcDbText
0
TEXT
5
87c
100
AcDbEntity
8
1-8
62
4
370
-3
100
AcDbText
10
358.349
20
191.769
30
0.0
40
2.549
1
1.6
41
0.787
50
0.000
100
AcDbText
0
TEXT
5
87d
100
AcDbEntity
8
1-8
62
7
370
-3
100
AcDbText
10
275.989
20
265.823
30
0.0
40
3.059
1
Ｎｏ
41
0.856
50
0.000
100
AcDbText
0
TEXT
5
87e
100
AcDbEntity
8
1-8
62
7
370
-3
100
AcDbText
10
286.958
20
265.823
30
0.0
40
3.059
1
Ａ
41
0.856
50
0.000
100
AcDbText
0
TEXT
5
87f
100
AcDbEntity
8
1-8
62
7
370
-3
100
AcDbText
10
295.958
20
265.823
30
0.0
40
3.059
1
Ｂ
41
0.856
50
0.000
100
AcDbText
0
TEXT
5
880
100
AcDbEntity
8
1-8
62
7
370
-3
100
AcDbText
10
304.958
20
265.823
30
0.0
40
3.059
1
Ｃ
41
0.856
50
0.000
100
AcDbText
0
TEXT
5
881
100
AcDbEntity
8
1-8
62
7
370
-3
100
AcDbText
10
322.958
20
265.823
30
0.0
40
3.059
1
Ｅ
41
0.856
50
0.000
100
AcDbText
0
TEXT
5
882
100
AcDbEntity
8
1-8
62
7
370
-3
100
AcDbText
10
331.958
20
265.823
30
0.0
40
3.059
1
Ｆ
41
0.856
50
0.000
100
AcDbText
0
TEXT
5
883
100
AcDbEntity
8
1-8
62
7
370
-3
100
AcDbText
10
340.958
20
265.823
30
0.0
40
3.059
1
Ｇ
41
0.856
50
0.000
100
AcDbText
0
TEXT
5
884
100
AcDbEntity
8
1-8
62
7
370
-3
100
AcDbText
10
349.958
20
265.823
30
0.0
40
3.059
1
Ｈ
41
0.856
50
0.000
100
AcDbText
0
TEXT
5
885
100
AcDbEntity
8
1-8
62
7
370
-3
100
AcDbText
10
376.958
20
265.823
30
0.0
40
3.059
1
φ
41
0.856
50
0.000
100
AcDbText
0
TEXT
5
886
100
AcDbEntity
8
1-8
62
7
370
-3
100
AcDbText
10
313.958
20
265.823
30
0.0
40
3.059
1
Ｄ
41
0.856
50
0.000
100
AcDbText
0
TEXT
5
887
100
AcDbEntity
8
1-8
62
7
370
-3
100
AcDbText
10
383.571
20
266.207
30
0.0
40
2.230
1
巻上機
41
0.856
50
0.000
100
AcDbText
0
TEXT
5
888
100
AcDbEntity
8
1-8
62
7
370
-3
100
AcDbText
10
393.938
20
267.359
30
0.0
40
1.454
1
スキン
41
0.856
50
0.000
100
AcDbText
0
TEXT
5
889
100
AcDbEntity
8
1-8
62
7
370
-3
100
AcDbText
10
393.061
20
265.476
30
0.0
40
1.454
1
プレート
41
0.856
50
0.000
100
AcDbText
0
TEXT
5
88a
100
AcDbEntity
8
1-8
62
7
370
-3
100
AcDbText
10
363.328
20
268.073
30
0.0
40
3.059
1
Ｉ
41
0.856
50
0.000
100
AcDbText
0
TEXT
5
88b
100
AcDbEntity
8
1-8
62
7
370
-3
100
AcDbText
10
357.179
20
263.549
30
0.0
40
3.059
1
鋼製
41
0.856
50
0.000
100
AcDbText
0
TEXT
5
88c
100
AcDbEntity
8
1-8
62
7
370
-3
100
AcDbText
10
366.032
20
263.845
30
0.0
40
2.528
1
ｽﾃﾝﾚｽ
41
0.856
50
0.000
100
AcDbText
0
TEXT
5
88d
100
AcDbEntity
8
1-8
62
4
370
-3
100
AcDbText
10
366.724
20
259.269
30
0.0
40
2.549
1
11.5
41
0.801
50
0.000
100
AcDbText
0
TEXT
5
88e
100
AcDbEntity
8
1-8
62
4
370
-3
100
AcDbText
10
366.724
20
254.769
30
0.0
40
2.549
1
11.5
41
0.801
50
0.000
100
AcDbText
0
TEXT
5
88f
100
AcDbEntity
8
1-8
62
4
370
-3
100
AcDbText
10
367.512
20
250.269
30
0.0
40
2.549
1
4.9
41
0.693
50
0.000
100
AcDbText
0
TEXT
5
890
100
AcDbEntity
8
1-8
62
4
370
-3
100
AcDbText
10
367.512
20
245.769
30
0.0
40
2.549
1
4.9
41
0.693
50
0.000
100
AcDbText
0
TEXT
5
891
100
AcDbEntity
8
1-8
62
4
370
-3
100
AcDbText
10
367.512
20
241.269
30
0.0
40
2.549
1
2.5
41
0.620
50
0.000
100
AcDbText
0
TEXT
5
892
100
AcDbEntity
8
1-8
62
4
370
-3
100
AcDbText
10
367.512
20
236.769
30
0.0
40
2.549
1
2.5
41
0.620
50
0.000
100
AcDbText
0
TEXT
5
893
100
AcDbEntity
8
1-8
62
4
370
-3
100
AcDbText
10
367.512
20
232.269
30
0.0
40
2.549
1
3.4
41
0.676
50
0.000
100
AcDbText
0
TEXT
5
894
100
AcDbEntity
8
1-8
62
4
370
-3
100
AcDbText
10
367.512
20
227.769
30
0.0
40
2.549
1
3.4
41
0.676
50
0.000
100
AcDbText
0
TEXT
5
895
100
AcDbEntity
8
1-8
62
4
370
-3
100
AcDbText
10
367.512
20
223.269
30
0.0
40
2.549
1
2.2
41
0.599
50
0.000
100
AcDbText
0
TEXT
5
896
100
AcDbEntity
8
1-8
62
4
370
-3
100
AcDbText
10
367.512
20
218.769
30
0.0
40
2.549
1
2.2
41
0.599
50
0.000
100
AcDbText
0
TEXT
5
897
100
AcDbEntity
8
1-8
62
4
370
-3
100
AcDbText
10
367.512
20
214.269
30
0.0
40
2.549
1
1.5
41
0.783
50
0.000
100
AcDbText
0
TEXT
5
898
100
AcDbEntity
8
1-8
62
4
370
-3
100
AcDbText
10
367.512
20
209.769
30
0.0
40
2.549
1
1.5
41
0.783
50
0.000
100
AcDbText
0
TEXT
5
899
100
AcDbEntity
8
1-8
62
4
370
-3
100
AcDbText
10
367.512
20
205.269
30
0.0
40
2.549
1
2.4
41
0.643
50
0.000
100
AcDbText
0
TEXT
5
89a
100
AcDbEntity
8
1-8
62
4
370
-3
100
AcDbText
10
367.512
20
200.769
30
0.0
40
2.549
1
2.4
41
0.643
50
0.000
100
AcDbText
0
TEXT
5
89b
100
AcDbEntity
8
1-8
62
4
370
-3
100
AcDbText
10
367.512
20
196.269
30
0.0
40
2.549
1
1.8
41
0.777
50
0.000
100
AcDbText
0
TEXT
5
89c
100
AcDbEntity
8
1-8
62
4
370
-3
100
AcDbText
10
367.512
20
191.769
30
0.0
40
2.549
1
1.8
41
0.777
50
0.000
100
AcDbText
0
TEXT
5
89d
100
AcDbEntity
8
1-8
62
4
370
-3
100
AcDbText
10
329.585
20
178.434
30
0.0
40
2.266
1
・社内基準により設定しています。
41
0.856
50
0.000
100
AcDbText
0
TEXT
5
89e
100
AcDbEntity
8
1-8
62
7
370
-3
100
AcDbText
10
353.339
20
87.550
30
0.0
40
2.719
1
ＳＵＳ３０４
41
0.856
50
0.000
100
AcDbText
0
MTEXT
5
89f
100
AcDbEntity
8
1-E
62
7
370
-3
100
AcDbMText
10
253.842
20
67.963
30
0.0
40
2.055
41
0.000
71
5
72
1
1
\W0.972;ゴム押え　{\W0.700;PL-6t(SUS304)}
7
STANDARD
11
1.00000
21
0.00000
31
0.0
0
TEXT
5
8a0
100
AcDbEntity
8
1-8
62
7
370
-3
100
AcDbText
10
350.232
20
82.561
30
0.0
40
2.693
41
0.856
50
0.000
1
ＳＵＳ３０４相当
72
1
11
362.904
21
83.669
31
0.0
100
AcDbText
73
2
0
POLYLINE
5
8a1
100
AcDbEntity
8
1-8
6
CONTINUOUS
62
  3
100
AcDb2dPolyline
66
1
10
0.0
20
0.0
30
0.0
70
0
0
VERTEX
5
8a2
100
AcDbEntity
8
1-8
6
CONTINUOUS
62
  3
100
AcDbVertex
100
AcDb2dVertex
10
324.153900000000
20
136.242600000000
30
0.0
0
VERTEX
5
8a3
100
AcDbEntity
8
1-8
6
CONTINUOUS
62
  3
100
AcDbVertex
100
AcDb2dVertex
10
349.153900000000
20
136.242600000000
30
0.0
0
VERTEX
5
8a4
100
AcDbEntity
8
1-8
6
CONTINUOUS
62
  3
100
AcDbVertex
100
AcDb2dVertex
10
349.153900000000
20
126.242600000000
30
0.0
0
VERTEX
5
8a5
100
AcDbEntity
8
1-8
6
CONTINUOUS
62
  3
100
AcDbVertex
100
AcDb2dVertex
10
324.153900000000
20
126.242600000000
30
0.0
0
VERTEX
5
8a6
100
AcDbEntity
8
1-8
6
CONTINUOUS
62
  3
100
AcDbVertex
100
AcDb2dVertex
10
324.153900000000
20
136.242600000000
30
0.0
0
SEQEND
5
8a7
100
AcDbEntity
8
1-8
0
LINE
5
8a8
100
AcDbEntity
8
1-8
6
CONTINUOUS
62
3
100
AcDbLine
10
349.153900000000
20
131.242600000000
30
0.0
11
349.153900000000
21
136.242600000000
31
0.0
0
POLYLINE
5
8a9
100
AcDbEntity
8
1-8
6
CONTINUOUS
62
  3
100
AcDb2dPolyline
66
1
10
0.0
20
0.0
30
0.0
70
0
0
VERTEX
5
8aa
100
AcDbEntity
8
1-8
6
CONTINUOUS
62
  3
100
AcDbVertex
100
AcDb2dVertex
10
324.153900000000
20
126.242600000000
30
0.0
0
VERTEX
5
8ab
100
AcDbEntity
8
1-8
6
CONTINUOUS
62
  3
100
AcDbVertex
100
AcDb2dVertex
10
349.153900000000
20
126.242600000000
30
0.0
0
VERTEX
5
8ac
100
AcDbEntity
8
1-8
6
CONTINUOUS
62
  3
100
AcDbVertex
100
AcDb2dVertex
10
349.153900000000
20
121.242600000000
30
0.0
0
VERTEX
5
8ad
100
AcDbEntity
8
1-8
6
CONTINUOUS
62
  3
100
AcDbVertex
100
AcDb2dVertex
10
324.153900000000
20
121.242600000000
30
0.0
0
VERTEX
5
8ae
100
AcDbEntity
8
1-8
6
CONTINUOUS
62
  3
100
AcDbVertex
100
AcDb2dVertex
10
324.153900000000
20
126.242600000000
30
0.0
0
SEQEND
5
8af
100
AcDbEntity
8
1-8
0
LINE
5
8b0
100
AcDbEntity
8
1-8
6
CONTINUOUS
62
3
100
AcDbLine
10
349.153900000000
20
121.242600000000
30
0.0
11
349.153900000000
21
126.242600000000
31
0.0
0
POLYLINE
5
8b1
100
AcDbEntity
8
1-8
6
CONTINUOUS
62
  3
100
AcDb2dPolyline
66
1
10
0.0
20
0.0
30
0.0
70
0
0
VERTEX
5
8b2
100
AcDbEntity
8
1-8
6
CONTINUOUS
62
  3
100
AcDbVertex
100
AcDb2dVertex
10
324.153900000000
20
121.242600000000
30
0.0
0
VERTEX
5
8b3
100
AcDbEntity
8
1-8
6
CONTINUOUS
62
  3
100
AcDbVertex
100
AcDb2dVertex
10
349.153900000000
20
121.242600000000
30
0.0
0
VERTEX
5
8b4
100
AcDbEntity
8
1-8
6
CONTINUOUS
62
  3
100
AcDbVertex
100
AcDb2dVertex
10
349.153900000000
20
116.242600000000
30
0.0
0
VERTEX
5
8b5
100
AcDbEntity
8
1-8
6
CONTINUOUS
62
  3
100
AcDbVertex
100
AcDb2dVertex
10
324.153900000000
20
116.242600000000
30
0.0
0
VERTEX
5
8b6
100
AcDbEntity
8
1-8
6
CONTINUOUS
62
  3
100
AcDbVertex
100
AcDb2dVertex
10
324.153900000000
20
121.242600000000
30
0.0
0
SEQEND
5
8b7
100
AcDbEntity
8
1-8
0
LINE
5
8b8
100
AcDbEntity
8
1-8
6
CONTINUOUS
62
3
100
AcDbLine
10
349.153900000000
20
116.242600000000
30
0.0
11
349.153900000000
21
121.242600000000
31
0.0
0
POLYLINE
5
8b9
100
AcDbEntity
8
1-8
6
CONTINUOUS
62
  3
100
AcDb2dPolyline
66
1
10
0.0
20
0.0
30
0.0
70
0
0
VERTEX
5
8ba
100
AcDbEntity
8
1-8
6
CONTINUOUS
62
  3
100
AcDbVertex
100
AcDb2dVertex
10
324.153900000000
20
116.242600000000
30
0.0
0
VERTEX
5
8bb
100
AcDbEntity
8
1-8
6
CONTINUOUS
62
  3
100
AcDbVertex
100
AcDb2dVertex
10
349.153900000000
20
116.242600000000
30
0.0
0
VERTEX
5
8bc
100
AcDbEntity
8
1-8
6
CONTINUOUS
62
  3
100
AcDbVertex
100
AcDb2dVertex
10
349.153900000000
20
111.242600000000
30
0.0
0
VERTEX
5
8bd
100
AcDbEntity
8
1-8
6
CONTINUOUS
62
  3
100
AcDbVertex
100
AcDb2dVertex
10
324.153900000000
20
111.242600000000
30
0.0
0
VERTEX
5
8be
100
AcDbEntity
8
1-8
6
CONTINUOUS
62
  3
100
AcDbVertex
100
AcDb2dVertex
10
324.153900000000
20
116.242600000000
30
0.0
0
SEQEND
5
8bf
100
AcDbEntity
8
1-8
0
LINE
5
8c0
100
AcDbEntity
8
1-8
6
CONTINUOUS
62
3
100
AcDbLine
10
349.153900000000
20
111.242600000000
30
0.0
11
349.153900000000
21
116.242600000000
31
0.0
0
POLYLINE
5
8c1
100
AcDbEntity
8
1-8
6
CONTINUOUS
62
  3
100
AcDb2dPolyline
66
1
10
0.0
20
0.0
30
0.0
70
0
0
VERTEX
5
8c2
100
AcDbEntity
8
1-8
6
CONTINUOUS
62
  3
100
AcDbVertex
100
AcDb2dVertex
10
324.153900000000
20
91.242600000000
30
0.0
0
VERTEX
5
8c3
100
AcDbEntity
8
1-8
6
CONTINUOUS
62
  3
100
AcDbVertex
100
AcDb2dVertex
10
349.153900000000
20
91.242600000000
30
0.0
0
VERTEX
5
8c4
100
AcDbEntity
8
1-8
6
CONTINUOUS
62
  3
100
AcDbVertex
100
AcDb2dVertex
10
349.153900000000
20
86.242600000000
30
0.0
0
VERTEX
5
8c5
100
AcDbEntity
8
1-8
6
CONTINUOUS
62
  3
100
AcDbVertex
100
AcDb2dVertex
10
324.153900000000
20
86.242600000000
30
0.0
0
VERTEX
5
8c6
100
AcDbEntity
8
1-8
6
CONTINUOUS
62
  3
100
AcDbVertex
100
AcDb2dVertex
10
324.153900000000
20
91.242600000000
30
0.0
0
SEQEND
5
8c7
100
AcDbEntity
8
1-8
0
LINE
5
8c8
100
AcDbEntity
8
1-8
6
CONTINUOUS
62
3
100
AcDbLine
10
349.153900000000
20
86.242600000000
30
0.0
11
349.153900000000
21
91.242600000000
31
0.0
0
POLYLINE
5
8c9
100
AcDbEntity
8
1-8
6
CONTINUOUS
62
  3
100
AcDb2dPolyline
66
1
10
0.0
20
0.0
30
0.0
70
0
0
VERTEX
5
8ca
100
AcDbEntity
8
1-8
6
CONTINUOUS
62
  3
100
AcDbVertex
100
AcDb2dVertex
10
324.153900000000
20
86.242600000000
30
0.0
0
VERTEX
5
8cb
100
AcDbEntity
8
1-8
6
CONTINUOUS
62
  3
100
AcDbVertex
100
AcDb2dVertex
10
349.153900000000
20
86.242600000000
30
0.0
0
VERTEX
5
8cc
100
AcDbEntity
8
1-8
6
CONTINUOUS
62
  3
100
AcDbVertex
100
AcDb2dVertex
10
349.153900000000
20
81.242600000000
30
0.0
0
VERTEX
5
8cd
100
AcDbEntity
8
1-8
6
CONTINUOUS
62
  3
100
AcDbVertex
100
AcDb2dVertex
10
324.153900000000
20
81.242600000000
30
0.0
0
VERTEX
5
8ce
100
AcDbEntity
8
1-8
6
CONTINUOUS
62
  3
100
AcDbVertex
100
AcDb2dVertex
10
324.153900000000
20
86.242600000000
30
0.0
0
SEQEND
5
8cf
100
AcDbEntity
8
1-8
0
LINE
5
8d0
100
AcDbEntity
8
1-8
6
CONTINUOUS
62
3
100
AcDbLine
10
349.153900000000
20
81.242600000000
30
0.0
11
349.153900000000
21
86.242600000000
31
0.0
0
POLYLINE
5
8d1
100
AcDbEntity
8
1-8
6
CONTINUOUS
62
  3
100
AcDb2dPolyline
66
1
10
0.0
20
0.0
30
0.0
70
0
0
VERTEX
5
8d2
100
AcDbEntity
8
1-8
6
CONTINUOUS
62
  3
100
AcDbVertex
100
AcDb2dVertex
10
324.153900000000
20
81.242600000000
30
0.0
0
VERTEX
5
8d3
100
AcDbEntity
8
1-8
6
CONTINUOUS
62
  3
100
AcDbVertex
100
AcDb2dVertex
10
349.153900000000
20
81.242600000000
30
0.0
0
VERTEX
5
8d4
100
AcDbEntity
8
1-8
6
CONTINUOUS
62
  3
100
AcDbVertex
100
AcDb2dVertex
10
349.153900000000
20
76.242600000000
30
0.0
0
VERTEX
5
8d5
100
AcDbEntity
8
1-8
6
CONTINUOUS
62
  3
100
AcDbVertex
100
AcDb2dVertex
10
324.153900000000
20
76.242600000000
30
0.0
0
VERTEX
5
8d6
100
AcDbEntity
8
1-8
6
CONTINUOUS
62
  3
100
AcDbVertex
100
AcDb2dVertex
10
324.153900000000
20
81.242600000000
30
0.0
0
SEQEND
5
8d7
100
AcDbEntity
8
1-8
0
LINE
5
8d8
100
AcDbEntity
8
1-8
6
CONTINUOUS
62
3
100
AcDbLine
10
349.153900000000
20
76.242600000000
30
0.0
11
349.153900000000
21
81.242600000000
31
0.0
0
POLYLINE
5
8d9
100
AcDbEntity
8
1-8
6
CONTINUOUS
62
  3
100
AcDb2dPolyline
66
1
10
0.0
20
0.0
30
0.0
70
0
0
VERTEX
5
8da
100
AcDbEntity
8
1-8
6
CONTINUOUS
62
  3
100
AcDbVertex
100
AcDb2dVertex
10
324.153900000000
20
111.242600000000
30
0.0
0
VERTEX
5
8db
100
AcDbEntity
8
1-8
6
CONTINUOUS
62
  3
100
AcDbVertex
100
AcDb2dVertex
10
349.153900000000
20
111.242600000000
30
0.0
0
VERTEX
5
8dc
100
AcDbEntity
8
1-8
6
CONTINUOUS
62
  3
100
AcDbVertex
100
AcDb2dVertex
10
349.153900000000
20
106.242600000000
30
0.0
0
VERTEX
5
8dd
100
AcDbEntity
8
1-8
6
CONTINUOUS
62
  3
100
AcDbVertex
100
AcDb2dVertex
10
324.153900000000
20
106.242600000000
30
0.0
0
VERTEX
5
8de
100
AcDbEntity
8
1-8
6
CONTINUOUS
62
  3
100
AcDbVertex
100
AcDb2dVertex
10
324.153900000000
20
111.242600000000
30
0.0
0
SEQEND
5
8df
100
AcDbEntity
8
1-8
0
LINE
5
8e0
100
AcDbEntity
8
1-8
6
CONTINUOUS
62
3
100
AcDbLine
10
349.153900000000
20
106.242600000000
30
0.0
11
349.153900000000
21
111.242600000000
31
0.0
0
POLYLINE
5
8e1
100
AcDbEntity
8
1-8
6
CONTINUOUS
62
  3
100
AcDb2dPolyline
66
1
10
0.0
20
0.0
30
0.0
70
0
0
VERTEX
5
8e2
100
AcDbEntity
8
1-8
6
CONTINUOUS
62
  3
100
AcDbVertex
100
AcDb2dVertex
10
324.153900000000
20
101.242600000000
30
0.0
0
VERTEX
5
8e3
100
AcDbEntity
8
1-8
6
CONTINUOUS
62
  3
100
AcDbVertex
100
AcDb2dVertex
10
349.153900000000
20
101.242600000000
30
0.0
0
VERTEX
5
8e4
100
AcDbEntity
8
1-8
6
CONTINUOUS
62
  3
100
AcDbVertex
100
AcDb2dVertex
10
349.153900000000
20
96.242600000000
30
0.0
0
VERTEX
5
8e5
100
AcDbEntity
8
1-8
6
CONTINUOUS
62
  3
100
AcDbVertex
100
AcDb2dVertex
10
324.153900000000
20
96.242600000000
30
0.0
0
VERTEX
5
8e6
100
AcDbEntity
8
1-8
6
CONTINUOUS
62
  3
100
AcDbVertex
100
AcDb2dVertex
10
324.153900000000
20
101.242600000000
30
0.0
0
SEQEND
5
8e7
100
AcDbEntity
8
1-8
0
LINE
5
8e8
100
AcDbEntity
8
1-8
6
CONTINUOUS
62
3
100
AcDbLine
10
349.153900000000
20
96.242600000000
30
0.0
11
349.153900000000
21
101.242600000000
31
0.0
0
POLYLINE
5
8e9
100
AcDbEntity
8
1-8
6
CONTINUOUS
62
  3
100
AcDb2dPolyline
66
1
10
0.0
20
0.0
30
0.0
70
0
0
VERTEX
5
8ea
100
AcDbEntity
8
1-8
6
CONTINUOUS
62
  3
100
AcDbVertex
100
AcDb2dVertex
10
324.153900000000
20
106.242600000000
30
0.0
0
VERTEX
5
8eb
100
AcDbEntity
8
1-8
6
CONTINUOUS
62
  3
100
AcDbVertex
100
AcDb2dVertex
10
349.153900000000
20
106.242600000000
30
0.0
0
VERTEX
5
8ec
100
AcDbEntity
8
1-8
6
CONTINUOUS
62
  3
100
AcDbVertex
100
AcDb2dVertex
10
349.153900000000
20
101.242600000000
30
0.0
0
VERTEX
5
8ed
100
AcDbEntity
8
1-8
6
CONTINUOUS
62
  3
100
AcDbVertex
100
AcDb2dVertex
10
324.153900000000
20
101.242600000000
30
0.0
0
VERTEX
5
8ee
100
AcDbEntity
8
1-8
6
CONTINUOUS
62
  3
100
AcDbVertex
100
AcDb2dVertex
10
324.153900000000
20
106.242600000000
30
0.0
0
SEQEND
5
8ef
100
AcDbEntity
8
1-8
0
LINE
5
8f0
100
AcDbEntity
8
1-8
6
CONTINUOUS
62
3
100
AcDbLine
10
349.153900000000
20
101.242600000000
30
0.0
11
349.153900000000
21
106.242600000000
31
0.0
0
POLYLINE
5
8f1
100
AcDbEntity
8
1-8
6
CONTINUOUS
62
  3
100
AcDb2dPolyline
66
1
10
0.0
20
0.0
30
0.0
70
0
0
VERTEX
5
8f2
100
AcDbEntity
8
1-8
6
CONTINUOUS
62
  3
100
AcDbVertex
100
AcDb2dVertex
10
324.153900000000
20
96.242600000000
30
0.0
0
VERTEX
5
8f3
100
AcDbEntity
8
1-8
6
CONTINUOUS
62
  3
100
AcDbVertex
100
AcDb2dVertex
10
349.153900000000
20
96.242600000000
30
0.0
0
VERTEX
5
8f4
100
AcDbEntity
8
1-8
6
CONTINUOUS
62
  3
100
AcDbVertex
100
AcDb2dVertex
10
349.153900000000
20
91.242600000000
30
0.0
0
VERTEX
5
8f5
100
AcDbEntity
8
1-8
6
CONTINUOUS
62
  3
100
AcDbVertex
100
AcDb2dVertex
10
324.153900000000
20
91.242600000000
30
0.0
0
VERTEX
5
8f6
100
AcDbEntity
8
1-8
6
CONTINUOUS
62
  3
100
AcDbVertex
100
AcDb2dVertex
10
324.153900000000
20
96.242600000000
30
0.0
0
SEQEND
5
8f7
100
AcDbEntity
8
1-8
0
LINE
5
8f8
100
AcDbEntity
8
1-8
6
CONTINUOUS
62
3
100
AcDbLine
10
349.153900000000
20
91.242600000000
30
0.0
11
349.153900000000
21
96.242600000000
31
0.0
0
LINE
5
8f9
100
AcDbEntity
8
1-8
6
CONTINUOUS
62
3
100
AcDbLine
10
349.153900000000
20
126.242600000000
30
0.0
11
349.153900000000
21
131.242600000000
31
0.0
0
TEXT
5
8fa
100
AcDbEntity
8
1-8
62
7
370
-3
100
AcDbText
10
328.582
20
130.237
30
0.0
40
2.719
1
部　品　名
41
0.856
50
0.000
100
AcDbText
0
TEXT
5
8fb
100
AcDbEntity
8
1-8
62
7
370
-3
100
AcDbText
10
328.705
20
122.696
30
0.0
40
2.719
1
扉　　　体
41
0.856
50
0.000
100
AcDbText
0
TEXT
5
8fc
100
AcDbEntity
8
1-8
62
7
370
-3
100
AcDbText
10
326.025
20
117.687
30
0.0
40
2.585
1
水　密　ゴ　ム
41
0.856
50
0.000
100
AcDbText
0
TEXT
5
8fd
100
AcDbEntity
8
1-8
62
7
370
-3
100
AcDbText
10
328.705
20
112.696
30
0.0
40
2.719
1
戸　当　り
41
0.856
50
0.000
100
AcDbText
0
TEXT
5
8fe
100
AcDbEntity
8
1-8
62
7
370
-3
100
AcDbText
10
328.705
20
87.696
30
0.0
40
2.719
1
ク　サ　ビ
41
0.856
50
0.000
100
AcDbText
0
MTEXT
5
8ff
100
AcDbEntity
8
1-8
62
7
370
-3
100
AcDbMText
10
326.281
20
82.394
30
0.0
40
2.568
41
0.000
71
7
72
1
1
\W0.972;ボルト{\W0.700;･}ナット
7
STANDARD
11
1.00000
21
0.00000
31
0.0
0
TEXT
5
900
100
AcDbEntity
8
1-8
62
7
370
-3
100
AcDbText
10
325.582
20
77.694
30
0.0
40
2.693
1
オールアンカー
41
0.856
50
0.000
100
AcDbText
0
TEXT
5
901
100
AcDbEntity
8
1-8
62
7
370
-3
100
AcDbText
10
328.782
20
107.694
30
0.0
40
2.693
1
スピンドル
41
0.856
50
0.000
100
AcDbText
0
TEXT
5
902
100
AcDbEntity
8
1-8
62
7
370
-3
100
AcDbText
10
327.182
20
97.694
30
0.0
40
2.693
1
平巻式巻上機
41
0.856
50
0.000
100
AcDbText
0
TEXT
5
903
100
AcDbEntity
8
1-8
62
7
370
-3
100
AcDbText
10
326.516
20
102.660
30
0.0
40
2.154
1
スピンドルカバー
41
0.856
50
0.000
100
AcDbText
0
TEXT
5
904
100
AcDbEntity
8
1-8
62
7
370
-3
100
AcDbText
10
330.382
20
92.694
30
0.0
40
2.693
1
ハンドル
41
0.856
50
0.000
100
AcDbText
0
POLYLINE
5
905
100
AcDbEntity
8
1-8
6
CONTINUOUS
62
  3
100
AcDb2dPolyline
66
1
10
0.0
20
0.0
30
0.0
70
0
0
VERTEX
5
906
100
AcDbEntity
8
1-8
6
CONTINUOUS
62
  3
100
AcDbVertex
100
AcDb2dVertex
10
376.153900000000
20
126.242600000000
30
0.0
0
VERTEX
5
907
100
AcDbEntity
8
1-8
6
CONTINUOUS
62
  3
100
AcDbVertex
100
AcDb2dVertex
10
376.153900000000
20
121.242600000000
30
0.0
0
VERTEX
5
908
100
AcDbEntity
8
1-8
6
CONTINUOUS
62
  3
100
AcDbVertex
100
AcDb2dVertex
10
376.153900000000
20
116.242600000000
30
0.0
0
VERTEX
5
909
100
AcDbEntity
8
1-8
6
CONTINUOUS
62
  3
100
AcDbVertex
100
AcDb2dVertex
10
376.153900000000
20
111.242600000000
30
0.0
0
SEQEND
5
90a
100
AcDbEntity
8
1-8
0
POLYLINE
5
90b
100
AcDbEntity
8
1-8
6
CONTINUOUS
62
  3
100
AcDb2dPolyline
66
1
10
0.0
20
0.0
30
0.0
70
0
0
VERTEX
5
90c
100
AcDbEntity
8
1-8
6
CONTINUOUS
62
  3
100
AcDbVertex
100
AcDb2dVertex
10
376.153900000000
20
91.242600000000
30
0.0
0
VERTEX
5
90d
100
AcDbEntity
8
1-8
6
CONTINUOUS
62
  3
100
AcDbVertex
100
AcDb2dVertex
10
376.153900000000
20
86.242600000000
30
0.0
0
VERTEX
5
90e
100
AcDbEntity
8
1-8
6
CONTINUOUS
62
  3
100
AcDbVertex
100
AcDb2dVertex
10
376.153900000000
20
81.242600000000
30
0.0
0
VERTEX
5
90f
100
AcDbEntity
8
1-8
6
CONTINUOUS
62
  3
100
AcDbVertex
100
AcDb2dVertex
10
376.153900000000
20
76.242600000000
30
0.0
0
SEQEND
5
910
100
AcDbEntity
8
1-8
0
LINE
5
911
100
AcDbEntity
8
1-8
6
CONTINUOUS
62
3
100
AcDbLine
10
376.153900000000
20
111.242600000000
30
0.0
11
376.153900000000
21
106.242600000000
31
0.0
0
LINE
5
912
100
AcDbEntity
8
1-8
6
CONTINUOUS
62
3
100
AcDbLine
10
376.153900000000
20
101.242600000000
30
0.0
11
376.153900000000
21
96.242600000000
31
0.0
0
LINE
5
913
100
AcDbEntity
8
1-8
6
CONTINUOUS
62
3
100
AcDbLine
10
376.153900000000
20
106.242600000000
30
0.0
11
376.153900000000
21
101.242600000000
31
0.0
0
LINE
5
914
100
AcDbEntity
8
1-8
6
CONTINUOUS
62
3
100
AcDbLine
10
376.153900000000
20
96.242600000000
30
0.0
11
376.153900000000
21
91.242600000000
31
0.0
0
LINE
5
915
100
AcDbEntity
8
1-8
6
CONTINUOUS
62
3
100
AcDbLine
10
376.153900000000
20
126.242600000000
30
0.0
11
376.153900000000
21
131.242600000000
31
0.0
0
LINE
5
916
100
AcDbEntity
8
1-8
6
CONTINUOUS
62
3
100
AcDbLine
10
376.153900000000
20
121.242600000000
30
0.0
11
376.153900000000
21
126.242600000000
31
0.0
0
LINE
5
917
100
AcDbEntity
8
1-8
6
CONTINUOUS
62
3
100
AcDbLine
10
376.153900000000
20
116.242600000000
30
0.0
11
376.153900000000
21
121.242600000000
31
0.0
0
LINE
5
918
100
AcDbEntity
8
1-8
6
CONTINUOUS
62
3
100
AcDbLine
10
376.153900000000
20
111.242600000000
30
0.0
11
376.153900000000
21
116.242600000000
31
0.0
0
LINE
5
919
100
AcDbEntity
8
1-8
6
CONTINUOUS
62
3
100
AcDbLine
10
376.153900000000
20
86.242600000000
30
0.0
11
376.153900000000
21
91.242600000000
31
0.0
0
LINE
5
91a
100
AcDbEntity
8
1-8
6
CONTINUOUS
62
3
100
AcDbLine
10
376.153900000000
20
81.242600000000
30
0.0
11
376.153900000000
21
86.242600000000
31
0.0
0
LINE
5
91b
100
AcDbEntity
8
1-8
6
CONTINUOUS
62
3
100
AcDbLine
10
376.153900000000
20
76.242600000000
30
0.0
11
376.153900000000
21
81.242600000000
31
0.0
0
LINE
5
91c
100
AcDbEntity
8
1-8
6
CONTINUOUS
62
3
100
AcDbLine
10
376.153900000000
20
106.242600000000
30
0.0
11
376.153900000000
21
111.242600000000
31
0.0
0
POLYLINE
5
91d
100
AcDbEntity
8
1-8
6
CONTINUOUS
62
  3
100
AcDb2dPolyline
66
1
10
0.0
20
0.0
30
0.0
70
0
0
VERTEX
5
91e
100
AcDbEntity
8
1-8
6
CONTINUOUS
62
  3
100
AcDbVertex
100
AcDb2dVertex
10
376.153900000000
20
96.242600000000
30
0.0
0
VERTEX
5
91f
100
AcDbEntity
8
1-8
6
CONTINUOUS
62
  3
100
AcDbVertex
100
AcDb2dVertex
10
376.153900000000
20
101.242600000000
30
0.0
0
VERTEX
5
920
100
AcDbEntity
8
1-8
6
CONTINUOUS
62
  3
100
AcDbVertex
100
AcDb2dVertex
10
376.153900000000
20
106.242600000000
30
0.0
0
SEQEND
5
921
100
AcDbEntity
8
1-8
0
LINE
5
922
100
AcDbEntity
8
1-8
6
CONTINUOUS
62
3
100
AcDbLine
10
376.153900000000
20
91.242600000000
30
0.0
11
376.153900000000
21
96.242600000000
31
0.0
0
LINE
5
923
100
AcDbEntity
8
1-8
6
CONTINUOUS
62
3
100
AcDbLine
10
376.153900000000
20
131.242600000000
30
0.0
11
376.153900000000
21
126.242600000000
31
0.0
0
LINE
5
924
100
AcDbEntity
8
1-8
6
CONTINUOUS
62
3
100
AcDbLine
10
349.153900000000
20
126.242600000000
30
0.0
11
376.153900000000
21
126.242600000000
31
0.0
0
POLYLINE
5
925
100
AcDbEntity
8
1-8
6
CONTINUOUS
62
  3
100
AcDb2dPolyline
66
1
10
0.0
20
0.0
30
0.0
70
0
0
VERTEX
5
926
100
AcDbEntity
8
1-8
6
CONTINUOUS
62
  3
100
AcDbVertex
100
AcDb2dVertex
10
376.153900000000
20
121.242600000000
30
0.0
0
VERTEX
5
927
100
AcDbEntity
8
1-8
6
CONTINUOUS
62
  3
100
AcDbVertex
100
AcDb2dVertex
10
349.153900000000
20
121.242600000000
30
0.0
0
VERTEX
5
928
100
AcDbEntity
8
1-8
6
CONTINUOUS
62
  3
100
AcDbVertex
100
AcDb2dVertex
10
376.153900000000
20
121.242600000000
30
0.0
0
SEQEND
5
929
100
AcDbEntity
8
1-8
0
POLYLINE
5
92a
100
AcDbEntity
8
1-8
6
CONTINUOUS
62
  3
100
AcDb2dPolyline
66
1
10
0.0
20
0.0
30
0.0
70
0
0
VERTEX
5
92b
100
AcDbEntity
8
1-8
6
CONTINUOUS
62
  3
100
AcDbVertex
100
AcDb2dVertex
10
376.153900000000
20
116.242600000000
30
0.0
0
VERTEX
5
92c
100
AcDbEntity
8
1-8
6
CONTINUOUS
62
  3
100
AcDbVertex
100
AcDb2dVertex
10
349.153900000000
20
116.242600000000
30
0.0
0
VERTEX
5
92d
100
AcDbEntity
8
1-8
6
CONTINUOUS
62
  3
100
AcDbVertex
100
AcDb2dVertex
10
376.153900000000
20
116.242600000000
30
0.0
0
SEQEND
5
92e
100
AcDbEntity
8
1-8
0
LINE
5
92f
100
AcDbEntity
8
1-8
6
CONTINUOUS
62
3
100
AcDbLine
10
376.153900000000
20
111.242600000000
30
0.0
11
349.153900000000
21
111.242600000000
31
0.0
0
LINE
5
930
100
AcDbEntity
8
1-8
6
CONTINUOUS
62
3
100
AcDbLine
10
349.153900000000
20
91.242600000000
30
0.0
11
376.153900000000
21
91.242600000000
31
0.0
0
POLYLINE
5
931
100
AcDbEntity
8
1-8
6
CONTINUOUS
62
  3
100
AcDb2dPolyline
66
1
10
0.0
20
0.0
30
0.0
70
0
0
VERTEX
5
932
100
AcDbEntity
8
1-8
6
CONTINUOUS
62
  3
100
AcDbVertex
100
AcDb2dVertex
10
376.153900000000
20
86.242600000000
30
0.0
0
VERTEX
5
933
100
AcDbEntity
8
1-8
6
CONTINUOUS
62
  3
100
AcDbVertex
100
AcDb2dVertex
10
349.153900000000
20
86.242600000000
30
0.0
0
VERTEX
5
934
100
AcDbEntity
8
1-8
6
CONTINUOUS
62
  3
100
AcDbVertex
100
AcDb2dVertex
10
376.153900000000
20
86.242600000000
30
0.0
0
SEQEND
5
935
100
AcDbEntity
8
1-8
0
POLYLINE
5
936
100
AcDbEntity
8
1-8
6
CONTINUOUS
62
  3
100
AcDb2dPolyline
66
1
10
0.0
20
0.0
30
0.0
70
0
0
VERTEX
5
937
100
AcDbEntity
8
1-8
6
CONTINUOUS
62
  3
100
AcDbVertex
100
AcDb2dVertex
10
376.153900000000
20
81.242600000000
30
0.0
0
VERTEX
5
938
100
AcDbEntity
8
1-8
6
CONTINUOUS
62
  3
100
AcDbVertex
100
AcDb2dVertex
10
349.153900000000
20
81.242600000000
30
0.0
0
VERTEX
5
939
100
AcDbEntity
8
1-8
6
CONTINUOUS
62
  3
100
AcDbVertex
100
AcDb2dVertex
10
376.153900000000
20
81.242600000000
30
0.0
0
SEQEND
5
93a
100
AcDbEntity
8
1-8
0
LINE
5
93b
100
AcDbEntity
8
1-8
6
CONTINUOUS
62
3
100
AcDbLine
10
376.153900000000
20
76.242600000000
30
0.0
11
349.153900000000
21
76.242600000000
31
0.0
0
LINE
5
93c
100
AcDbEntity
8
1-8
6
CONTINUOUS
62
3
100
AcDbLine
10
349.153900000000
20
111.242600000000
30
0.0
11
376.153900000000
21
111.242600000000
31
0.0
0
LINE
5
93d
100
AcDbEntity
8
1-8
6
CONTINUOUS
62
3
100
AcDbLine
10
376.153900000000
20
106.242600000000
30
0.0
11
349.153900000000
21
106.242600000000
31
0.0
0
LINE
5
93e
100
AcDbEntity
8
1-8
6
CONTINUOUS
62
3
100
AcDbLine
10
349.153900000000
20
101.242600000000
30
0.0
11
376.153900000000
21
101.242600000000
31
0.0
0
LINE
5
93f
100
AcDbEntity
8
1-8
6
CONTINUOUS
62
3
100
AcDbLine
10
376.153900000000
20
96.242600000000
30
0.0
11
349.153900000000
21
96.242600000000
31
0.0
0
LINE
5
940
100
AcDbEntity
8
1-8
6
CONTINUOUS
62
3
100
AcDbLine
10
349.153900000000
20
106.242600000000
30
0.0
11
376.153900000000
21
106.242600000000
31
0.0
0
LINE
5
941
100
AcDbEntity
8
1-8
6
CONTINUOUS
62
3
100
AcDbLine
10
376.153900000000
20
101.242600000000
30
0.0
11
349.153900000000
21
101.242600000000
31
0.0
0
LINE
5
942
100
AcDbEntity
8
1-8
6
CONTINUOUS
62
3
100
AcDbLine
10
349.153900000000
20
96.242600000000
30
0.0
11
376.153900000000
21
96.242600000000
31
0.0
0
LINE
5
943
100
AcDbEntity
8
1-8
6
CONTINUOUS
62
3
100
AcDbLine
10
376.153900000000
20
91.242600000000
30
0.0
11
349.153900000000
21
91.242600000000
31
0.0
0
LINE
5
944
100
AcDbEntity
8
1-8
6
CONTINUOUS
62
3
100
AcDbLine
10
349.153900000000
20
131.242600000000
30
0.0
11
376.153900000000
21
131.242600000000
31
0.0
0
LINE
5
945
100
AcDbEntity
8
1-8
6
CONTINUOUS
62
3
100
AcDbLine
10
376.153900000000
20
126.242600000000
30
0.0
11
349.153900000000
21
126.242600000000
31
0.0
0
LINE
5
946
100
AcDbEntity
8
1-8
6
CONTINUOUS
62
3
100
AcDbLine
10
402.153800000000
20
136.242600000000
30
0.0
11
402.153800000000
21
131.242600000000
31
0.0
0
POLYLINE
5
947
100
AcDbEntity
8
1-8
6
CONTINUOUS
62
  3
100
AcDb2dPolyline
66
1
10
0.0
20
0.0
30
0.0
70
0
0
VERTEX
5
948
100
AcDbEntity
8
1-8
6
CONTINUOUS
62
  3
100
AcDbVertex
100
AcDb2dVertex
10
376.153900000000
20
131.242600000000
30
0.0
0
VERTEX
5
949
100
AcDbEntity
8
1-8
6
CONTINUOUS
62
  3
100
AcDbVertex
100
AcDb2dVertex
10
402.153800000000
20
131.242600000000
30
0.0
0
VERTEX
5
94a
100
AcDbEntity
8
1-8
6
CONTINUOUS
62
  3
100
AcDbVertex
100
AcDb2dVertex
10
402.153800000000
20
126.242600000000
30
0.0
0
VERTEX
5
94b
100
AcDbEntity
8
1-8
6
CONTINUOUS
62
  3
100
AcDbVertex
100
AcDb2dVertex
10
376.153900000000
20
126.242600000000
30
0.0
0
VERTEX
5
94c
100
AcDbEntity
8
1-8
6
CONTINUOUS
62
  3
100
AcDbVertex
100
AcDb2dVertex
10
402.153800000000
20
126.242600000000
30
0.0
0
VERTEX
5
94d
100
AcDbEntity
8
1-8
6
CONTINUOUS
62
  3
100
AcDbVertex
100
AcDb2dVertex
10
402.153800000000
20
121.242600000000
30
0.0
0
VERTEX
5
94e
100
AcDbEntity
8
1-8
6
CONTINUOUS
62
  3
100
AcDbVertex
100
AcDb2dVertex
10
376.153900000000
20
121.242600000000
30
0.0
0
VERTEX
5
94f
100
AcDbEntity
8
1-8
6
CONTINUOUS
62
  3
100
AcDbVertex
100
AcDb2dVertex
10
402.153800000000
20
121.242600000000
30
0.0
0
VERTEX
5
950
100
AcDbEntity
8
1-8
6
CONTINUOUS
62
  3
100
AcDbVertex
100
AcDb2dVertex
10
402.153800000000
20
116.242600000000
30
0.0
0
VERTEX
5
951
100
AcDbEntity
8
1-8
6
CONTINUOUS
62
  3
100
AcDbVertex
100
AcDb2dVertex
10
376.153900000000
20
116.242600000000
30
0.0
0
VERTEX
5
952
100
AcDbEntity
8
1-8
6
CONTINUOUS
62
  3
100
AcDbVertex
100
AcDb2dVertex
10
402.153800000000
20
116.242600000000
30
0.0
0
VERTEX
5
953
100
AcDbEntity
8
1-8
6
CONTINUOUS
62
  3
100
AcDbVertex
100
AcDb2dVertex
10
402.153800000000
20
111.242600000000
30
0.0
0
VERTEX
5
954
100
AcDbEntity
8
1-8
6
CONTINUOUS
62
  3
100
AcDbVertex
100
AcDb2dVertex
10
376.153900000000
20
111.242600000000
30
0.0
0
SEQEND
5
955
100
AcDbEntity
8
1-8
0
POLYLINE
5
956
100
AcDbEntity
8
1-8
6
CONTINUOUS
62
  3
100
AcDb2dPolyline
66
1
10
0.0
20
0.0
30
0.0
70
0
0
VERTEX
5
957
100
AcDbEntity
8
1-8
6
CONTINUOUS
62
  3
100
AcDbVertex
100
AcDb2dVertex
10
376.153900000000
20
91.242600000000
30
0.0
0
VERTEX
5
958
100
AcDbEntity
8
1-8
6
CONTINUOUS
62
  3
100
AcDbVertex
100
AcDb2dVertex
10
402.153800000000
20
91.242600000000
30
0.0
0
VERTEX
5
959
100
AcDbEntity
8
1-8
6
CONTINUOUS
62
  3
100
AcDbVertex
100
AcDb2dVertex
10
402.153800000000
20
86.242600000000
30
0.0
0
VERTEX
5
95a
100
AcDbEntity
8
1-8
6
CONTINUOUS
62
  3
100
AcDbVertex
100
AcDb2dVertex
10
376.153900000000
20
86.242600000000
30
0.0
0
VERTEX
5
95b
100
AcDbEntity
8
1-8
6
CONTINUOUS
62
  3
100
AcDbVertex
100
AcDb2dVertex
10
402.153800000000
20
86.242600000000
30
0.0
0
VERTEX
5
95c
100
AcDbEntity
8
1-8
6
CONTINUOUS
62
  3
100
AcDbVertex
100
AcDb2dVertex
10
402.153800000000
20
81.242600000000
30
0.0
0
VERTEX
5
95d
100
AcDbEntity
8
1-8
6
CONTINUOUS
62
  3
100
AcDbVertex
100
AcDb2dVertex
10
376.153900000000
20
81.242600000000
30
0.0
0
VERTEX
5
95e
100
AcDbEntity
8
1-8
6
CONTINUOUS
62
  3
100
AcDbVertex
100
AcDb2dVertex
10
402.153800000000
20
81.242600000000
30
0.0
0
VERTEX
5
95f
100
AcDbEntity
8
1-8
6
CONTINUOUS
62
  3
100
AcDbVertex
100
AcDb2dVertex
10
402.153800000000
20
76.242600000000
30
0.0
0
VERTEX
5
960
100
AcDbEntity
8
1-8
6
CONTINUOUS
62
  3
100
AcDbVertex
100
AcDb2dVertex
10
376.153900000000
20
76.242600000000
30
0.0
0
SEQEND
5
961
100
AcDbEntity
8
1-8
0
POLYLINE
5
962
100
AcDbEntity
8
1-8
6
CONTINUOUS
62
  3
100
AcDb2dPolyline
66
1
10
0.0
20
0.0
30
0.0
70
0
0
VERTEX
5
963
100
AcDbEntity
8
1-8
6
CONTINUOUS
62
  3
100
AcDbVertex
100
AcDb2dVertex
10
376.153900000000
20
111.242600000000
30
0.0
0
VERTEX
5
964
100
AcDbEntity
8
1-8
6
CONTINUOUS
62
  3
100
AcDbVertex
100
AcDb2dVertex
10
402.153800000000
20
111.242600000000
30
0.0
0
VERTEX
5
965
100
AcDbEntity
8
1-8
6
CONTINUOUS
62
  3
100
AcDbVertex
100
AcDb2dVertex
10
402.153800000000
20
106.242600000000
30
0.0
0
VERTEX
5
966
100
AcDbEntity
8
1-8
6
CONTINUOUS
62
  3
100
AcDbVertex
100
AcDb2dVertex
10
376.153900000000
20
106.242600000000
30
0.0
0
SEQEND
5
967
100
AcDbEntity
8
1-8
0
POLYLINE
5
968
100
AcDbEntity
8
1-8
6
CONTINUOUS
62
  3
100
AcDb2dPolyline
66
1
10
0.0
20
0.0
30
0.0
70
0
0
VERTEX
5
969
100
AcDbEntity
8
1-8
6
CONTINUOUS
62
  3
100
AcDbVertex
100
AcDb2dVertex
10
376.153900000000
20
101.242600000000
30
0.0
0
VERTEX
5
96a
100
AcDbEntity
8
1-8
6
CONTINUOUS
62
  3
100
AcDbVertex
100
AcDb2dVertex
10
402.153800000000
20
101.242600000000
30
0.0
0
VERTEX
5
96b
100
AcDbEntity
8
1-8
6
CONTINUOUS
62
  3
100
AcDbVertex
100
AcDb2dVertex
10
402.153800000000
20
96.242600000000
30
0.0
0
VERTEX
5
96c
100
AcDbEntity
8
1-8
6
CONTINUOUS
62
  3
100
AcDbVertex
100
AcDb2dVertex
10
376.153900000000
20
96.242600000000
30
0.0
0
SEQEND
5
96d
100
AcDbEntity
8
1-8
0
POLYLINE
5
96e
100
AcDbEntity
8
1-8
6
CONTINUOUS
62
  3
100
AcDb2dPolyline
66
1
10
0.0
20
0.0
30
0.0
70
0
0
VERTEX
5
96f
100
AcDbEntity
8
1-8
6
CONTINUOUS
62
  3
100
AcDbVertex
100
AcDb2dVertex
10
376.153900000000
20
106.242600000000
30
0.0
0
VERTEX
5
970
100
AcDbEntity
8
1-8
6
CONTINUOUS
62
  3
100
AcDbVertex
100
AcDb2dVertex
10
402.153800000000
20
106.242600000000
30
0.0
0
VERTEX
5
971
100
AcDbEntity
8
1-8
6
CONTINUOUS
62
  3
100
AcDbVertex
100
AcDb2dVertex
10
402.153800000000
20
101.242600000000
30
0.0
0
VERTEX
5
972
100
AcDbEntity
8
1-8
6
CONTINUOUS
62
  3
100
AcDbVertex
100
AcDb2dVertex
10
376.153900000000
20
101.242600000000
30
0.0
0
SEQEND
5
973
100
AcDbEntity
8
1-8
0
POLYLINE
5
974
100
AcDbEntity
8
1-8
6
CONTINUOUS
62
  3
100
AcDb2dPolyline
66
1
10
0.0
20
0.0
30
0.0
70
0
0
VERTEX
5
975
100
AcDbEntity
8
1-8
6
CONTINUOUS
62
  3
100
AcDbVertex
100
AcDb2dVertex
10
376.153900000000
20
96.242600000000
30
0.0
0
VERTEX
5
976
100
AcDbEntity
8
1-8
6
CONTINUOUS
62
  3
100
AcDbVertex
100
AcDb2dVertex
10
402.153800000000
20
96.242600000000
30
0.0
0
VERTEX
5
977
100
AcDbEntity
8
1-8
6
CONTINUOUS
62
  3
100
AcDbVertex
100
AcDb2dVertex
10
402.153800000000
20
91.242600000000
30
0.0
0
VERTEX
5
978
100
AcDbEntity
8
1-8
6
CONTINUOUS
62
  3
100
AcDbVertex
100
AcDb2dVertex
10
376.153900000000
20
91.242600000000
30
0.0
0
SEQEND
5
979
100
AcDbEntity
8
1-8
0
LINE
5
97a
100
AcDbEntity
8
1-8
6
CONTINUOUS
62
3
100
AcDbLine
10
349.153900000000
20
136.242600000000
30
0.0
11
402.153800000000
21
136.242600000000
31
0.0
0
LINE
5
97b
100
AcDbEntity
8
1-8
6
CONTINUOUS
62
3
100
AcDbLine
10
402.153800000000
20
131.242600000000
30
0.0
11
349.153900000000
21
131.242600000000
31
0.0
0
TEXT
5
97c
100
AcDbEntity
8
1-8
62
7
370
-3
100
AcDbText
10
379.839
20
87.550
30
0.0
40
2.719
1
ＳＵＳ３０４
41
0.856
50
0.000
100
AcDbText
0
TEXT
5
97d
100
AcDbEntity
8
1-8
62
7
370
-3
100
AcDbText
10
379.839
20
122.550
30
0.0
40
2.719
1
ＳＵＳ３０４
41
0.856
50
0.000
100
AcDbText
0
TEXT
5
97e
100
AcDbEntity
8
1-8
62
7
370
-3
100
AcDbText
10
379.839
20
112.550
30
0.0
40
2.719
1
ＳＵＳ３０４
41
0.856
50
0.000
100
AcDbText
0
TEXT
5
97f
100
AcDbEntity
8
1-8
62
7
370
-3
100
AcDbText
10
381.455
20
92.550
30
0.0
40
2.719
1
ＦＣ２００
41
0.856
50
0.000
100
AcDbText
0
TEXT
5
980
100
AcDbEntity
8
1-8
62
7
370
-3
100
AcDbText
10
384.686
20
102.550
30
0.0
40
2.719
1
ＳＧＰ
41
0.856
50
0.000
100
AcDbText
0
TEXT
5
981
100
AcDbEntity
8
1-8
62
7
370
-3
100
AcDbText
10
381.455
20
97.550
30
0.0
40
2.719
1
ＦＣ２００
41
0.856
50
0.000
100
AcDbText
0
TEXT
5
982
100
AcDbEntity
8
1-8
62
7
370
-3
100
AcDbText
10
379.839
20
107.550
30
0.0
40
2.719
1
ＳＵＳ３０４
41
0.856
50
0.000
100
AcDbText
0
TEXT
5
983
100
AcDbEntity
8
1-8
62
7
370
-3
100
AcDbText
10
386.302
20
117.550
30
0.0
40
2.719
1
ＣＲ
41
0.856
50
0.000
100
AcDbText
0
TEXT
5
984
100
AcDbEntity
8
1-8
62
7
370
-3
100
AcDbText
10
381.082
20
127.852
30
0.0
40
2.719
1
ステンレス
41
0.856
50
0.000
100
AcDbText
0
TEXT
5
985
100
AcDbEntity
8
1-8
62
7
370
-3
100
AcDbText
10
376.608
20
82.550
30
0.0
40
2.719
41
0.856
50
0.000
1
ＳＵＳ３０４相当
72
1
11
389.404
21
83.669
31
0.0
100
AcDbText
73
2
0
TEXT
5
986
100
AcDbEntity
8
1-8
62
7
370
-3
100
AcDbText
10
350.108
20
77.550
30
0.0
40
2.719
41
0.856
50
0.000
1
ＳＵＳ３０４相当
72
1
11
362.904
21
78.669
31
0.0
100
AcDbText
73
2
0
TEXT
5
987
100
AcDbEntity
8
1-8
62
7
370
-3
100
AcDbText
10
376.608
20
77.550
30
0.0
40
2.719
41
0.856
50
0.000
1
ＳＵＳ３０４相当
72
1
11
389.404
21
78.669
31
0.0
100
AcDbText
73
2
0
LINE
5
988
100
AcDbEntity
8
F-E_J_ADD
6
HIDDEN
62
3
100
AcDbLine
10
292.750050000000
20
53.000000000000
30
0.0
11
292.750050000000
21
22.999900000000
31
0.0
0
LINE
5
989
100
AcDbEntity
8
F-E_J_ADD
6
HIDDEN
62
3
100
AcDbLine
10
290.000100000000
20
47.000000000000
30
0.0
11
341.500000000000
21
47.000000000000
31
0.0
0
LINE
5
98a
100
AcDbEntity
8
F-E_J_ADD
6
HIDDEN
62
3
100
AcDbLine
10
290.000100000000
20
36.500000000000
30
0.0
11
341.500000000000
21
36.500000000000
31
0.0
0
LINE
5
98b
100
AcDbEntity
8
F-E_J_ADD
6
HIDDEN
62
3
100
AcDbLine
10
341.500000000000
20
27.499950000000
30
0.0
11
290.000100000000
21
27.499950000000
31
0.0
0
LINE
5
98c
100
AcDbEntity
8
F-E_J_ADD
6
HIDDEN
62
3
100
AcDbLine
10
305.500050000000
20
41.000000000000
30
0.0
11
305.500050000000
21
22.999900000000
31
0.0
0
LINE
5
98d
100
AcDbEntity
8
F-E_J_ADD
6
HIDDEN
62
3
100
AcDbLine
10
318.250100000000
20
41.000000000000
30
0.0
11
318.250100000000
21
22.999900000000
31
0.0
0
LINE
5
98e
100
AcDbEntity
8
F-E_J_ADD
6
HIDDEN
62
3
100
AcDbLine
10
331.250050000000
20
41.000000000000
30
0.0
11
331.250050000000
21
22.999900000000
31
0.0
0
LINE
5
98f
100
AcDbEntity
8
F-E_J_ADD
6
HIDDEN
62
3
100
AcDbLine
10
344.500050000000
20
14.000000000000
30
0.0
11
344.500050000000
21
53.000000000000
31
0.0
0
LINE
5
990
100
AcDbEntity
8
F-E_J_ADD
6
HIDDEN
62
3
100
AcDbLine
10
341.500000000000
20
43.500000000000
30
0.0
11
347.500100000000
21
43.500000000000
31
0.0
0
LINE
5
991
100
AcDbEntity
8
F-E_J_ADD
6
HIDDEN
62
3
100
AcDbLine
10
405.000000000000
20
28.499950000000
30
0.0
11
341.500000000000
21
28.499950000000
31
0.0
0
LINE
5
992
100
AcDbEntity
8
F-E_J_ADD
6
HIDDEN
62
3
100
AcDbLine
10
318.500000000000
20
41.000000000000
30
0.0
11
318.500000000000
21
53.000000000000
31
0.0
0
LINE
5
993
100
AcDbEntity
8
F-E_J_ADD
6
HIDDEN
62
3
100
AcDbLine
10
355.500100000000
20
34.000000000000
30
0.0
11
355.500100000000
21
22.999900000000
31
0.0
0
LINE
5
994
100
AcDbEntity
8
F-E_J_ADD
6
HIDDEN
62
3
100
AcDbLine
10
366.000050000000
20
34.000000000000
30
0.0
11
366.000050000000
21
22.999900000000
31
0.0
0
LINE
5
995
100
AcDbEntity
8
F-E_J_ADD
6
HIDDEN
62
3
100
AcDbLine
10
376.250000000000
20
34.000000000000
30
0.0
11
376.250000000000
21
22.999900000000
31
0.0
0
LINE
5
996
100
AcDbEntity
8
F-E_J_ADD
6
HIDDEN
62
3
100
AcDbLine
10
386.500000000000
20
34.000000000000
30
0.0
11
386.500000000000
21
22.999900000000
31
0.0
0
LINE
5
997
100
AcDbEntity
8
F-E_J_ADD
6
HIDDEN
62
3
100
AcDbLine
10
397.000000000000
20
22.999900000000
30
0.0
11
397.000000000000
21
34.000000000000
31
0.0
0
TEXT
5
998
100
AcDbEntity
8
0-0
62
7
370
-3
100
AcDbText
10
292.694
20
50.037
30
0.0
40
2.203
1
客先
41
0.856
50
0.000
  7
TATEGAKI
100
AcDbText
0
TEXT
5
999
100
AcDbEntity
8
0-0
62
7
370
-3
100
AcDbText
10
292.694
20
39.537
30
0.0
40
2.203
1
材質
41
0.856
50
0.000
  7
TATEGAKI
100
AcDbText
0
TEXT
5
99a
100
AcDbEntity
8
0-0
62
7
370
-3
100
AcDbText
10
318.194
20
39.537
30
0.0
40
2.203
1
数量
41
0.856
50
0.000
  7
TATEGAKI
100
AcDbText
0
TEXT
5
99b
100
AcDbEntity
8
0-0
62
7
370
-3
100
AcDbText
10
318.194
20
30.537
30
0.0
40
2.203
1
日付
41
0.856
50
0.000
  7
TATEGAKI
100
AcDbText
0
TEXT
5
99c
100
AcDbEntity
8
1-8
62
7
370
-3
100
AcDbText
10
302.441
20
26.007
30
0.0
40
3.626
41
0.522
50
0.000
1
F/S
72
1
11
305.500
21
27.500
31
0.0
100
AcDbText
73
2
0
TEXT
5
99d
100
AcDbEntity
8
0-0
62
7
370
-3
100
AcDbText
10
292.694
20
30.537
30
0.0
40
2.203
1
尺度
41
0.856
50
0.000
  7
TATEGAKI
100
AcDbText
0
TEXT
5
99e
100
AcDbEntity
8
0-0
62
7
370
-3
100
AcDbText
10
344.444
20
31.537
30
0.0
40
2.203
1
承認
41
0.856
50
0.000
  7
TATEGAKI
100
AcDbText
0
TEXT
5
99f
100
AcDbEntity
8
0-0
62
7
370
-3
100
AcDbText
10
344.444
20
21.537
30
0.0
40
2.203
1
図番
41
0.856
50
0.000
  7
TATEGAKI
100
AcDbText
0
TEXT
5
9a0
100
AcDbEntity
8
0-0
62
7
370
-3
100
AcDbText
10
344.444
20
47.991
30
0.0
40
2.203
1
名　称
41
0.856
50
0.000
  7
TATEGAKI
100
AcDbText
0
TEXT
5
9a1
100
AcDbEntity
8
0-0
62
7
370
-3
100
AcDbText
10
365.944
20
31.537
30
0.0
40
2.203
1
検図
41
0.856
50
0.000
  7
TATEGAKI
100
AcDbText
0
TEXT
5
9a2
100
AcDbEntity
8
0-0
62
7
370
-3
100
AcDbText
10
386.444
20
31.537
30
0.0
40
2.203
1
担当
41
0.856
50
0.000
  7
TATEGAKI
100
AcDbText
0
POLYLINE
5
9a3
100
AcDbEntity
  8
3-0
6
CONTINUOUS
62
4
100
AcDb2dPolyline
66
1
10
0
20
0
70
1
40
0.400
41
0.400
0
VERTEX
5
9a4
100
AcDbEntity
  8
3-0
6
CONTINUOUS
62
4
100
AcDbVertex
100
AcDb2dVertex
10
220.456
20
182.463
30
0.0
42
1.000
0
VERTEX
5
9a5
100
AcDbEntity
  8
3-0
6
CONTINUOUS
62
4
100
AcDbVertex
100
AcDb2dVertex
10
220.856
20
182.463
30
0.0
42
1.000
0
SEQEND
5
9a6
100
AcDbEntity
  8
3-0
0
LINE
5
9a7
100
AcDbEntity
8
3-0
6
CONTINUOUS
62
4
100
AcDbLine
10
219.605150896989
20
171.426385052829
30
0.0
11
220.656194075959
21
182.462696022001
31
0.0
0
LINE
5
9a8
100
AcDbEntity
8
3-0
6
CONTINUOUS
62
7
100
AcDbLine
10
217.314172855520
20
183.366568950105
30
0.0
11
217.314172855520
21
191.033219670650
31
0.0
0
LINE
5
9a9
100
AcDbEntity
8
3-0
6
CONTINUOUS
62
3
100
AcDbLine
10
230.814167906723
20
189.033237816237
30
0.0
11
230.814167906723
21
190.699918229560
31
0.0
0
POLYLINE
5
9aa
100
AcDbEntity
8
3-0
6
CONTINUOUS
62
  3
100
AcDb2dPolyline
66
1
10
0.0
20
0.0
30
0.0
70
0
0
VERTEX
5
9ab
100
AcDbEntity
8
3-0
6
CONTINUOUS
62
  3
100
AcDbVertex
100
AcDb2dVertex
10
224.147470997412
20
191.116557402913
30
0.0
0
VERTEX
5
9ac
100
AcDbEntity
8
3-0
6
CONTINUOUS
62
  3
100
AcDbVertex
100
AcDb2dVertex
10
224.147470997412
20
190.699918229560
30
0.0
0
VERTEX
5
9ad
100
AcDbEntity
8
3-0
6
CONTINUOUS
62
  3
100
AcDbVertex
100
AcDb2dVertex
10
230.814167906723
20
190.699918229560
30
0.0
0
SEQEND
5
9ae
100
AcDbEntity
8
3-0
0
LINE
5
9af
100
AcDbEntity
8
3-0
6
CONTINUOUS
62
3
100
AcDbLine
10
224.314072229992
20
191.699946272740
30
0.0
11
230.647467698214
21
191.699946272740
31
0.0
0
LINE
5
9b0
100
AcDbEntity
8
3-0
6
CONTINUOUS
62
3
100
AcDbLine
10
224.314072229992
20
190.699918229560
30
0.0
11
224.314072229992
21
191.699946272740
31
0.0
0
LINE
5
9b1
100
AcDbEntity
8
3-0
6
CONTINUOUS
62
3
100
AcDbLine
10
230.647467698214
20
190.699918229560
30
0.0
11
230.647467698214
21
191.699946272740
31
0.0
0
LINE
5
9b2
100
AcDbEntity
8
3-0
6
CONTINUOUS
62
7
100
AcDbLine
10
218.980803780879
20
181.699888536781
30
0.0
11
227.480807080076
21
181.699888536781
31
0.0
0
LINE
5
9b3
100
AcDbEntity
8
3-0
6
CONTINUOUS
62
7
100
AcDbLine
10
218.980803780879
20
192.699875339991
30
0.0
11
227.480807080076
21
192.699875339991
31
0.0
0
LINE
5
9b4
100
AcDbEntity
8
3-0
6
DASHED2
62
3
100
AcDbLine
10
228.147459450220
20
191.033269158614
30
0.0
11
228.814111820364
21
191.699946272740
31
0.0
0
LINE
5
9b5
100
AcDbEntity
8
3-0
6
DASHED2
62
3
100
AcDbLine
10
227.480807080076
20
191.033269158614
30
0.0
11
228.147459450220
21
191.033269158614
31
0.0
0
LINE
5
9b6
100
AcDbEntity
8
3-0
6
DASHED2
62
3
100
AcDbLine
10
228.147459450220
20
187.033206473859
30
0.0
11
228.147459450220
21
191.033269158614
31
0.0
0
LINE
5
9b7
100
AcDbEntity
8
3-0
6
CONTINUOUS
62
3
100
AcDbLine
10
228.980836772855
20
186.766565320988
30
0.0
11
228.980836772855
21
187.033206473859
31
0.0
0
LINE
5
9b8
100
AcDbEntity
8
3-0
6
CONTINUOUS
62
3
100
AcDbLine
10
227.480807080076
20
185.033274107411
30
0.0
11
228.147459450220
21
185.033274107411
31
0.0
0
LINE
5
9b9
100
AcDbEntity
8
3-0
6
CONTINUOUS
62
3
100
AcDbLine
10
227.980808729675
20
185.683224289526
30
0.0
11
227.980808729675
21
185.033274107411
31
0.0
0
LINE
5
9ba
100
AcDbEntity
8
3-0
6
CONTINUOUS
62
3
100
AcDbLine
10
227.480807080076
20
186.766565320988
30
0.0
11
228.980836772855
21
186.766565320988
31
0.0
0
LINE
5
9bb
100
AcDbEntity
8
3-0
6
DASHED2
62
3
100
AcDbLine
10
226.814129965951
20
191.033269158614
30
0.0
11
226.147527083771
21
191.699946272740
31
0.0
0
LINE
5
9bc
100
AcDbEntity
8
3-0
6
DASHED2
62
3
100
AcDbLine
10
227.480807080076
20
191.033269158614
30
0.0
11
226.814129965951
21
191.033269158614
31
0.0
0
LINE
5
9bd
100
AcDbEntity
8
3-0
6
DASHED2
62
3
100
AcDbLine
10
226.814129965951
20
187.033206473859
30
0.0
11
226.814129965951
21
191.033269158614
31
0.0
0
LINE
5
9be
100
AcDbEntity
8
3-0
6
CONTINUOUS
62
3
100
AcDbLine
10
225.980826875262
20
186.766565320988
30
0.0
11
225.980826875262
21
187.033206473859
31
0.0
0
LINE
5
9bf
100
AcDbEntity
8
3-0
6
CONTINUOUS
62
3
100
AcDbLine
10
227.480807080076
20
185.033274107411
30
0.0
11
226.814129965951
21
185.033274107411
31
0.0
0
LINE
5
9c0
100
AcDbEntity
8
3-0
6
CONTINUOUS
62
3
100
AcDbLine
10
226.980830174460
20
185.683224289526
30
0.0
11
226.980830174460
21
185.033274107411
31
0.0
0
LINE
5
9c1
100
AcDbEntity
8
3-0
6
CONTINUOUS
62
3
100
AcDbLine
10
227.480807080076
20
186.766565320988
30
0.0
11
225.980826875262
21
186.766565320988
31
0.0
0
POLYLINE
5
9c2
100
AcDbEntity
8
3-0
6
CONTINUOUS
62
  3
100
AcDb2dPolyline
66
1
10
0.0
20
0.0
30
0.0
70
0
0
VERTEX
5
9c3
100
AcDbEntity
8
3-0
6
CONTINUOUS
62
  3
100
AcDbVertex
100
AcDb2dVertex
10
218.314126666753
20
187.033206473859
30
0.0
0
VERTEX
5
9c4
100
AcDbEntity
8
3-0
6
CONTINUOUS
62
  3
100
AcDbVertex
100
AcDb2dVertex
10
218.314126666753
20
189.033237816237
30
0.0
0
VERTEX
5
9c5
100
AcDbEntity
8
3-0
6
CONTINUOUS
62
  3
100
AcDbVertex
100
AcDb2dVertex
10
242.480757592112
20
189.033237816237
30
0.0
0
SEQEND
5
9c6
100
AcDbEntity
8
3-0
0
LINE
5
9c7
100
AcDbEntity
8
3-0
6
CONTINUOUS
62
3
100
AcDbLine
10
218.314126666753
20
187.033206473859
30
0.0
11
242.480757592112
21
187.033206473859
31
0.0
0
LINE
5
9c8
100
AcDbEntity
8
3-0
6
CONTINUOUS
62
7
100
AcDbLine
10
225.814151410735
20
183.699845647212
30
0.0
11
225.814151410735
21
181.699888536781
31
0.0
0
LINE
5
9c9
100
AcDbEntity
8
3-0
6
CONTINUOUS
62
4
100
AcDbLine
10
243.216594136664
20
189.033237816237
30
0.0
11
253.803603875896
21
189.033237816237
31
0.0
0
LINE
5
9ca
100
AcDbEntity
8
3-0
6
CONTINUOUS
62
4
100
AcDbLine
10
243.216594136664
20
187.033206473859
30
0.0
11
253.803603875896
21
187.033206473859
31
0.0
0
LINE
5
9cb
100
AcDbEntity
8
3-0
6
CENTER
62
3
100
AcDbLine
10
227.480807080076
20
184.710637322677
30
0.0
11
227.480807080076
21
192.319609820565
31
0.0
0
LINE
5
9cc
100
AcDbEntity
8
3-0
6
CONTINUOUS
62
7
100
AcDbLine
10
218.980803780879
20
180.199883587985
30
0.0
11
227.480807080076
21
180.199883587985
31
0.0
0
LINE
5
9cd
100
AcDbEntity
8
3-0
6
CONTINUOUS
62
7
100
AcDbLine
10
227.480807080076
20
181.699888536781
30
0.0
11
227.480807080076
21
180.199883587985
31
0.0
0
LINE
5
9ce
100
AcDbEntity
8
3-0
6
PHANTOM
62
4
100
AcDbLine
10
242.480757592112
20
194.311797320565
30
0.0
11
242.480757592112
21
180.580198595375
31
0.0
0
LINE
5
9cf
100
AcDbEntity
8
3-0
6
CONTINUOUS
62
2
100
AcDbLine
10
230.508530237805
20
189.033237816237
30
0.0
11
230.814167906723
21
189.338825997191
31
0.0
0
LINE
5
9d0
100
AcDbEntity
8
3-0
6
CONTINUOUS
62
2
100
AcDbLine
10
230.390699394266
20
189.033237816237
30
0.0
11
230.814167906723
21
189.456656840730
31
0.0
0
LINE
5
9d1
100
AcDbEntity
8
3-0
6
CONTINUOUS
62
2
100
AcDbLine
10
229.330023850558
20
189.033237816237
30
0.0
11
230.814167906723
21
190.517381872402
31
0.0
0
LINE
5
9d2
100
AcDbEntity
8
3-0
6
CONTINUOUS
62
2
100
AcDbLine
10
229.212143519055
20
189.033237816237
30
0.0
11
230.814167906723
21
190.635187971959
31
0.0
0
LINE
5
9d3
100
AcDbEntity
8
3-0
6
CONTINUOUS
62
2
100
AcDbLine
10
228.151467975347
20
189.033237816237
30
0.0
11
229.818222620617
21
190.699918229560
31
0.0
0
LINE
5
9d4
100
AcDbEntity
8
3-0
6
CONTINUOUS
62
2
100
AcDbLine
10
228.033686619772
20
189.033237816237
30
0.0
11
229.700342289114
21
190.699918229560
31
0.0
0
LINE
5
9d5
100
AcDbEntity
8
3-0
6
CONTINUOUS
62
2
100
AcDbLine
10
226.973060564029
20
189.033237816237
30
0.0
11
228.639691489388
21
190.699918229560
31
0.0
0
LINE
5
9d6
100
AcDbEntity
8
3-0
6
CONTINUOUS
62
2
100
AcDbLine
10
226.855130744561
20
189.033237816237
30
0.0
11
228.521786413902
21
190.699918229560
31
0.0
0
LINE
5
9d7
100
AcDbEntity
8
3-0
6
CONTINUOUS
62
2
100
AcDbLine
10
225.794504688818
20
189.033237816237
30
0.0
11
227.461185102141
21
190.699918229560
31
0.0
0
LINE
5
9d8
100
AcDbEntity
8
3-0
6
CONTINUOUS
62
2
100
AcDbLine
10
225.676649101297
20
189.033237816237
30
0.0
11
227.343329514620
21
190.699918229560
31
0.0
0
LINE
5
9d9
100
AcDbEntity
8
3-0
6
CONTINUOUS
62
2
100
AcDbLine
10
224.615998301571
20
189.033237816237
30
0.0
11
226.282703458877
21
190.699918229560
31
0.0
0
LINE
5
9da
100
AcDbEntity
8
3-0
6
CONTINUOUS
62
2
100
AcDbLine
10
224.498093226086
20
189.033237816237
30
0.0
11
226.164773639409
21
190.699918229560
31
0.0
0
LINE
5
9db
100
AcDbEntity
8
3-0
6
CONTINUOUS
62
2
100
AcDbLine
10
223.437491914325
20
189.033237816237
30
0.0
11
225.104147583666
21
190.699918229560
31
0.0
0
LINE
5
9dc
100
AcDbEntity
8
3-0
6
CONTINUOUS
62
2
100
AcDbLine
10
223.319611582821
20
189.033237816237
30
0.0
11
224.986291996145
21
190.699918229560
31
0.0
0
LINE
5
9dd
100
AcDbEntity
8
3-0
6
CONTINUOUS
62
2
100
AcDbLine
10
222.259010271060
20
189.033237816237
30
0.0
11
224.147470997412
21
190.921748030553
31
0.0
0
LINE
5
9de
100
AcDbEntity
8
3-0
6
CONTINUOUS
62
2
100
AcDbLine
10
222.141055707610
20
189.033237816237
30
0.0
11
224.147470997412
21
191.039603618074
31
0.0
0
LINE
5
9df
100
AcDbEntity
8
3-0
6
CONTINUOUS
62
2
100
AcDbLine
10
220.103240304316
20
190.413085987162
30
0.0
11
222.767672314451
21
193.077517997297
31
0.0
0
LINE
5
9e0
100
AcDbEntity
8
3-0
6
CONTINUOUS
62
2
100
AcDbLine
10
220.073695989494
20
190.501422003842
30
0.0
11
222.679361041753
21
193.107012824155
31
0.0
0
LINE
5
9e1
100
AcDbEntity
8
3-0
6
CONTINUOUS
62
2
100
AcDbLine
10
220.017527149755
20
191.505829731883
30
0.0
11
221.674928569730
21
193.163181663893
31
0.0
0
LINE
5
9e2
100
AcDbEntity
8
3-0
6
CONTINUOUS
62
2
100
AcDbLine
10
220.052663604570
20
191.658821774218
30
0.0
11
221.521887039430
21
193.128045209079
31
0.0
0
LINE
5
9e3
100
AcDbEntity
8
3-0
6
CONTINUOUS
62
2
100
AcDbLine
10
220.495927302838
20
189.745047954011
30
0.0
11
221.384805377690
21
190.633901284881
31
0.0
0
LINE
5
9e4
100
AcDbEntity
8
3-0
6
CONTINUOUS
62
2
100
AcDbLine
10
222.546832272750
20
191.795952923923
30
0.0
11
223.435660859637
21
192.684781510810
31
0.0
0
LINE
5
9e5
100
AcDbEntity
8
3-0
6
CONTINUOUS
62
2
100
AcDbLine
10
220.552096142576
20
189.683435438175
30
0.0
11
221.436817228408
21
190.568082292060
31
0.0
0
LINE
5
9e6
100
AcDbEntity
8
3-0
6
CONTINUOUS
62
2
100
AcDbLine
10
222.612676009553
20
191.743916329222
30
0.0
11
223.497322863438
21
192.628612671072
31
0.0
0
LINE
5
9e7
100
AcDbEntity
8
3-0
6
CONTINUOUS
62
2
100
AcDbLine
10
221.166068574481
20
189.236757070354
30
0.0
11
222.229070052521
21
190.299709060430
31
0.0
0
LINE
5
9e8
100
AcDbEntity
8
3-0
6
CONTINUOUS
62
2
100
AcDbLine
10
222.881073985165
20
190.951712993074
30
0.0
11
223.944001231259
21
192.014640239167
31
0.0
0
LINE
5
9e9
100
AcDbEntity
8
3-0
6
CONTINUOUS
62
2
100
AcDbLine
10
221.247228836305
20
189.200086488640
30
0.0
11
222.401956256597
21
190.354739676984
31
0.0
0
LINE
5
9ea
100
AcDbEntity
8
3-0
6
CONTINUOUS
62
2
100
AcDbLine
10
222.825969136664
20
190.778851532981
30
0.0
11
223.980622325009
21
191.933479977343
31
0.0
0
LINE
5
9eb
100
AcDbEntity
8
3-0
6
CONTINUOUS
62
7
100
AcDbLine
10
196.628203683223
20
194.199905032770
30
0.0
11
227.480807080076
21
194.199905032770
31
0.0
0
POLYLINE
5
9ec
100
AcDbEntity
8
3-0
6
CONTINUOUS
62
  4
100
AcDb2dPolyline
66
1
10
0.0
20
0.0
30
0.0
70
0
0
VERTEX
5
9ed
100
AcDbEntity
8
3-0
6
CONTINUOUS
62
  4
100
AcDbVertex
100
AcDb2dVertex
10
252.970226553261
20
192.883772616173
30
0.0
0
VERTEX
5
9ee
100
AcDbEntity
8
3-0
6
CONTINUOUS
62
  4
100
AcDbVertex
100
AcDb2dVertex
10
252.970226553261
20
189.033237816237
30
0.0
0
VERTEX
5
9ef
100
AcDbEntity
8
3-0
6
CONTINUOUS
62
  4
100
AcDbVertex
100
AcDb2dVertex
10
252.452582444308
20
190.965074743496
30
0.0
0
SEQEND
5
9f0
100
AcDbEntity
8
3-0
0
LINE
5
9f1
100
AcDbEntity
8
3-0
6
CONTINUOUS
62
4
100
AcDbLine
10
252.970226553261
20
189.033237816237
30
0.0
11
253.487870662213
21
190.965074743496
31
0.0
0
LINE
5
9f2
100
AcDbEntity
8
3-0
6
CONTINUOUS
62
4
100
AcDbLine
10
252.970226553261
20
187.033206473859
30
0.0
11
253.487870662213
21
185.101344802618
31
0.0
0
LINE
5
9f3
100
AcDbEntity
8
3-0
6
CONTINUOUS
62
4
100
AcDbLine
10
252.970226553261
20
187.033206473859
30
0.0
11
252.452582444308
21
185.101344802618
31
0.0
0
LINE
5
9f4
100
AcDbEntity
8
3-0
6
CONTINUOUS
62
7
100
AcDbLine
10
227.480807080076
20
206.910814489590
30
0.0
11
227.480807080076
21
192.699875339991
31
0.0
0
LINE
5
9f5
100
AcDbEntity
8
3-0
6
CONTINUOUS
62
7
100
AcDbLine
10
228.564148111538
20
185.683224289526
30
0.0
11
228.731739103408
21
185.779998004159
31
0.0
0
LINE
5
9f6
100
AcDbEntity
8
3-0
6
CONTINUOUS
62
7
100
AcDbLine
10
226.397490792598
20
185.683224289526
30
0.0
11
226.229875056745
21
185.779998004159
31
0.0
0
LINE
5
9f7
100
AcDbEntity
8
3-0
6
CONTINUOUS
62
7
100
AcDbLine
10
228.564148111538
20
185.683224289526
30
0.0
11
226.397490792598
21
185.683224289526
31
0.0
0
LINE
5
9f8
100
AcDbEntity
8
3-0
6
CONTINUOUS
62
7
100
AcDbLine
10
226.229875056745
20
186.766565320988
30
0.0
11
226.229875056745
21
185.779998004159
31
0.0
0
LINE
5
9f9
100
AcDbEntity
8
3-0
6
CONTINUOUS
62
7
100
AcDbLine
10
228.731739103408
20
186.766565320988
30
0.0
11
228.731739103408
21
185.779998004159
31
0.0
0
LINE
5
9fa
100
AcDbEntity
8
3-0
6
CONTINUOUS
62
3
100
AcDbLine
10
226.814129965951
20
185.683224289526
30
0.0
11
226.814129965951
21
185.033274107411
31
0.0
0
LINE
5
9fb
100
AcDbEntity
8
3-0
6
CONTINUOUS
62
3
100
AcDbLine
10
228.147459450220
20
185.683224289526
30
0.0
11
228.147459450220
21
185.033274107411
31
0.0
0
LINE
5
9fc
100
AcDbEntity
8
3-0
6
CONTINUOUS
62
7
100
AcDbLine
10
226.855353440402
20
186.766565320988
30
0.0
11
226.855353440402
21
185.779998004159
31
0.0
0
LINE
5
9fd
100
AcDbEntity
8
3-0
6
CONTINUOUS
62
7
100
AcDbLine
10
228.106260719751
20
186.766565320988
30
0.0
11
228.106260719751
21
185.779998004159
31
0.0
0
LINE
5
9fe
100
AcDbEntity
8
3-0
6
CONTINUOUS
62
4
100
AcDbLine
10
252.970226553261
20
189.033237816237
30
0.0
11
252.970226553261
21
178.458451604244
31
0.0
0
ARC
5
9ff
100
AcDbEntity
8
3-0
6
CONTINUOUS
62
7
100
AcDbCircle
10
218.980803780879
20
191.033219670650
30
0.0
40
1.666666494833
100
AcDbArc
50
90.000000000000
51
180.000000000000
0
ARC
5
a00
100
AcDbEntity
8
3-0
6
CONTINUOUS
62
7
100
AcDbCircle
10
218.980803780879
20
183.366568950105
30
0.0
40
1.666666494833
100
AcDbArc
50
180.000000000000
51
270.000000000000
0
ARC
5
a01
100
AcDbEntity
8
3-0
6
CONTINUOUS
62
7
100
AcDbCircle
10
218.980803780879
20
183.366568950105
30
0.0
40
3.166666417509
100
AcDbArc
50
180.000000000000
51
270.000000000000
0
CIRCLE
5
a02
100
AcDbEntity
8
3-0
6
CONTINUOUS
62
3
100
AcDbCircle
10
222.064200898700
20
191.116557402913
30
0.0
40
0.833333247417
0
ARC
5
a03
100
AcDbEntity
8
3-0
6
CONTINUOUS
62
3
100
AcDbCircle
10
222.064200898700
20
191.116557402913
30
0.0
40
2.083333311854
100
AcDbArc
50
0.000000000000
51
270.000000000000
0
ARC
5
a04
100
AcDbEntity
8
3-0
6
CONTINUOUS
62
7
100
AcDbCircle
10
218.980803780879
20
191.033219670650
30
0.0
40
3.166666417509
100
AcDbArc
50
90.000000000000
51
180.000000000000
0
ARC
5
a05
100
AcDbEntity
8
3-0
6
CONTINUOUS
62
7
100
AcDbCircle
10
227.480807080076
20
187.753107893834
30
0.0
40
2.069875678501
100
AcDbArc
50
252.411727905273
51
287.588272094727
0
ARC
5
a06
100
AcDbEntity
8
3-0
6
CONTINUOUS
62
7
100
AcDbCircle
10
228.418999911580
20
186.236969868602
30
0.0
40
0.553751136806
100
AcDbArc
50
235.614990234375
51
295.614120483398
0
ARC
5
a07
100
AcDbEntity
8
3-0
6
CONTINUOUS
62
7
100
AcDbCircle
10
226.542614248573
20
186.236969868602
30
0.0
40
0.553751136806
100
AcDbArc
50
244.385879516602
51
304.385009765625
0
POLYLINE
5
a08
100
AcDbEntity
  8
3-0
6
CONTINUOUS
62
4
100
AcDb2dPolyline
66
1
10
0
20
0
70
1
40
0.400
41
0.400
0
VERTEX
5
a09
100
AcDbEntity
  8
3-0
6
CONTINUOUS
62
4
100
AcDbVertex
100
AcDb2dVertex
10
220.942
20
192.103
30
0.0
42
1.000
0
VERTEX
5
a0a
100
AcDbEntity
  8
3-0
6
CONTINUOUS
62
4
100
AcDbVertex
100
AcDb2dVertex
10
221.342
20
192.103
30
0.0
42
1.000
0
SEQEND
5
a0b
100
AcDbEntity
  8
3-0
0
LINE
5
a0c
100
AcDbEntity
8
3-0
6
CONTINUOUS
62
4
100
AcDbLine
10
231.786739940155
20
202.294100542409
30
0.0
11
221.141893703810
21
192.102555608150
31
0.0
0
LINE
5
a0d
100
AcDbEntity
8
3-0
6
CONTINUOUS
62
4
100
AcDbLine
10
215.814192650706
20
215.729354846655
30
0.0
11
227.480807080076
21
215.729354846655
31
0.0
0
LINE
5
a0e
100
AcDbEntity
8
3-0
6
CONTINUOUS
62
4
100
AcDbLine
10
215.814192650706
20
215.729354846655
30
0.0
11
217.746054321947
21
216.246998955608
31
0.0
0
LINE
5
a0f
100
AcDbEntity
8
3-0
6
CONTINUOUS
62
4
100
AcDbLine
10
215.814192650706
20
215.729354846655
30
0.0
11
217.746054321947
21
215.211710737702
31
0.0
0
LINE
5
a10
100
AcDbEntity
8
3-0
6
CONTINUOUS
62
4
100
AcDbLine
10
227.480807080076
20
215.729354846655
30
0.0
11
225.548945408835
21
216.246998955608
31
0.0
0
LINE
5
a11
100
AcDbEntity
8
3-0
6
CONTINUOUS
62
4
100
AcDbLine
10
227.480807080076
20
215.729354846655
30
0.0
11
225.548945408835
21
215.211710737702
31
0.0
0
LINE
5
a12
100
AcDbEntity
8
3-0
6
CONTINUOUS
62
4
100
AcDbLine
10
227.480807080076
20
223.729381240236
30
0.0
11
225.548945408835
21
224.247025349189
31
0.0
0
LINE
5
a13
100
AcDbEntity
8
3-0
6
CONTINUOUS
62
4
100
AcDbLine
10
227.480807080076
20
223.729381240236
30
0.0
11
225.548945408835
21
223.211737131283
31
0.0
0
LINE
5
a14
100
AcDbEntity
8
3-0
6
CONTINUOUS
62
4
100
AcDbLine
10
227.480831824059
20
231.729382889835
30
0.0
11
225.548970152817
21
232.247026998788
31
0.0
0
LINE
5
a15
100
AcDbEntity
8
3-0
6
CONTINUOUS
62
4
100
AcDbLine
10
227.480831824059
20
231.729382889835
30
0.0
11
225.548970152817
21
231.211738780882
31
0.0
0
LINE
5
a16
100
AcDbEntity
8
3-0
6
CONTINUOUS
62
4
100
AcDbLine
10
215.814192650706
20
195.232520900591
30
0.0
11
215.814192650706
21
216.729358145853
31
0.0
0
LINE
5
a17
100
AcDbEntity
8
3-0
6
CONTINUOUS
62
4
100
AcDbLine
10
227.480831824059
20
208.011426820671
30
0.0
11
227.480831824059
21
232.729386189033
31
0.0
0
LINE
5
a18
100
AcDbEntity
8
3-0
6
CONTINUOUS
62
4
100
AcDbLine
10
227.480831824059
20
231.729382889835
30
0.0
11
229.412693495300
21
232.247026998788
31
0.0
0
LINE
5
a19
100
AcDbEntity
8
3-0
6
CONTINUOUS
62
4
100
AcDbLine
10
227.480831824059
20
231.729382889835
30
0.0
11
229.412693495300
21
231.211738780882
31
0.0
0
LINE
5
a1a
100
AcDbEntity
8
3-0
6
CONTINUOUS
62
7
100
AcDbLine
10
220.814121168090
20
183.699845647212
30
0.0
11
225.814151410735
21
183.699845647212
31
0.0
0
LINE
5
a1b
100
AcDbEntity
8
3-0
6
CONTINUOUS
62
7
100
AcDbLine
10
220.814121168090
20
183.699845647212
30
0.0
11
220.814121168090
21
181.699888536781
31
0.0
0
LINE
5
a1c
100
AcDbEntity
8
3-0
6
CONTINUOUS
62
7
100
AcDbLine
10
220.814121168090
20
182.866542556524
30
0.0
11
225.814151410735
21
182.866542556524
31
0.0
0
LINE
5
a1d
100
AcDbEntity
8
3-0
6
CONTINUOUS
62
7
100
AcDbLine
10
220.814121168090
20
183.366568950105
30
0.0
11
225.814151410735
21
183.366568950105
31
0.0
0
LINE
5
a1e
100
AcDbEntity
8
3-0
6
CONTINUOUS
62
7
100
AcDbLine
10
224.314127216619
20
187.033206473859
30
0.0
11
224.314127216619
21
183.699845647212
31
0.0
0
LINE
5
a1f
100
AcDbEntity
8
3-0
6
CONTINUOUS
62
7
100
AcDbLine
10
222.314145362206
20
187.033206473859
30
0.0
11
222.314145362206
21
183.699845647212
31
0.0
0
LINE
5
a20
100
AcDbEntity
8
3-0
6
CONTINUOUS
62
7
100
AcDbLine
10
222.314145362206
20
184.533222969847
30
0.0
11
224.314127216619
21
184.533222969847
31
0.0
0
LINE
5
a21
100
AcDbEntity
8
3-0
6
CENTER
62
7
100
AcDbLine
10
223.314123917422
20
187.843299709184
30
0.0
11
223.314123917422
21
180.811678549450
31
0.0
0
LINE
5
a22
100
AcDbEntity
8
3-0
6
CONTINUOUS
62
4
100
AcDbLine
10
231.786739940155
20
218.294103841607
30
0.0
11
231.786739940155
21
202.294100542409
31
0.0
0
LINE
5
a23
100
AcDbEntity
8
3-0
6
CONTINUOUS
62
7
100
AcDbLine
10
215.814137363370
20
191.033219670650
30
0.0
11
215.814137363370
21
183.366568950105
31
0.0
0
ARC
5
a24
100
AcDbEntity
8
3-0
6
CONTINUOUS
62
2
100
AcDbCircle
10
212.314067281196
20
192.699903383171
30
0.0
40
1.500000000000
100
AcDbArc
50
0.000000000000
51
90.000000000000
0
ARC
5
a25
100
AcDbEntity
8
3-0
6
CONTINUOUS
62
2
100
AcDbCircle
10
212.314067281196
20
192.699903383171
30
0.0
40
0.500000000000
100
AcDbArc
50
0.588713097936
51
89.852822333277
0
LINE
5
a26
100
AcDbEntity
8
3-0
6
CONTINUOUS
62
7
100
AcDbLine
10
262.159640978043
20
182.414371024640
30
0.0
11
260.826336237756
21
182.414371024640
31
0.0
0
LINE
5
a27
100
AcDbEntity
8
3-0
6
CONTINUOUS
62
7
100
AcDbLine
10
264.826349434547
20
182.414371024640
30
0.0
11
266.159654174834
21
182.414371024640
31
0.0
0
LINE
5
a28
100
AcDbEntity
8
3-0
6
CONTINUOUS
62
7
100
AcDbLine
10
260.826336237756
20
182.414371024640
30
0.0
11
263.492995206295
21
187.033206473859
31
0.0
0
LINE
5
a29
100
AcDbEntity
8
3-0
6
CONTINUOUS
62
7
100
AcDbLine
10
266.159654174834
20
182.414371024640
30
0.0
11
263.492995206295
21
187.033206473859
31
0.0
0
LINE
5
a2a
100
AcDbEntity
8
3-0
6
CONTINUOUS
62
7
100
AcDbLine
10
262.159665722026
20
167.747721953695
30
0.0
11
262.159640978043
21
182.414371024640
31
0.0
0
LINE
5
a2b
100
AcDbEntity
8
3-0
6
CONTINUOUS
62
7
100
AcDbLine
10
264.826349434547
20
167.747721953695
30
0.0
11
264.826349434547
21
182.414371024640
31
0.0
0
LINE
5
a2c
100
AcDbEntity
8
3-0
6
CONTINUOUS
62
7
100
AcDbLine
10
262.159665722026
20
167.747721953695
30
0.0
11
264.826349434547
21
167.747721953695
31
0.0
0
LINE
5
a2d
100
AcDbEntity
8
3-0
6
CONTINUOUS
62
2
100
AcDbLine
10
212.814040887614
20
182.533235616772
30
0.0
11
213.814093674777
21
182.533235616772
31
0.0
0
LINE
5
a2e
100
AcDbEntity
8
3-0
6
CONTINUOUS
62
2
100
AcDbLine
10
212.814040887614
20
182.533235616772
30
0.0
11
212.814040887614
21
192.705040783727
31
0.0
0
LINE
5
a2f
100
AcDbEntity
8
3-0
6
CONTINUOUS
62
2
100
AcDbLine
10
213.814093674777
20
182.533235616772
30
0.0
11
213.814093674777
21
192.699903383171
31
0.0
0
POLYLINE
5
a30
100
AcDbEntity
8
3-0
6
CONTINUOUS
62
  7
100
AcDb2dPolyline
66
1
10
0.0
20
0.0
30
0.0
70
0
0
VERTEX
5
a31
100
AcDbEntity
8
3-0
6
CONTINUOUS
62
  7
100
AcDbVertex
100
AcDb2dVertex
10
212.814084576208
20
185.199902283438
30
0.0
0
VERTEX
5
a32
100
AcDbEntity
8
3-0
6
CONTINUOUS
62
  7
100
AcDbVertex
100
AcDb2dVertex
10
212.430750734248
20
185.199902283438
30
0.0
0
VERTEX
5
a33
100
AcDbEntity
8
3-0
6
CONTINUOUS
62
  7
100
AcDbVertex
100
AcDb2dVertex
10
212.430750734248
20
189.199902283438
30
0.0
0
VERTEX
5
a34
100
AcDbEntity
8
3-0
6
CONTINUOUS
62
  7
100
AcDbVertex
100
AcDb2dVertex
10
212.814084576208
20
189.199902283438
30
0.0
0
VERTEX
5
a35
100
AcDbEntity
8
3-0
6
CONTINUOUS
62
  7
100
AcDbVertex
100
AcDb2dVertex
10
212.814084576208
20
185.199902283438
30
0.0
0
SEQEND
5
a36
100
AcDbEntity
8
3-0
0
LINE
5
a37
100
AcDbEntity
8
3-0
6
CONTINUOUS
62
3
100
AcDbLine
10
215.814137363370
20
190.366568950105
30
0.0
11
213.814137363370
21
190.366568950105
31
0.0
0
LINE
5
a38
100
AcDbEntity
8
3-0
6
CONTINUOUS
62
3
100
AcDbLine
10
213.814137363370
20
190.533235616772
30
0.0
11
213.814137363370
21
183.866568950105
31
0.0
0
LINE
5
a39
100
AcDbEntity
8
3-0
6
CONTINUOUS
62
3
100
AcDbLine
10
215.814137363370
20
184.033235616772
30
0.0
11
213.814137363370
21
184.033235616772
31
0.0
0
LINE
5
a3a
100
AcDbEntity
8
3-0
6
DOT
62
3
100
AcDbLine
10
213.814093674777
20
188.199902283438
30
0.0
11
215.814137363370
21
188.199902283438
31
0.0
0
LINE
5
a3b
100
AcDbEntity
8
3-0
6
DOT
62
3
100
AcDbLine
10
213.814093674777
20
188.066568918316
30
0.0
11
215.814137363370
21
188.066568918316
31
0.0
0
LINE
5
a3c
100
AcDbEntity
8
3-0
6
DOT
62
3
100
AcDbLine
10
213.814093674777
20
186.333235648561
30
0.0
11
215.814137363370
21
186.333235648561
31
0.0
0
LINE
5
a3d
100
AcDbEntity
8
3-0
6
DOT
62
3
100
AcDbLine
10
213.814093674777
20
186.199902283438
30
0.0
11
215.814137363370
21
186.199902283438
31
0.0
0
LINE
5
a3e
100
AcDbEntity
8
3-0
6
CONTINUOUS
62
7
100
AcDbLine
10
211.930750734248
20
188.333235648561
30
0.0
11
211.930750734248
21
189.024902251649
31
0.0
0
LINE
5
a3f
100
AcDbEntity
8
3-0
6
CONTINUOUS
62
7
100
AcDbLine
10
211.930750734248
20
186.066568918316
30
0.0
11
211.930750734248
21
185.374902315227
31
0.0
0
LINE
5
a40
100
AcDbEntity
8
3-0
6
CONTINUOUS
62
7
100
AcDbLine
10
211.930750734248
20
188.333235648561
30
0.0
11
211.930750734248
21
186.066568918316
31
0.0
0
LINE
5
a41
100
AcDbEntity
8
3-0
6
CONTINUOUS
62
7
100
AcDbLine
10
210.785056001582
20
189.024902251649
30
0.0
11
211.930750734248
21
189.024902251649
31
0.0
0
LINE
5
a42
100
AcDbEntity
8
3-0
6
CONTINUOUS
62
7
100
AcDbLine
10
210.597417400915
20
188.699902283438
30
0.0
11
210.785056001582
21
189.024902251649
31
0.0
0
LINE
5
a43
100
AcDbEntity
8
3-0
6
CONTINUOUS
62
7
100
AcDbLine
10
210.597417400915
20
185.699902283438
30
0.0
11
210.785056001582
21
185.374902315227
31
0.0
0
LINE
5
a44
100
AcDbEntity
8
3-0
6
CONTINUOUS
62
7
100
AcDbLine
10
211.930750734248
20
185.374902315227
30
0.0
11
210.785056001582
21
185.374902315227
31
0.0
0
LINE
5
a45
100
AcDbEntity
8
3-0
6
CONTINUOUS
62
7
100
AcDbLine
10
210.597417400915
20
188.699902283438
30
0.0
11
210.597417400915
21
185.699902283438
31
0.0
0
LINE
5
a46
100
AcDbEntity
8
3-0
6
CONTINUOUS
62
7
100
AcDbLine
10
211.930750734248
20
188.112402267544
30
0.0
11
210.785056001582
21
188.112402267544
31
0.0
0
LINE
5
a47
100
AcDbEntity
8
3-0
6
CONTINUOUS
62
7
100
AcDbLine
10
211.930750734248
20
186.287402299333
30
0.0
11
210.785056001582
21
186.287402299333
31
0.0
0
ARC
5
a48
100
AcDbEntity
8
3-0
6
CONTINUOUS
62
7
100
AcDbCircle
10
211.462553229569
20
188.568652219860
30
0.0
40
0.816802183787
100
AcDbArc
50
146.042282104492
51
213.957702636719
0
ARC
5
a49
100
AcDbEntity
8
3-0
6
CONTINUOUS
62
7
100
AcDbCircle
10
213.704001314082
20
187.199902283438
30
0.0
40
3.058250427246
100
AcDbArc
50
162.640075683594
51
197.359909057617
0
ARC
5
a4a
100
AcDbEntity
8
3-0
6
CONTINUOUS
62
7
100
AcDbCircle
10
211.462553229569
20
185.831152347017
30
0.0
40
0.816802183787
100
AcDbArc
50
146.042282104492
51
213.957702636719
0
ARC
5
a4b
100
AcDbEntity
8
3-0
6
DOT
62
7
100
AcDbCircle
10
212.064084576208
20
186.066568918316
30
0.0
40
0.133333335320
100
AcDbArc
50
90.000000000000
51
180.000000000000
0
ARC
5
a4c
100
AcDbEntity
8
3-0
6
DOT
62
7
100
AcDbCircle
10
212.064084576208
20
188.333235648561
30
0.0
40
0.133333335320
100
AcDbArc
50
180.000000000000
51
270.000000000000
0
LINE
5
a4d
100
AcDbEntity
8
3-0
6
DOT
62
7
100
AcDbLine
10
212.064084576208
20
186.199902283438
30
0.0
11
214.930750734248
21
186.199902283438
31
0.0
0
LINE
5
a4e
100
AcDbEntity
8
3-0
6
DOT
62
7
100
AcDbLine
10
214.930750734248
20
186.366568950105
30
0.0
11
211.930750734248
21
186.366568950105
31
0.0
0
LINE
5
a4f
100
AcDbEntity
8
3-0
6
DOT
62
7
100
AcDbLine
10
211.930750734248
20
188.033235616772
30
0.0
11
214.930750734248
21
188.033235616772
31
0.0
0
POLYLINE
5
a50
100
AcDbEntity
8
3-0
6
DOT
62
  7
100
AcDb2dPolyline
66
1
10
0.0
20
0.0
30
0.0
70
0
0
VERTEX
5
a51
100
AcDbEntity
8
3-0
6
DOT
62
  7
100
AcDbVertex
100
AcDb2dVertex
10
212.064084576208
20
188.199902283438
30
0.0
0
VERTEX
5
a52
100
AcDbEntity
8
3-0
6
DOT
62
  7
100
AcDbVertex
100
AcDb2dVertex
10
214.930750734248
20
188.199902283438
30
0.0
0
VERTEX
5
a53
100
AcDbEntity
8
3-0
6
DOT
62
  7
100
AcDbVertex
100
AcDb2dVertex
10
215.264084067582
20
187.866568950105
30
0.0
0
SEQEND
5
a54
100
AcDbEntity
8
3-0
0
LINE
5
a55
100
AcDbEntity
8
3-0
6
DOT
62
7
100
AcDbLine
10
214.930750734248
20
186.199902283438
30
0.0
11
215.264084067582
21
186.533235616772
31
0.0
0
LINE
5
a56
100
AcDbEntity
8
3-0
6
DOT
62
7
100
AcDbLine
10
214.930750734248
20
188.199902283438
30
0.0
11
214.930750734248
21
186.199902283438
31
0.0
0
LINE
5
a57
100
AcDbEntity
8
3-0
6
DOT
62
7
100
AcDbLine
10
215.264084067582
20
187.866568950105
30
0.0
11
215.264084067582
21
186.533235616772
31
0.0
0
LINE
5
a58
100
AcDbEntity
8
3-0
6
CONTINUOUS
62
7
100
AcDbLine
10
211.930750734248
20
188.991568950105
30
0.0
11
212.430750734248
21
188.991568950105
31
0.0
0
LINE
5
a59
100
AcDbEntity
8
3-0
6
CONTINUOUS
62
7
100
AcDbLine
10
211.930750734248
20
185.408235616772
30
0.0
11
212.430750734248
21
185.408235616772
31
0.0
0
LINE
5
a5a
100
AcDbEntity
8
3-0
6
CONTINUOUS
62
7
100
AcDbLine
10
212.430750734248
20
187.305564716141
30
0.0
11
211.930750734248
21
187.594239850736
31
0.0
0
LINE
5
a5b
100
AcDbEntity
8
3-0
6
CONTINUOUS
62
7
100
AcDbLine
10
212.430750734248
20
186.805564716141
30
0.0
11
211.930750734248
21
187.094239850736
31
0.0
0
LINE
5
a5c
100
AcDbEntity
8
3-0
6
CENTER
62
4
100
AcDbLine
10
209.777210471396
20
187.199902283438
30
0.0
11
216.907218519421
21
187.199902283438
31
0.0
0
LINE
5
a5d
100
AcDbEntity
8
3-0
6
CONTINUOUS
62
2
100
AcDbLine
10
201.314066181463
20
193.199901733572
30
0.0
11
201.314066181463
21
194.199905032770
31
0.0
0
LINE
5
a5e
100
AcDbEntity
8
3-0
6
CONTINUOUS
62
2
100
AcDbLine
10
201.314066181463
20
193.199901733572
30
0.0
11
212.315351647218
21
193.199901733572
31
0.0
0
LINE
5
a5f
100
AcDbEntity
8
3-0
6
CONTINUOUS
62
2
100
AcDbLine
10
201.314066181463
20
194.199905032770
30
0.0
11
212.314067281196
21
194.199905032770
31
0.0
0
LINE
5
a60
100
AcDbEntity
8
3-0
6
CONTINUOUS
62
4
100
AcDbLine
10
201.314165157392
20
194.979439449999
30
0.0
11
201.314165157392
21
232.729386189033
31
0.0
0
LINE
5
a61
100
AcDbEntity
8
3-0
6
CONTINUOUS
62
4
100
AcDbLine
10
201.314165157392
20
231.729382889835
30
0.0
11
203.246026828634
21
232.247026998788
31
0.0
0
LINE
5
a62
100
AcDbEntity
8
3-0
6
CONTINUOUS
62
4
100
AcDbLine
10
201.314165157392
20
231.729382889835
30
0.0
11
203.246026828634
21
231.211738780882
31
0.0
0
LINE
5
a63
100
AcDbEntity
8
3-0
6
CONTINUOUS
62
4
100
AcDbLine
10
201.314165157392
20
231.729382889835
30
0.0
11
227.480831824059
21
231.729382889835
31
0.0
0
LINE
5
a64
100
AcDbEntity
8
3-0
6
CONTINUOUS
62
4
100
AcDbLine
10
207.212085482388
20
191.308471729349
30
0.0
11
207.212085482388
21
192.799940004265
31
0.0
0
LINE
5
a65
100
AcDbEntity
8
3-0
6
CONTINUOUS
62
4
100
AcDbLine
10
203.749561068325
20
191.308471729349
30
0.0
11
203.749561068325
21
192.799940004265
31
0.0
0
LINE
5
a66
100
AcDbEntity
8
3-0
6
CONTINUOUS
62
4
100
AcDbLine
10
203.980793582578
20
191.174903713091
30
0.0
11
206.980852968135
21
191.174903713091
31
0.0
0
LINE
5
a67
100
AcDbEntity
8
3-0
6
CONTINUOUS
62
4
100
AcDbLine
10
204.616392254981
20
191.308471729349
30
0.0
11
204.616392254981
21
192.799940004265
31
0.0
0
LINE
5
a68
100
AcDbEntity
8
3-0
6
CONTINUOUS
62
4
100
AcDbLine
10
206.345254295732
20
191.308471729349
30
0.0
11
206.345254295732
21
192.799940004265
31
0.0
0
LINE
5
a69
100
AcDbEntity
8
3-0
6
CONTINUOUS
62
4
100
AcDbLine
10
203.980793582578
20
191.174903713091
30
0.0
11
203.848289557557
21
191.251412106249
31
0.0
0
LINE
5
a6a
100
AcDbEntity
8
3-0
6
CONTINUOUS
62
4
100
AcDbLine
10
206.980852968135
20
191.174903713091
30
0.0
11
207.113307505192
21
191.251412106249
31
0.0
0
LINE
5
a6b
100
AcDbEntity
8
3-0
6
CONTINUOUS
62
4
100
AcDbLine
10
204.480844720141
20
190.324873690392
30
0.0
11
204.480844720141
21
191.174903713091
31
0.0
0
LINE
5
a6c
100
AcDbEntity
8
3-0
6
CONTINUOUS
62
4
100
AcDbLine
10
206.480801830572
20
190.324873690392
30
0.0
11
206.480801830572
21
191.174903713091
31
0.0
0
LINE
5
a6d
100
AcDbEntity
8
3-0
6
CONTINUOUS
62
4
100
AcDbLine
10
203.314141212434
20
192.799940004265
30
0.0
11
203.314141212434
21
193.199901733572
31
0.0
0
LINE
5
a6e
100
AcDbEntity
8
3-0
6
CONTINUOUS
62
4
100
AcDbLine
10
207.647505338279
20
192.799940004265
30
0.0
11
203.314141212434
21
192.799940004265
31
0.0
0
LINE
5
a6f
100
AcDbEntity
8
3-0
6
CONTINUOUS
62
4
100
AcDbLine
10
207.647505338279
20
192.799940004265
30
0.0
11
207.647505338279
21
193.199901733572
31
0.0
0
LINE
5
a70
100
AcDbEntity
8
3-0
6
CONTINUOUS
62
4
100
AcDbLine
10
204.480844720141
20
190.324873690392
30
0.0
11
206.480801830572
21
190.324873690392
31
0.0
0
LINE
5
a71
100
AcDbEntity
8
3-0
6
CONTINUOUS
62
4
100
AcDbLine
10
204.855839771345
20
190.324873690392
30
0.0
11
204.855839771345
21
191.174903713091
31
0.0
0
LINE
5
a72
100
AcDbEntity
8
3-0
6
CONTINUOUS
62
4
100
AcDbLine
10
206.105806779368
20
190.324873690392
30
0.0
11
206.105806779368
21
191.174903713091
31
0.0
0
POLYLINE
5
a73
100
AcDbEntity
8
3-0
6
CONTINUOUS
62
  4
100
AcDb2dPolyline
66
1
10
0.0
20
0.0
30
0.0
70
0
0
VERTEX
5
a74
100
AcDbEntity
8
3-0
6
CONTINUOUS
62
  4
100
AcDbVertex
100
AcDb2dVertex
10
204.480844720141
20
198.797497773215
30
0.0
0
VERTEX
5
a75
100
AcDbEntity
8
3-0
6
CONTINUOUS
62
  4
100
AcDbVertex
100
AcDb2dVertex
10
203.980843070542
20
204.699939674345
30
0.0
0
VERTEX
5
a76
100
AcDbEntity
8
3-0
6
CONTINUOUS
62
  4
100
AcDbVertex
100
AcDb2dVertex
10
204.980846369740
20
204.699939674345
30
0.0
0
SEQEND
5
a77
100
AcDbEntity
8
3-0
0
LINE
5
a78
100
AcDbEntity
8
3-0
6
CONTINUOUS
62
4
100
AcDbLine
10
205.480823275356
20
198.797497773215
30
0.0
11
204.980846369740
21
204.699939674345
31
0.0
0
LINE
5
a79
100
AcDbEntity
8
3-0
6
CONTINUOUS
62
4
100
AcDbLine
10
204.480844720141
20
198.797497773215
30
0.0
11
206.480801830572
21
198.797497773215
31
0.0
0
LINE
5
a7a
100
AcDbEntity
8
3-0
6
CONTINUOUS
62
4
100
AcDbLine
10
204.409408843346
20
199.640723200791
30
0.0
11
205.409387398562
21
199.640723200791
31
0.0
0
LINE
5
a7b
100
AcDbEntity
8
3-0
6
CONTINUOUS
62
4
100
AcDbLine
10
204.337972966552
20
200.483899140403
30
0.0
11
205.337951521767
21
200.483899140403
31
0.0
0
LINE
5
a7c
100
AcDbEntity
8
3-0
6
CONTINUOUS
62
4
100
AcDbLine
10
204.266561833739
20
201.327124567979
30
0.0
11
205.266540388954
21
201.327124567979
31
0.0
0
LINE
5
a7d
100
AcDbEntity
8
3-0
6
CONTINUOUS
62
4
100
AcDbLine
10
204.195125956944
20
202.170312879581
30
0.0
11
205.195154000124
21
202.170312879581
31
0.0
0
LINE
5
a7e
100
AcDbEntity
8
3-0
6
CONTINUOUS
62
4
100
AcDbLine
10
204.123690080150
20
203.013538307157
30
0.0
11
205.123718123329
21
203.013538307157
31
0.0
0
LINE
5
a7f
100
AcDbEntity
8
3-0
6
CONTINUOUS
62
4
100
AcDbLine
10
204.052254203355
20
203.856714246769
30
0.0
11
205.052282246535
21
203.856714246769
31
0.0
0
POLYLINE
5
a80
100
AcDbEntity
8
3-0
6
CONTINUOUS
62
  4
100
AcDb2dPolyline
66
1
10
0.0
20
0.0
30
0.0
70
0
0
VERTEX
5
a81
100
AcDbEntity
8
3-0
6
CONTINUOUS
62
  4
100
AcDbVertex
100
AcDb2dVertex
10
206.480801830572
20
198.797497773215
30
0.0
0
VERTEX
5
a82
100
AcDbEntity
8
3-0
6
CONTINUOUS
62
  4
100
AcDbVertex
100
AcDb2dVertex
10
206.980803480171
20
204.699939674345
30
0.0
0
VERTEX
5
a83
100
AcDbEntity
8
3-0
6
CONTINUOUS
62
  4
100
AcDbVertex
100
AcDb2dVertex
10
205.980800180973
20
204.699939674345
30
0.0
0
SEQEND
5
a84
100
AcDbEntity
8
3-0
0
LINE
5
a85
100
AcDbEntity
8
3-0
6
CONTINUOUS
62
4
100
AcDbLine
10
205.480823275356
20
198.797497773215
30
0.0
11
205.980800180973
21
204.699939674345
31
0.0
0
LINE
5
a86
100
AcDbEntity
8
3-0
6
CONTINUOUS
62
4
100
AcDbLine
10
206.552237707367
20
199.640723200791
30
0.0
11
205.552259152151
21
199.640723200791
31
0.0
0
LINE
5
a87
100
AcDbEntity
8
3-0
6
CONTINUOUS
62
4
100
AcDbLine
10
206.623673584161
20
200.483899140403
30
0.0
11
205.623695028946
21
200.483899140403
31
0.0
0
LINE
5
a88
100
AcDbEntity
8
3-0
6
CONTINUOUS
62
4
100
AcDbLine
10
206.695084716974
20
201.327124567979
30
0.0
11
205.695106161759
21
201.327124567979
31
0.0
0
LINE
5
a89
100
AcDbEntity
8
3-0
6
CONTINUOUS
62
4
100
AcDbLine
10
206.766520593769
20
202.170312879581
30
0.0
11
205.766492550589
21
202.170312879581
31
0.0
0
LINE
5
a8a
100
AcDbEntity
8
3-0
6
CONTINUOUS
62
4
100
AcDbLine
10
206.837956470563
20
203.013538307157
30
0.0
11
205.837928427384
21
203.013538307157
31
0.0
0
LINE
5
a8b
100
AcDbEntity
8
3-0
6
CONTINUOUS
62
4
100
AcDbLine
10
206.909392347358
20
203.856714246769
30
0.0
11
205.909364304178
21
203.856714246769
31
0.0
0
LINE
5
a8c
100
AcDbEntity
8
3-0
6
CONTINUOUS
62
4
100
AcDbLine
10
206.480801830572
20
194.199905032770
30
0.0
11
206.480801830572
21
198.797497773215
31
0.0
0
LINE
5
a8d
100
AcDbEntity
8
3-0
6
CONTINUOUS
62
4
100
AcDbLine
10
204.480844720141
20
194.199905032770
30
0.0
11
204.480844720141
21
198.797497773215
31
0.0
0
ARC
5
a8e
100
AcDbEntity
8
3-0
6
CONTINUOUS
62
4
100
AcDbCircle
10
204.182951917671
20
191.945134392989
30
0.0
40
0.770239427283
100
AcDbArc
50
235.757293701172
51
304.243194580078
0
ARC
5
a8f
100
AcDbEntity
8
3-0
6
CONTINUOUS
62
4
100
AcDbCircle
10
205.480823275356
20
194.039984675401
30
0.0
40
2.865078255937
100
AcDbArc
50
252.439666748047
51
287.560333251953
0
ARC
5
a90
100
AcDbEntity
8
3-0
6
CONTINUOUS
62
4
100
AcDbCircle
10
206.778669889060
20
191.945134392989
30
0.0
40
0.770239427283
100
AcDbArc
50
235.756805419922
51
304.242706298828
0
ARC
5
a91
100
AcDbEntity
8
3-0
6
CONTINUOUS
62
4
100
AcDbCircle
10
205.480823275356
20
193.504673363112
30
0.0
40
3.333333376292
100
AcDbArc
50
252.542709350586
51
287.457290649414
0
LINE
5
a92
100
AcDbEntity
8
3-0
6
CENTER
62
4
100
AcDbLine
10
205.480823275356
20
189.681109503842
30
0.0
11
205.480823275356
21
205.316163808635
31
0.0
0
LINE
5
a93
100
AcDbEntity
8
3-0
6
CONTINUOUS
62
4
100
AcDbLine
10
205.480823275356
20
223.729381240236
30
0.0
11
227.480807080076
21
223.729381240236
31
0.0
0
LINE
5
a94
100
AcDbEntity
8
3-0
6
CONTINUOUS
62
4
100
AcDbLine
10
205.480823275356
20
206.910814489590
30
0.0
11
205.480823275356
21
224.729384539434
31
0.0
0
LINE
5
a95
100
AcDbEntity
8
3-0
6
CONTINUOUS
62
4
100
AcDbLine
10
205.480823275356
20
223.729381240236
30
0.0
11
207.412684946598
21
224.247025349189
31
0.0
0
LINE
5
a96
100
AcDbEntity
8
3-0
6
CONTINUOUS
62
4
100
AcDbLine
10
205.480823275356
20
223.729381240236
30
0.0
11
207.412684946598
21
223.211737131283
31
0.0
0
LINE
5
a97
100
AcDbEntity
8
3-0
6
CONTINUOUS
62
4
100
AcDbLine
10
214.257046516128
20
240.415447635882
30
0.0
11
243.600997127837
21
240.415447635882
31
0.0
0
TEXT
5
a98
100
AcDbEntity
8
3-0
62
3
370
-3
100
AcDbText
10
218.196
20
242.469
30
0.0
40
3.671
1
下部詳細図
41
0.856
50
0.000
100
AcDbText
0
MTEXT
5
a99
100
AcDbEntity
8
3-0
62
7
370
-3
100
AcDbMText
10
233.519
20
212.950
30
0.0
40
2.066
41
0.000
71
4
72
1
1
\W0.972;ゴム押え　{\W0.700;PL-6t(SUS304)}
7
STANDARD
11
1.00000
21
0.00000
31
0.0
0
MTEXT
5
a9a
100
AcDbEntity
8
3-0
62
7
370
-3
100
AcDbMText
10
233.519
20
204.950
30
0.0
40
2.066
41
0.000
71
4
72
1
1
\W0.972;皿ＢＴ＆ＮＴ{\W0.700;  M8}
7
STANDARD
11
1.00000
21
0.00000
31
0.0
0
MTEXT
5
a9b
100
AcDbEntity
8
3-0
62
7
370
-3
100
AcDbMText
10
233.519
20
220.950
30
0.0
40
2.066
41
0.000
71
4
72
1
1
\W0.972;水密ゴム　{\W0.700;P}型{\W0.700; }φ{\W0.700;25x65x10}
7
STANDARD
11
1.00000
21
0.00000
31
0.0
0
MTEXT
5
a9c
100
AcDbEntity
8
3-0
62
7
370
-3
100
AcDbMText
10
199.505
20
173.712
30
0.0
40
2.066
41
0.000
71
4
72
1
1
\W0.972;クサビ{\W0.700;(SUS304)}
7
STANDARD
11
1.00000
21
0.00000
31
0.0
0
TEXT
5
a9d
100
AcDbEntity
8
3-0
62
7
370
-3
100
AcDbText
10
260.014
20
170.192
30
0.0
40
2.188
41
0.856
50
90.000
1
水圧方向
72
0
11
259.114
21
170.088
31
0.0
100
AcDbText
73
2
0
TEXT
5
a9e
100
AcDbEntity
8
3-0
62
7
370
-3
100
AcDbText
10
212.551
20
232.628
30
0.0
40
2.188
41
0.600
50
0.000
1
157
72
1
11
214.501
21
232.385
31
0.0
100
AcDbText
73
1
0
TEXT
5
a9f
100
AcDbEntity
8
3-0
62
7
370
-3
100
AcDbText
10
214.635
20
224.628
30
0.0
40
2.188
41
0.569
50
0.000
1
132
72
1
11
216.585
21
224.385
31
0.0
100
AcDbText
73
1
0
TEXT
5
aa0
100
AcDbEntity
8
3-0
62
7
370
-3
100
AcDbText
10
220.451
20
217.128
30
0.0
40
2.188
41
0.581
50
0.000
1
70
72
1
11
221.751
21
216.885
31
0.0
100
AcDbText
73
1
0
TEXT
5
aa1
100
AcDbEntity
8
3-0
62
7
370
-3
100
AcDbText
10
251.842
20
233.128
30
0.0
40
2.188
41
0.856
50
0.000
1
Ａ
72
1
11
253.142
21
232.885
31
0.0
100
AcDbText
73
1
0
TEXT
5
aa2
100
AcDbEntity
8
3-0
62
7
370
-3
100
AcDbText
10
251.857
20
181.265
30
0.0
40
2.188
41
0.651
50
90.000
1
 t
72
1
11
252.100
21
182.565
31
0.0
100
AcDbText
73
1
0
LINE
5
aa3
100
AcDbEntity
8
3-0
6
CONTINUOUS
62
4
100
AcDbLine
10
219.605150896989
20
171.426385052829
30
0.0
11
197.877568902662
21
171.426385052829
31
0.0
0
LINE
5
aa4
100
AcDbEntity
8
3-0
6
CONTINUOUS
62
4
100
AcDbLine
10
231.786739940155
20
202.294100542409
30
0.0
11
267.380753616037
21
202.294100542409
31
0.0
0
LINE
5
aa5
100
AcDbEntity
8
3-0
6
CONTINUOUS
62
4
100
AcDbLine
10
231.786739940155
20
218.294103841607
30
0.0
11
267.380753616037
21
218.294103841607
31
0.0
0
LINE
5
aa6
100
AcDbEntity
8
3-0
6
CONTINUOUS
62
4
100
AcDbLine
10
231.786739940155
20
210.294077448026
30
0.0
11
267.380753616037
21
210.294077448026
31
0.0
0
LINE
5
aa7
100
AcDbEntity
8
3-0
6
CONTINUOUS
62
4
100
AcDbLine
10
227.480831824059
20
231.729382889835
30
0.0
11
267.930997876858
21
231.729382889835
31
0.0
0
LINE
5
aa8
100
AcDbEntity
8
1-6
6
CONTINUOUS
62
7
100
AcDbLine
10
120.631400000000
20
98.885700000000
30
0.0
11
119.631400000000
21
98.885700000000
31
0.0
0
LINE
5
aa9
100
AcDbEntity
8
1-6
6
CONTINUOUS
62
7
100
AcDbLine
10
120.631400000000
20
92.635700000000
30
0.0
11
119.631400000000
21
92.635700000000
31
0.0
0
LINE
5
aaa
100
AcDbEntity
8
1-6
6
CONTINUOUS
62
7
100
AcDbLine
10
120.631400000000
20
98.885700000000
30
0.0
11
120.631400000000
21
92.635700000000
31
0.0
0
LINE
5
aab
100
AcDbEntity
8
1-6
6
CONTINUOUS
62
4
100
AcDbLine
10
121.131426393581
20
98.885700000000
30
0.0
11
121.131426393581
21
92.635700000000
31
0.0
0
LINE
5
aac
100
AcDbEntity
8
1-6
6
CONTINUOUS
62
4
100
AcDbLine
10
120.631400000000
20
98.885700000000
30
0.0
11
120.631400000000
21
92.635700000000
31
0.0
0
LINE
5
aad
100
AcDbEntity
8
F-E_J_ADD
6
HIDDEN
62
4
100
AcDbLine
10
119.631400000000
20
92.635700000000
30
0.0
11
119.631400000000
21
98.885700000000
31
0.0
0
LINE
5
aae
100
AcDbEntity
8
1-6
6
CENTER
62
7
100
AcDbLine
10
121.825870838026
20
97.219033333333
30
0.0
11
119.214759726914
21
97.219033333333
31
0.0
0
LINE
5
aaf
100
AcDbEntity
8
1-6
6
CENTER
62
7
100
AcDbLine
10
121.825870838026
20
94.302366666667
30
0.0
11
119.214759726914
21
94.302366666667
31
0.0
0
LINE
5
ab0
100
AcDbEntity
8
1-6
6
CONTINUOUS
62
4
100
AcDbLine
10
126.881413746657
20
98.885700000000
30
0.0
11
126.881413746657
21
92.635700000000
31
0.0
0
LINE
5
ab1
100
AcDbEntity
8
1-6
6
CONTINUOUS
62
4
100
AcDbLine
10
120.631400000000
20
92.635700000000
30
0.0
11
126.881413746657
21
92.635700000000
31
0.0
0
LINE
5
ab2
100
AcDbEntity
8
1-6
6
CONTINUOUS
62
4
100
AcDbLine
10
120.631400000000
20
98.885700000000
30
0.0
11
126.881413746657
21
98.885700000000
31
0.0
0
LINE
5
ab3
100
AcDbEntity
8
F-E_J_ADD
6
HIDDEN
62
4
100
AcDbLine
10
126.881413746657
20
95.760700000000
30
0.0
11
119.631400000000
21
95.760700000000
31
0.0
0
POLYLINE
5
ab4
100
AcDbEntity
8
1-6
6
CONTINUOUS
62
  7
100
AcDb2dPolyline
66
1
10
0.0
20
0.0
30
0.0
70
0
0
VERTEX
5
ab5
100
AcDbEntity
8
1-6
6
CONTINUOUS
62
  7
100
AcDbVertex
100
AcDb2dVertex
10
125.254307045994
20
94.970451804670
30
0.0
0
VERTEX
5
ab6
100
AcDbEntity
8
1-6
6
CONTINUOUS
62
  7
100
AcDbVertex
100
AcDb2dVertex
10
124.341807061888
20
94.970451804670
30
0.0
0
VERTEX
5
ab7
100
AcDbEntity
8
1-6
6
CONTINUOUS
62
  7
100
AcDbVertex
100
AcDb2dVertex
10
123.885557030099
20
95.760700000000
30
0.0
0
VERTEX
5
ab8
100
AcDbEntity
8
1-6
6
CONTINUOUS
62
  7
100
AcDbVertex
100
AcDb2dVertex
10
124.341807061888
20
96.550948155594
30
0.0
0
VERTEX
5
ab9
100
AcDbEntity
8
1-6
6
CONTINUOUS
62
  7
100
AcDbVertex
100
AcDb2dVertex
10
125.254307045994
20
96.550948155594
30
0.0
0
VERTEX
5
aba
100
AcDbEntity
8
1-6
6
CONTINUOUS
62
  7
100
AcDbVertex
100
AcDb2dVertex
10
125.710556998310
20
95.760700000000
30
0.0
0
VERTEX
5
abb
100
AcDbEntity
8
1-6
6
CONTINUOUS
62
  7
100
AcDbVertex
100
AcDb2dVertex
10
125.254307045994
20
94.970451804670
30
0.0
0
SEQEND
5
abc
100
AcDbEntity
8
1-6
0
LINE
5
abd
100
AcDbEntity
8
1-6
6
CENTER
62
7
100
AcDbLine
10
123.468890363433
20
95.760700000000
30
0.0
11
126.127223744450
21
95.760700000000
31
0.0
0
LINE
5
abe
100
AcDbEntity
8
1-6
6
CENTER
62
7
100
AcDbLine
10
124.798057044007
20
96.967614782524
30
0.0
11
124.798057044007
21
94.553785138003
31
0.0
0
CIRCLE
5
abf
100
AcDbEntity
8
1-6
6
CONTINUOUS
62
7
100
AcDbCircle
10
124.798057044007
20
95.760700000000
30
0.0
40
0.750000000000
0
CIRCLE
5
ac0
100
AcDbEntity
8
1-6
6
CONTINUOUS
62
7
100
AcDbCircle
10
124.798057044007
20
95.760700000000
30
0.0
40
0.420833349228
0
CIRCLE
5
ac1
100
AcDbEntity
8
1-6
6
DASHED2
62
7
100
AcDbCircle
10
124.798057044007
20
95.760700000000
30
0.0
40
0.500000000000
0
LINE
5
ac2
100
AcDbEntity
8
1-6
6
CONTINUOUS
62
7
100
AcDbLine
10
120.631400000000
20
146.885700000000
30
0.0
11
119.631400000000
21
146.885700000000
31
0.0
0
LINE
5
ac3
100
AcDbEntity
8
1-6
6
CONTINUOUS
62
7
100
AcDbLine
10
120.631400000000
20
140.635700000000
30
0.0
11
119.631400000000
21
140.635700000000
31
0.0
0
LINE
5
ac4
100
AcDbEntity
8
1-6
6
CONTINUOUS
62
7
100
AcDbLine
10
120.631400000000
20
146.885700000000
30
0.0
11
120.631400000000
21
140.635700000000
31
0.0
0
LINE
5
ac5
100
AcDbEntity
8
1-6
6
CONTINUOUS
62
4
100
AcDbLine
10
121.131426393581
20
146.885700000000
30
0.0
11
121.131426393581
21
140.635700000000
31
0.0
0
LINE
5
ac6
100
AcDbEntity
8
1-6
6
CONTINUOUS
62
4
100
AcDbLine
10
120.631400000000
20
146.885700000000
30
0.0
11
120.631400000000
21
140.635700000000
31
0.0
0
LINE
5
ac7
100
AcDbEntity
8
F-E_J_ADD
6
HIDDEN
62
4
100
AcDbLine
10
119.631400000000
20
140.635700000000
30
0.0
11
119.631400000000
21
146.885700000000
31
0.0
0
LINE
5
ac8
100
AcDbEntity
8
1-6
6
CENTER
62
7
100
AcDbLine
10
121.825870838026
20
145.219033333333
30
0.0
11
119.214759726914
21
145.219033333333
31
0.0
0
LINE
5
ac9
100
AcDbEntity
8
1-6
6
CENTER
62
7
100
AcDbLine
10
121.825870838026
20
142.302366666667
30
0.0
11
119.214759726914
21
142.302366666667
31
0.0
0
LINE
5
aca
100
AcDbEntity
8
1-6
6
CONTINUOUS
62
4
100
AcDbLine
10
126.881413746657
20
146.885700000000
30
0.0
11
126.881413746657
21
140.635700000000
31
0.0
0
LINE
5
acb
100
AcDbEntity
8
1-6
6
CONTINUOUS
62
4
100
AcDbLine
10
120.631400000000
20
140.635700000000
30
0.0
11
126.881413746657
21
140.635700000000
31
0.0
0
LINE
5
acc
100
AcDbEntity
8
1-6
6
CONTINUOUS
62
4
100
AcDbLine
10
120.631400000000
20
146.885700000000
30
0.0
11
126.881413746657
21
146.885700000000
31
0.0
0
LINE
5
acd
100
AcDbEntity
8
F-E_J_ADD
6
HIDDEN
62
4
100
AcDbLine
10
126.881413746657
20
143.760700000000
30
0.0
11
119.631400000000
21
143.760700000000
31
0.0
0
POLYLINE
5
ace
100
AcDbEntity
8
1-6
6
CONTINUOUS
62
  7
100
AcDb2dPolyline
66
1
10
0.0
20
0.0
30
0.0
70
0
0
VERTEX
5
acf
100
AcDbEntity
8
1-6
6
CONTINUOUS
62
  7
100
AcDbVertex
100
AcDb2dVertex
10
125.254307045994
20
142.970451804670
30
0.0
0
VERTEX
5
ad0
100
AcDbEntity
8
1-6
6
CONTINUOUS
62
  7
100
AcDbVertex
100
AcDb2dVertex
10
124.341807061888
20
142.970451804670
30
0.0
0
VERTEX
5
ad1
100
AcDbEntity
8
1-6
6
CONTINUOUS
62
  7
100
AcDbVertex
100
AcDb2dVertex
10
123.885557030099
20
143.760700000000
30
0.0
0
VERTEX
5
ad2
100
AcDbEntity
8
1-6
6
CONTINUOUS
62
  7
100
AcDbVertex
100
AcDb2dVertex
10
124.341807061888
20
144.550948155594
30
0.0
0
VERTEX
5
ad3
100
AcDbEntity
8
1-6
6
CONTINUOUS
62
  7
100
AcDbVertex
100
AcDb2dVertex
10
125.254307045994
20
144.550948155594
30
0.0
0
VERTEX
5
ad4
100
AcDbEntity
8
1-6
6
CONTINUOUS
62
  7
100
AcDbVertex
100
AcDb2dVertex
10
125.710556998310
20
143.760700000000
30
0.0
0
VERTEX
5
ad5
100
AcDbEntity
8
1-6
6
CONTINUOUS
62
  7
100
AcDbVertex
100
AcDb2dVertex
10
125.254307045994
20
142.970451804670
30
0.0
0
SEQEND
5
ad6
100
AcDbEntity
8
1-6
0
LINE
5
ad7
100
AcDbEntity
8
1-6
6
CENTER
62
7
100
AcDbLine
10
123.468890363433
20
143.760700000000
30
0.0
11
126.127223744450
21
143.760700000000
31
0.0
0
LINE
5
ad8
100
AcDbEntity
8
1-6
6
CENTER
62
7
100
AcDbLine
10
124.798057044007
20
144.967614782524
30
0.0
11
124.798057044007
21
142.553785138003
31
0.0
0
CIRCLE
5
ad9
100
AcDbEntity
8
1-6
6
CONTINUOUS
62
7
100
AcDbCircle
10
124.798057044007
20
143.760700000000
30
0.0
40
0.750000000000
0
CIRCLE
5
ada
100
AcDbEntity
8
1-6
6
CONTINUOUS
62
7
100
AcDbCircle
10
124.798057044007
20
143.760700000000
30
0.0
40
0.420833349228
0
CIRCLE
5
adb
100
AcDbEntity
8
1-6
6
DASHED2
62
7
100
AcDbCircle
10
124.798057044007
20
143.760700000000
30
0.0
40
0.500000000000
0
LINE
5
adc
100
AcDbEntity
8
1-6
6
CONTINUOUS
62
7
100
AcDbLine
10
59.431500000000
20
146.885700000000
30
0.0
11
60.431500000000
21
146.885700000000
31
0.0
0
LINE
5
add
100
AcDbEntity
8
1-6
6
CONTINUOUS
62
7
100
AcDbLine
10
59.431500000000
20
140.635700000000
30
0.0
11
60.431500000000
21
140.635700000000
31
0.0
0
LINE
5
ade
100
AcDbEntity
8
1-6
6
CONTINUOUS
62
7
100
AcDbLine
10
59.431500000000
20
146.885700000000
30
0.0
11
59.431500000000
21
140.635700000000
31
0.0
0
LINE
5
adf
100
AcDbEntity
8
1-6
6
CONTINUOUS
62
4
100
AcDbLine
10
58.931473606419
20
146.885700000000
30
0.0
11
58.931473606419
21
140.635700000000
31
0.0
0
LINE
5
ae0
100
AcDbEntity
8
1-6
6
CONTINUOUS
62
4
100
AcDbLine
10
59.431500000000
20
146.885700000000
30
0.0
11
59.431500000000
21
140.635700000000
31
0.0
0
LINE
5
ae1
100
AcDbEntity
8
F-E_J_ADD
6
HIDDEN
62
4
100
AcDbLine
10
60.431500000000
20
140.635700000000
30
0.0
11
60.431500000000
21
146.885700000000
31
0.0
0
LINE
5
ae2
100
AcDbEntity
8
1-6
6
CENTER
62
7
100
AcDbLine
10
58.237029161974
20
145.219033333333
30
0.0
11
60.848140273086
21
145.219033333333
31
0.0
0
LINE
5
ae3
100
AcDbEntity
8
1-6
6
CENTER
62
7
100
AcDbLine
10
58.237029161974
20
142.302366666667
30
0.0
11
60.848140273086
21
142.302366666667
31
0.0
0
LINE
5
ae4
100
AcDbEntity
8
1-6
6
CONTINUOUS
62
4
100
AcDbLine
10
53.181486253343
20
146.885700000000
30
0.0
11
53.181486253343
21
140.635700000000
31
0.0
0
LINE
5
ae5
100
AcDbEntity
8
1-6
6
CONTINUOUS
62
4
100
AcDbLine
10
59.431500000000
20
140.635700000000
30
0.0
11
53.181486253343
21
140.635700000000
31
0.0
0
LINE
5
ae6
100
AcDbEntity
8
1-6
6
CONTINUOUS
62
4
100
AcDbLine
10
59.431500000000
20
146.885700000000
30
0.0
11
53.181486253343
21
146.885700000000
31
0.0
0
LINE
5
ae7
100
AcDbEntity
8
F-E_J_ADD
6
HIDDEN
62
4
100
AcDbLine
10
53.181486253343
20
143.760700000000
30
0.0
11
60.431500000000
21
143.760700000000
31
0.0
0
POLYLINE
5
ae8
100
AcDbEntity
8
1-6
6
CONTINUOUS
62
  7
100
AcDb2dPolyline
66
1
10
0.0
20
0.0
30
0.0
70
0
0
VERTEX
5
ae9
100
AcDbEntity
8
1-6
6
CONTINUOUS
62
  7
100
AcDbVertex
100
AcDb2dVertex
10
54.808592954006
20
142.970451804670
30
0.0
0
VERTEX
5
aea
100
AcDbEntity
8
1-6
6
CONTINUOUS
62
  7
100
AcDbVertex
100
AcDb2dVertex
10
55.721092938112
20
142.970451804670
30
0.0
0
VERTEX
5
aeb
100
AcDbEntity
8
1-6
6
CONTINUOUS
62
  7
100
AcDbVertex
100
AcDb2dVertex
10
56.177342969901
20
143.760700000000
30
0.0
0
VERTEX
5
aec
100
AcDbEntity
8
1-6
6
CONTINUOUS
62
  7
100
AcDbVertex
100
AcDb2dVertex
10
55.721092938112
20
144.550948155594
30
0.0
0
VERTEX
5
aed
100
AcDbEntity
8
1-6
6
CONTINUOUS
62
  7
100
AcDbVertex
100
AcDb2dVertex
10
54.808592954006
20
144.550948155594
30
0.0
0
VERTEX
5
aee
100
AcDbEntity
8
1-6
6
CONTINUOUS
62
  7
100
AcDbVertex
100
AcDb2dVertex
10
54.352343001690
20
143.760700000000
30
0.0
0
VERTEX
5
aef
100
AcDbEntity
8
1-6
6
CONTINUOUS
62
  7
100
AcDbVertex
100
AcDb2dVertex
10
54.808592954006
20
142.970451804670
30
0.0
0
SEQEND
5
af0
100
AcDbEntity
8
1-6
0
LINE
5
af1
100
AcDbEntity
8
1-6
6
CENTER
62
7
100
AcDbLine
10
56.594009636567
20
143.760700000000
30
0.0
11
53.935676255550
21
143.760700000000
31
0.0
0
LINE
5
af2
100
AcDbEntity
8
1-6
6
CENTER
62
7
100
AcDbLine
10
55.264842955993
20
144.967614782524
30
0.0
11
55.264842955993
21
142.553785138003
31
0.0
0
CIRCLE
5
af3
100
AcDbEntity
8
1-6
6
CONTINUOUS
62
7
100
AcDbCircle
10
55.264842955993
20
143.760700000000
30
0.0
40
0.750000000000
0
CIRCLE
5
af4
100
AcDbEntity
8
1-6
6
CONTINUOUS
62
7
100
AcDbCircle
10
55.264842955993
20
143.760700000000
30
0.0
40
0.420833349228
0
CIRCLE
5
af5
100
AcDbEntity
8
1-6
6
DASHED2
62
7
100
AcDbCircle
10
55.264842955993
20
143.760700000000
30
0.0
40
0.500000000000
0
LINE
5
af6
100
AcDbEntity
8
1-6
6
CONTINUOUS
62
7
100
AcDbLine
10
59.431500000000
20
98.885700000000
30
0.0
11
60.431500000000
21
98.885700000000
31
0.0
0
LINE
5
af7
100
AcDbEntity
8
1-6
6
CONTINUOUS
62
7
100
AcDbLine
10
59.431500000000
20
92.635700000000
30
0.0
11
60.431500000000
21
92.635700000000
31
0.0
0
LINE
5
af8
100
AcDbEntity
8
1-6
6
CONTINUOUS
62
7
100
AcDbLine
10
59.431500000000
20
98.885700000000
30
0.0
11
59.431500000000
21
92.635700000000
31
0.0
0
LINE
5
af9
100
AcDbEntity
8
1-6
6
CONTINUOUS
62
4
100
AcDbLine
10
58.931473606419
20
98.885700000000
30
0.0
11
58.931473606419
21
92.635700000000
31
0.0
0
LINE
5
afa
100
AcDbEntity
8
1-6
6
CONTINUOUS
62
4
100
AcDbLine
10
59.431500000000
20
98.885700000000
30
0.0
11
59.431500000000
21
92.635700000000
31
0.0
0
LINE
5
afb
100
AcDbEntity
8
F-E_J_ADD
6
HIDDEN
62
4
100
AcDbLine
10
60.431500000000
20
92.635700000000
30
0.0
11
60.431500000000
21
98.885700000000
31
0.0
0
LINE
5
afc
100
AcDbEntity
8
1-6
6
CENTER
62
7
100
AcDbLine
10
58.237029161974
20
97.219033333333
30
0.0
11
60.848140273086
21
97.219033333333
31
0.0
0
LINE
5
afd
100
AcDbEntity
8
1-6
6
CENTER
62
7
100
AcDbLine
10
58.237029161974
20
94.302366666667
30
0.0
11
60.848140273086
21
94.302366666667
31
0.0
0
LINE
5
afe
100
AcDbEntity
8
1-6
6
CONTINUOUS
62
4
100
AcDbLine
10
53.181486253343
20
98.885700000000
30
0.0
11
53.181486253343
21
92.635700000000
31
0.0
0
LINE
5
aff
100
AcDbEntity
8
1-6
6
CONTINUOUS
62
4
100
AcDbLine
10
59.431500000000
20
92.635700000000
30
0.0
11
53.181486253343
21
92.635700000000
31
0.0
0
LINE
5
b00
100
AcDbEntity
8
1-6
6
CONTINUOUS
62
4
100
AcDbLine
10
59.431500000000
20
98.885700000000
30
0.0
11
53.181486253343
21
98.885700000000
31
0.0
0
LINE
5
b01
100
AcDbEntity
8
F-E_J_ADD
6
HIDDEN
62
4
100
AcDbLine
10
53.181486253343
20
95.760700000000
30
0.0
11
60.431500000000
21
95.760700000000
31
0.0
0
POLYLINE
5
b02
100
AcDbEntity
8
1-6
6
CONTINUOUS
62
  7
100
AcDb2dPolyline
66
1
10
0.0
20
0.0
30
0.0
70
0
0
VERTEX
5
b03
100
AcDbEntity
8
1-6
6
CONTINUOUS
62
  7
100
AcDbVertex
100
AcDb2dVertex
10
54.808592954006
20
94.970451804670
30
0.0
0
VERTEX
5
b04
100
AcDbEntity
8
1-6
6
CONTINUOUS
62
  7
100
AcDbVertex
100
AcDb2dVertex
10
55.721092938112
20
94.970451804670
30
0.0
0
VERTEX
5
b05
100
AcDbEntity
8
1-6
6
CONTINUOUS
62
  7
100
AcDbVertex
100
AcDb2dVertex
10
56.177342969901
20
95.760700000000
30
0.0
0
VERTEX
5
b06
100
AcDbEntity
8
1-6
6
CONTINUOUS
62
  7
100
AcDbVertex
100
AcDb2dVertex
10
55.721092938112
20
96.550948155594
30
0.0
0
VERTEX
5
b07
100
AcDbEntity
8
1-6
6
CONTINUOUS
62
  7
100
AcDbVertex
100
AcDb2dVertex
10
54.808592954006
20
96.550948155594
30
0.0
0
VERTEX
5
b08
100
AcDbEntity
8
1-6
6
CONTINUOUS
62
  7
100
AcDbVertex
100
AcDb2dVertex
10
54.352343001690
20
95.760700000000
30
0.0
0
VERTEX
5
b09
100
AcDbEntity
8
1-6
6
CONTINUOUS
62
  7
100
AcDbVertex
100
AcDb2dVertex
10
54.808592954006
20
94.970451804670
30
0.0
0
SEQEND
5
b0a
100
AcDbEntity
8
1-6
0
LINE
5
b0b
100
AcDbEntity
8
1-6
6
CENTER
62
7
100
AcDbLine
10
56.594009636567
20
95.760700000000
30
0.0
11
53.935676255550
21
95.760700000000
31
0.0
0
LINE
5
b0c
100
AcDbEntity
8
1-6
6
CENTER
62
7
100
AcDbLine
10
55.264842955993
20
96.967614782524
30
0.0
11
55.264842955993
21
94.553785138003
31
0.0
0
CIRCLE
5
b0d
100
AcDbEntity
8
1-6
6
CONTINUOUS
62
7
100
AcDbCircle
10
55.264842955993
20
95.760700000000
30
0.0
40
0.750000000000
0
CIRCLE
5
b0e
100
AcDbEntity
8
1-6
6
CONTINUOUS
62
7
100
AcDbCircle
10
55.264842955993
20
95.760700000000
30
0.0
40
0.420833349228
0
CIRCLE
5
b0f
100
AcDbEntity
8
1-6
6
DASHED2
62
7
100
AcDbCircle
10
55.264842955993
20
95.760700000000
30
0.0
40
0.500000000000
0
LINE
5
b10
100
AcDbEntity
8
1-E
6
CONTINUOUS
62
4
100
AcDbLine
10
127.365386883699
20
143.760700000000
30
0.0
11
138.831500000000
21
143.760700000000
31
0.0
0
LINE
5
b11
100
AcDbEntity
8
1-E
6
CONTINUOUS
62
4
100
AcDbLine
10
127.365386883699
20
95.760700000000
30
0.0
11
138.831500000000
21
95.760700000000
31
0.0
0
LINE
5
b12
100
AcDbEntity
8
F-E_J_ADD
6
HIDDEN
62
3
100
AcDbLine
10
400.000000000000
20
14.000000000000
30
0.0
11
400.000000000000
21
22.999900000000
31
0.0
0
LINE
5
b13
100
AcDbEntity
8
F-E_J_ADD
6
HIDDEN
62
3
100
AcDbLine
10
341.500000000000
20
18.499950000000
30
0.0
11
405.000000000000
21
18.499950000000
31
0.0
0
TEXT
5
b14
100
AcDbEntity
8
0-0
62
7
370
-3
100
AcDbText
10
399.321
20
16.666
30
0.0
40
2.719
41
0.860
50
0.000
1
1
72
1
11
400.000
21
17.785
31
0.0
100
AcDbText
73
2
0
TEXT
5
b15
100
AcDbEntity
8
1-8
62
7
370
-3
100
AcDbText
10
301.364
20
35.007
30
0.0
40
3.626
1
図示
41
0.856
50
0.000
100
AcDbText
0
TEXT
5
b16
100
AcDbEntity
8
0-0
62
7
370
-3
100
AcDbText
10
312.210
20
45.507
30
0.0
40
3.626
41
0.856
50
0.000
1
標準図
72
1
11
318.500
21
47.000
31
0.0
100
AcDbText
73
2
0
TEXT
5
b17
100
AcDbEntity
8
1-8
62
7
370
-3
100
AcDbText
10
324.960
20
26.007
30
0.0
40
3.626
41
0.710
50
0.000
1
R5.6.1
72
1
11
331.250
21
27.500
31
0.0
100
AcDbText
73
2
0
TEXT
5
b18
100
AcDbEntity
8
1-8
62
7
370
-3
100
AcDbText
10
351.364
20
27.007
30
0.0
40
3.626
41
0.856
50
0.000
1
熊崎
72
1
11
355.500
21
28.500
31
0.0
100
AcDbText
73
2
0
TEXT
5
b19
100
AcDbEntity
8
1-8
62
7
370
-3
100
AcDbText
10
372.114
20
27.007
30
0.0
40
3.626
41
0.856
50
0.000
1
井福
72
1
11
376.250
21
28.500
31
0.0
100
AcDbText
73
2
0
TEXT
5
b1a
100
AcDbEntity
8
1-8
62
7
370
-3
100
AcDbText
10
392.864
20
27.007
30
0.0
40
3.626
41
0.856
50
0.000
1
平川
72
1
11
397.000
21
28.500
31
0.0
100
AcDbText
73
2
0
LINE
5
b1b
100
AcDbEntity
8
F-F_J_ADD
6
DOT
62
109
100
AcDbLine
10
0.000000000000
20
297.000000000000
30
0.0
11
420.000000000000
21
297.000000000000
31
0.0
0
POLYLINE
5
b1c
100
AcDbEntity
8
F-F_J_ADD
6
DOT
62
109
100
AcDb2dPolyline
66
1
10
0.0
20
0.0
30
0.0
70
0
0
VERTEX
5
b1d
100
AcDbEntity
8
F-F_J_ADD
6
DOT
62
109
100
AcDbVertex
100
AcDb2dVertex
10
0.000000000000
20
297.000000000000
30
0.0
0
VERTEX
5
b1e
100
AcDbEntity
8
F-F_J_ADD
6
DOT
62
109
100
AcDbVertex
100
AcDb2dVertex
10
0.000000000000
20
0.000000000000
30
0.0
0
VERTEX
5
b1f
100
AcDbEntity
8
F-F_J_ADD
6
DOT
62
109
100
AcDbVertex
100
AcDb2dVertex
10
420.000000000000
20
0.000000000000
30
0.0
0
SEQEND
5
b20
100
AcDbEntity
8
F-F_J_ADD
0
LINE
5
b21
100
AcDbEntity
8
F-F_J_ADD
6
DOT
62
109
100
AcDbLine
10
420.000000000000
20
297.000000000000
30
0.0
11
420.000000000000
21
0.000000000000
31
0.0
0
ENDSEC
 0
SECTION
  2
OBJECTS
 0
DICTIONARY
  5
C
100
AcDbDictionary
  3
ACAD_GROUP
350
D
  3
ACAD_MLINESTYLE
350
E
 0
DICTIONARY
  5
D
102
{ACAD_REACTORS
102
}
100
AcDbDictionary
 0
DICTIONARY
  5
E
102
{ACAD_REACTORS
102
}
100
AcDbDictionary
  3
STANDARD
350
13
0
MLINESTYLE
  5
13
102
{ACAD_REACTORS
102
}
100
AcDbMlineStyle
  2
STANDARD
 70
    0
3

62
256
51
90.0
52
90.0
71
0
0
ACDBPLACEHOLDER
  5
14
102
{ACAD_REACTORS
102
}
0
ENDSEC
0
EOF
