0
SECTION
2
HEADER
9
$ACADVER
1
AC1015
9
$ACADMAINTVER
 70
6
9
$DWGCODEPAGE
3
ANSI_932
9
$EXTMIN
10
0.000
20
0.000
30
0.0
9
$EXTMAX
10
4200.000
20
2970.000
30
0.0
9
$LIMMIN
10
0.000
20
0.000
9
$LIMMAX
10
4200.000
20
2970.000
9
$DIMSCALE
40
10.000000
9
$LTSCALE
40
10.000
9
$PDMODE
70
0
9
$PDSIZE
40
40.0
9
$HANDSEED
5
61f51
9
$UNITMODE
70
0
9
$VISRETAIN
70
0
9
$PLINEGEN
70
0
9
$PSLTSCALE
70
1
9
$TREEDEPTH
70
3020
9
$CMLSTYLE
2
STANDARD
9
$CMLJUST
70
0
9
$CMLSCALE
40
1.0
9
$PROXYGRAPHICS
70
1
9
$MEASUREMENT
70
0
9
$CELWEIGHT
370
-1
9
$ENDCAPS
280
0
9
$JOINSTYLE
280
0
9
$LWDISPLAY
290
0
9
$INSUNITS
70
0
9
$HYPERLINKBASE
1

9
$STYLESHEET
1

9
$XEDIT
290
1
9
$CEPSNTYPE
380
0
9
$PSTYLEMODE
290
1
9
$FINGERPRINTGUID
2
{5F082321-0195-11D3-BDFB-0060B0CD5109}
9
$VERSIONGUID
2
{12943756-294D-11D3-98C2-0060B087942D}
9
$EXTNAMES
290
1
9
$PSVPSCALE
40
0.0
9
$OLESTARTUP
290
0
0
ENDSEC
0
SECTION
  2
CLASSES
0
ENDSEC
0
SECTION
2
TABLES
0
TABLE
2
VPORT
5
190
100
AcDbSymbolTable
70
2
0
VPORT
5
191
100
AcDbSymbolTableRecord
100
AcDbViewportTableRecord
2
*ACTIVE
70
0
10
0.0
20
0.0
11
1.0
21
1.0
12
2100.000
22
1485.000
13
0.0
23
0.0
14
1.0
24
1.0
15
0.0
25
0.0
16
0.0
26
0.0
36
1.0
17
0.0
27
0.0
37
0.0
40
3043.478
41
2.0
42
50.0
43
0.0
44
0.0
50
0.0
51
0.0
71
0
72
1000
73
1
74
1
75
0
76
0
77
0
78
0
0
ENDTAB
0
TABLE
2
LTYPE
5
1f4
100
AcDbSymbolTable
70
9
0
LTYPE
5
1f5
100
AcDbSymbolTableRecord
100
AcDbLinetypeTableRecord
2
BYBLOCK
70
 64
3

72
 65
73
  0
40
0.0
0
LTYPE
5
1f6
100
AcDbSymbolTableRecord
100
AcDbLinetypeTableRecord
2
BYLAYER
70
 64
3

72
 65
73
  0
40
0.0
0
LTYPE
5
1f7
100
AcDbSymbolTableRecord
100
AcDbLinetypeTableRecord
2
CONTINUOUS
70
64
3
SolidLine
72
65
73
0
40
0.0
0
LTYPE
5
1f8
100
AcDbSymbolTableRecord
100
AcDbLinetypeTableRecord
2
DOT
70
64
3
--  --  --  --  --  --  --  --     
72
65
73
2
40
3.000
49
1.000
74
0
49
-2.000
74
0
0
LTYPE
5
1f9
100
AcDbSymbolTableRecord
100
AcDbLinetypeTableRecord
2
DASHED
70
64
3
----    ----    ----    ----    
72
65
73
2
40
5.000
49
2.000
74
0
49
-3.000
74
0
0
LTYPE
5
1fa
100
AcDbSymbolTableRecord
100
AcDbLinetypeTableRecord
2
DASHED2
70
64
3
------  ------  ------  ------ 
72
65
73
2
40
10.000
49
4.000
74
0
49
-6.000
74
0
0
LTYPE
5
1fb
100
AcDbSymbolTableRecord
100
AcDbLinetypeTableRecord
2
CENTER
70
64
3
----- - ----- - ----- - ----- - 
72
65
73
4
40
10.000
49
6.000
74
0
49
-3.000
74
0
49
1.000
74
0
49
-3.000
74
0
0
LTYPE
5
1fc
100
AcDbSymbolTableRecord
100
AcDbLinetypeTableRecord
2
CENTER2
70
64
3
----------  --  ----------  -- 
72
65
73
4
40
17.000
49
12.000
74
0
49
-5.000
74
0
49
2.000
74
0
49
-5.000
74
0
0
LTYPE
5
1fd
100
AcDbSymbolTableRecord
100
AcDbLinetypeTableRecord
2
PHANTOM
70
64
3
--- - - --- - - --- - - --- - -
72
65
73
6
40
13.000
49
5.000
74
0
49
-3.000
74
0
49
1.000
74
0
49
-3.000
74
0
49
1.000
74
0
49
-3.000
74
0
0
LTYPE
5
1fe
100
AcDbSymbolTableRecord
100
AcDbLinetypeTableRecord
2
PHANTOM2
70
64
3
--------  -  -  --------  -  -
72
65
73
6
40
20.000
49
6.000
74
0
49
-5.000
74
0
49
2.000
74
0
49
-5.000
74
0
49
2.000
74
0
49
-5.000
74
0
0
LTYPE
5
1ff
100
AcDbSymbolTableRecord
100
AcDbLinetypeTableRecord
2
HIDDEN
70
64
3
-   -   -   -   -   -   -   -   
72
65
73
2
40
3.000
49
0.500
74
0
49
-2.500
74
0
0
ENDTAB
0
TABLE
2
STYLE
5
200
100
AcDbSymbolTable
70
1
0
STYLE
5
201
100
AcDbSymbolTableRecord
100
AcDbTextStyleTableRecord
2
STANDARD
70
0
40
0.0
41
1.0
50
0.0
71
0
42
0.0
3
txt.shx
4
extfont.shx
0
STYLE
5
202
100
AcDbSymbolTableRecord
100
AcDbTextStyleTableRecord
2
TATEGAKI
70
4
40
0.0
41
1.0
50
0.0
71
0
42
0.0
3
txt.shx
4
extfont.shx
0
STYLE
5
203
100
AcDbSymbolTableRecord
100
AcDbTextStyleTableRecord
2
DIM
70
0
40
0.0
41
0.75
50
0.0
71
0
42
0.0
3
txt.shx
4
extfont.shx
0
STYLE
5
204
100
AcDbSymbolTableRecord
100
AcDbTextStyleTableRecord
2
_Gothic_
70
0
40
1.0
41
1.0
50
0.0
71
0
42
10.0
3

4

1001
ACAD
1000
MS Gothic
1071
32817
0
STYLE
5
205
100
AcDbSymbolTableRecord
100
AcDbTextStyleTableRecord
2
_TateGothic_
70
4
40
0.0
41
1.0
50
0.0
71
0
42
0.0
3
@MS Gothic
4

0
ENDTAB
0
TABLE
2
VIEW
5
206
100
AcDbSymbolTable
70
0
0
ENDTAB
0
TABLE
2
UCS
5
207
100
AcDbSymbolTable
70
0
0
ENDTAB
0
TABLE
2
APPID
5
208
100
AcDbSymbolTable
70
1
0
APPID
5
209
100
AcDbSymbolTableRecord
100
AcDbRegAppTableRecord
2
ACAD
70
0
0
ENDTAB
0
TABLE
2
DIMSTYLE
5
403
330
0
100
AcDbSymbolTable
70
1
100
AcDbDimStyleTable
71
0
0
DIMSTYLE
105
404
330
402
100
AcDbSymbolTableRecord
100
AcDbDimStyleTableRecord
2
JAC_DIM
70
0
41
20.000
42
0.000
44
0.0
73
0
74
0
77
1
78
8
79
2
140
0.000
170
0
171
2
172
0
173
0
174
0
175
0
176
0
177
0
178
0
270
2
271
0
272
0
273
2
274
2
340
201
275
0
280
0
281
0
282
0
283
0
284
0
285
0
286
0
287
3
288
0
0
ENDTAB
0
TABLE
2
BLOCK_RECORD
5
405
100
AcDbSymbolTable
70
0
0
BLOCK_RECORD
5
406
100
AcDbSymbolTableRecord
100
AcDbBlockTableRecord
2
*MODEL_SPACE
0
BLOCK_RECORD
5
407
100
AcDbSymbolTableRecord
100
AcDbBlockTableRecord
2
*PAPER_SPACE
0
BLOCK_RECORD
5
408
100
AcDbSymbolTableRecord
100
AcDbBlockTableRecord
2
_JACCONVERT_
0
ENDTAB
0
TABLE
2
LAYER
5
409
100
AcDbSymbolTable
70
10
0
LAYER
5
40a
100
AcDbSymbolTableRecord
100
AcDbLayerTableRecord
2
0
70
0
62
7
6
CONTINUOUS
370
-3
390
14
0
LAYER
5
40b
100
AcDbSymbolTableRecord
100
AcDbLayerTableRecord
2
0-1_J_POINT
70
0
62
7
6
CONTINUOUS
370
-3
390
14
0
LAYER
5
40c
100
AcDbSymbolTableRecord
100
AcDbLayerTableRecord
2
0-3RC
70
0
62
7
6
CONTINUOUS
370
-3
390
14
0
LAYER
5
40d
100
AcDbSymbolTableRecord
100
AcDbLayerTableRecord
2
0-4陰線
70
0
62
7
6
CONTINUOUS
370
-3
390
14
0
LAYER
5
40e
100
AcDbSymbolTableRecord
100
AcDbLayerTableRecord
2
0-5基準線
70
0
62
7
6
CONTINUOUS
370
-3
390
14
0
LAYER
5
40f
100
AcDbSymbolTableRecord
100
AcDbLayerTableRecord
2
0-6戸当り
70
0
62
7
6
CONTINUOUS
370
-3
390
14
0
LAYER
5
410
100
AcDbSymbolTableRecord
100
AcDbLayerTableRecord
2
0-7図枠
70
0
62
7
6
CONTINUOUS
370
-3
390
14
0
LAYER
5
411
100
AcDbSymbolTableRecord
100
AcDbLayerTableRecord
2
0-8寸法
70
0
62
7
6
CONTINUOUS
370
-3
390
14
0
LAYER
5
412
100
AcDbSymbolTableRecord
100
AcDbLayerTableRecord
2
0-9扉体
70
0
62
7
6
CONTINUOUS
370
-3
390
14
0
LAYER
5
413
100
AcDbSymbolTableRecord
100
AcDbLayerTableRecord
2
0-A文字
70
0
62
7
6
CONTINUOUS
370
-3
390
14
0
LAYER
5
414
100
AcDbSymbolTableRecord
100
AcDbLayerTableRecord
2
F-F_J_ADD
70
0
62
-7
6
CONTINUOUS
290
0
370
-3
390
14
0
ENDTAB
0
ENDSEC
0
SECTION
2
BLOCKS
0
BLOCK
5
415
100
AcDbEntity
67
1
8
0
100
AcDbBlockBegin
2
*MODEL_SPACE
70
0
10
0.0
20
0.0
30
0.0
3
*MODEL_SPACE
1

0
ENDBLK
5
416
100
AcDbEntity
8
0
100
AcDbBlockEnd
0
BLOCK
5
417
100
AcDbEntity
67
1
8
0
100
AcDbBlockBegin
2
*PAPER_SPACE
70
0
10
0.0
20
0.0
30
0.0
3
*PAPER_SPACE
1

0
ENDBLK
5
418
100
AcDbEntity
67
1
8
0
100
AcDbBlockEnd
0
BLOCK
5
419
100
AcDbEntity
8
0
100
AcDbBlockBegin
2
_JACCONVERT_
70
2
10
0.0
20
0.0
30
0.0
3
_JACCONVERT_
1
_JACCONVERT_
0
ATTDEF
5
41a
100
AcDbEntity
8
0
62
0
100
AcDbText
10
0.0
20
0.0
30
0.0
40
1.0
1
User:33307E08109409567083093083089083760830E50960850900C608B4808D6408F6408F4F08E
100
AcDbAttributeDefinition
3

2
USER
70
8
0
ATTDEF
5
41b
100
AcDbEntity
8
0
62
0
100
AcDbText
10
0.0
20
2.0
30
0.0
40
1.0
1
Date:24/01/30 10:44
100
AcDbAttributeDefinition
3

2
REVDATE
70
8
0
ATTDEF
5
41c
100
AcDbEntity
8
0
62
0
100
AcDbText
10
0.0
20
4.0
30
0.0
40
1.0
1
File:_MFR-A0303.dxf
100
AcDbAttributeDefinition
3

2
FNAME
70
8
0
ATTDEF
5
41d
100
AcDbEntity
8
0
62
0
100
AcDbText
10
0.0
20
6.0
30
0.0
40
1.0
1
JacConvert Version3.13p copyright (c) 2001-2021 K.Nakahara
100
AcDbAttributeDefinition
3

2
VER
70
8
0
ENDBLK
5
41e
100
AcDbEntity
67
1
8
0
100
AcDbBlockEnd
0
ENDSEC
0
SECTION
2
ENTITIES
0
LINE
5
41f
100
AcDbEntity
8
0-8寸法
6
CONTINUOUS
62
4
100
AcDbLine
10
2586.166000000000
20
875.166000000000
30
0.0
11
2833.118000000000
21
875.166000000000
31
0.0
0
LINE
5
420
100
AcDbEntity
8
0-3RC
6
CONTINUOUS
62
7
100
AcDbLine
10
2373.118000000000
20
875.166000000000
30
0.0
11
2573.118000000000
21
875.166000000000
31
0.0
0
LINE
5
421
100
AcDbEntity
8
0-7図枠
6
CONTINUOUS
62
3
100
AcDbLine
10
2900.001000000000
20
530.000000000000
30
0.0
11
2900.001000000000
21
140.000000000000
31
0.0
0
ELLIPSE
  5
422
100
AcDbEntity
8
0-7図枠
6
CONTINUOUS
62
3
100
AcDbEllipse
10
2944.994000000000
20
179.029000000000
30
0.0
11
30.000000000000
21
0.000000000000
31
0.0
210
0.0
220
0.0
230
1.0
40
0.833300000000
41
0.000000000000
42
6.283185307180
0
ELLIPSE
  5
423
100
AcDbEntity
8
0-7図枠
6
CONTINUOUS
62
3
100
AcDbEllipse
10
2944.994000000000
20
179.029000000000
30
0.0
11
30.000000000000
21
0.000000000000
31
0.0
210
0.0
220
0.0
230
1.0
40
0.833300000000
41
0.000000000000
42
6.283185307180
0
LINE
5
424
100
AcDbEntity
8
0-7図枠
6
CONTINUOUS
62
3
100
AcDbLine
10
2900.001000000000
20
530.000000000000
30
0.0
11
4050.001000000000
21
530.000000000000
31
0.0
0
LINE
5
425
100
AcDbEntity
8
0-7図枠
6
CONTINUOUS
62
3
100
AcDbLine
10
2900.001000000000
20
230.000000000000
30
0.0
11
4050.001000000000
21
230.000000000000
31
0.0
0
LINE
5
426
100
AcDbEntity
8
0-7図枠
6
CONTINUOUS
62
3
100
AcDbLine
10
3475.001000000000
20
530.000000000000
30
0.0
11
3475.001000000000
21
140.000000000000
31
0.0
0
LINE
5
427
100
AcDbEntity
8
0-7図枠
6
CONTINUOUS
62
3
100
AcDbLine
10
3415.001000000000
20
530.000000000000
30
0.0
11
3415.001000000000
21
140.000000000000
31
0.0
0
LINE
5
428
100
AcDbEntity
8
0-7図枠
6
CONTINUOUS
62
3
100
AcDbLine
10
3950.001000000000
20
230.000000000000
30
0.0
11
3950.001000000000
21
140.000000000000
31
0.0
0
LINE
5
429
100
AcDbEntity
8
0-7図枠
6
CONTINUOUS
62
3
100
AcDbLine
10
4050.001000000000
20
2840.000000000000
30
0.0
11
4050.001000000000
21
140.000000000000
31
0.0
0
LINE
5
42a
100
AcDbEntity
8
0-7図枠
6
CONTINUOUS
62
3
100
AcDbLine
10
3635.001000000000
20
340.000000000000
30
0.0
11
3635.001000000000
21
230.000000000000
31
0.0
0
LINE
5
42b
100
AcDbEntity
8
0-7図枠
6
CONTINUOUS
62
3
100
AcDbLine
10
3685.001000000000
20
340.000000000000
30
0.0
11
3685.001000000000
21
230.000000000000
31
0.0
0
LINE
5
42c
100
AcDbEntity
8
0-7図枠
6
CONTINUOUS
62
3
100
AcDbLine
10
3840.001000000000
20
340.000000000000
30
0.0
11
3840.001000000000
21
230.000000000000
31
0.0
0
LINE
5
42d
100
AcDbEntity
8
0-7図枠
6
CONTINUOUS
62
3
100
AcDbLine
10
3890.001000000000
20
340.000000000000
30
0.0
11
3890.001000000000
21
230.000000000000
31
0.0
0
LINE
5
42e
100
AcDbEntity
8
0-7図枠
6
CONTINUOUS
62
3
100
AcDbLine
10
3415.001000000000
20
340.000000000000
30
0.0
11
4050.001000000000
21
340.000000000000
31
0.0
0
LINE
5
42f
100
AcDbEntity
8
0-7図枠
6
CONTINUOUS
62
3
100
AcDbLine
10
2900.001000000000
20
320.000000000000
30
0.0
11
3415.001000000000
21
320.000000000000
31
0.0
0
LINE
5
430
100
AcDbEntity
8
0-7図枠
6
CONTINUOUS
62
3
100
AcDbLine
10
2900.001000000000
20
410.000000000000
30
0.0
11
3415.001000000000
21
410.000000000000
31
0.0
0
LINE
5
431
100
AcDbEntity
8
0-7図枠
6
CONTINUOUS
62
3
100
AcDbLine
10
2955.000000000000
20
530.000000000000
30
0.0
11
2955.000000000000
21
230.000000000000
31
0.0
0
LINE
5
432
100
AcDbEntity
8
0-7図枠
6
CONTINUOUS
62
3
100
AcDbLine
10
3210.001000000000
20
410.000000000000
30
0.0
11
3210.001000000000
21
230.000000000000
31
0.0
0
LINE
5
433
100
AcDbEntity
8
0-7図枠
6
CONTINUOUS
62
3
100
AcDbLine
10
3155.001000000000
20
410.000000000000
30
0.0
11
3155.001000000000
21
230.000000000000
31
0.0
0
LINE
5
434
100
AcDbEntity
8
0-7図枠
6
CONTINUOUS
62
3
100
AcDbLine
10
3965.001000000000
20
155.000000000000
30
0.0
11
4000.001000000000
21
215.622000000000
31
0.0
0
LINE
5
435
100
AcDbEntity
8
0-7図枠
6
CONTINUOUS
62
3
100
AcDbLine
10
4035.001000000000
20
155.000000000000
30
0.0
11
4000.001000000000
21
215.622000000000
31
0.0
0
LINE
5
436
100
AcDbEntity
8
0-7図枠
6
CONTINUOUS
62
3
100
AcDbLine
10
3965.001000000000
20
155.000000000000
30
0.0
11
4035.001000000000
21
155.000000000000
31
0.0
0
LINE
5
437
100
AcDbEntity
8
0-7図枠
6
CONTINUOUS
62
3
100
AcDbLine
10
2923.409000000000
20
179.944000000000
30
0.0
11
2956.058000000000
21
161.094000000000
31
0.0
0
LINE
5
438
100
AcDbEntity
8
0-7図枠
6
CONTINUOUS
62
3
100
AcDbLine
10
2933.654000000001
20
182.689000000000
30
0.0
11
2963.414000000000
21
165.507000000000
31
0.0
0
LINE
5
439
100
AcDbEntity
8
0-7図枠
6
CONTINUOUS
62
3
100
AcDbLine
10
2943.899000000000
20
185.434000000000
30
0.0
11
2968.127000000000
21
171.446000000000
31
0.0
0
LINE
5
43a
100
AcDbEntity
8
0-7図枠
6
CONTINUOUS
62
3
100
AcDbLine
10
2926.238000000000
20
180.702000000000
30
0.0
11
2919.994000000000
21
179.029000000000
31
0.0
0
LINE
5
43b
100
AcDbEntity
8
0-7図枠
6
CONTINUOUS
62
3
100
AcDbLine
10
2933.826000000000
20
179.703000000000
30
0.0
11
2961.278000000000
21
163.854000000000
31
0.0
0
LINE
5
43c
100
AcDbEntity
8
0-7図枠
6
CONTINUOUS
62
3
100
AcDbLine
10
2944.072000000000
20
182.448000000000
30
0.0
11
2966.839000000000
21
169.303000000000
31
0.0
0
LINE
5
43d
100
AcDbEntity
8
0-7図枠
6
CONTINUOUS
62
3
100
AcDbLine
10
2954.317000000000
20
185.193000000000
30
0.0
11
2969.756000000000
21
176.279000000000
31
0.0
0
LINE
5
43e
100
AcDbEntity
8
0-7図枠
6
CONTINUOUS
62
3
100
AcDbLine
10
2936.483000000000
20
183.447000000000
30
0.0
11
2928.710000000000
21
181.364000000000
31
0.0
0
LINE
5
43f
100
AcDbEntity
8
0-7図枠
6
CONTINUOUS
62
3
100
AcDbLine
10
2946.728000000000
20
186.192000000000
30
0.0
11
2939.183000000000
21
184.171000000000
31
0.0
0
POLYLINE
5
440
100
AcDbEntity
8
0-4陰線
6
DOT
62
109
100
AcDb2dPolyline
66
1
10
0.0
20
0.0
30
0.0
70
0
0
VERTEX
5
441
100
AcDbEntity
8
0-4陰線
6
DOT
62
109
100
AcDbVertex
100
AcDb2dVertex
10
0.000000000000
20
2970.000000000000
30
0.0
0
VERTEX
5
442
100
AcDbEntity
8
0-4陰線
6
DOT
62
109
100
AcDbVertex
100
AcDb2dVertex
10
4200.001000000000
20
2970.000000000000
30
0.0
0
VERTEX
5
443
100
AcDbEntity
8
0-4陰線
6
DOT
62
109
100
AcDbVertex
100
AcDb2dVertex
10
4200.001000000000
20
0.000000000000
30
0.0
0
SEQEND
5
444
100
AcDbEntity
8
0-4陰線
0
LINE
5
445
100
AcDbEntity
8
0-4陰線
6
DOT
62
109
100
AcDbLine
10
0.000000000000
20
0.000000000000
30
0.0
11
4200.001000000000
21
0.000000000000
31
0.0
0
LINE
5
446
100
AcDbEntity
8
0-4陰線
6
DOT
62
109
100
AcDbLine
10
0.000000000000
20
2970.000000000000
30
0.0
11
0.000000000000
21
0.000000000000
31
0.0
0
LINE
5
447
100
AcDbEntity
8
0-7図枠
6
CONTINUOUS
62
3
100
AcDbLine
10
4050.001000000000
20
140.000000000000
30
0.0
11
200.000000000000
21
140.000000000000
31
0.0
0
POLYLINE
5
448
100
AcDbEntity
8
0-7図枠
6
CONTINUOUS
62
  3
100
AcDb2dPolyline
66
1
10
0.0
20
0.0
30
0.0
70
0
0
VERTEX
5
449
100
AcDbEntity
8
0-7図枠
6
CONTINUOUS
62
  3
100
AcDbVertex
100
AcDb2dVertex
10
4050.001000000000
20
2840.000000000000
30
0.0
0
VERTEX
5
44a
100
AcDbEntity
8
0-7図枠
6
CONTINUOUS
62
  3
100
AcDbVertex
100
AcDb2dVertex
10
200.000000000000
20
2840.000000000000
30
0.0
0
VERTEX
5
44b
100
AcDbEntity
8
0-7図枠
6
CONTINUOUS
62
  3
100
AcDbVertex
100
AcDb2dVertex
10
200.000000000000
20
140.000000000000
30
0.0
0
SEQEND
5
44c
100
AcDbEntity
8
0-7図枠
0
LINE
5
44d
100
AcDbEntity
8
0-7図枠
6
CONTINUOUS
62
3
100
AcDbLine
10
3105.001000000000
20
2765.000000000000
30
0.0
11
4050.001000000000
21
2765.000000000000
31
0.0
0
LINE
5
44e
100
AcDbEntity
8
0-7図枠
6
CONTINUOUS
62
3
100
AcDbLine
10
3105.001000000000
20
2840.000000000000
30
0.0
11
3105.001000000000
21
2765.000000000000
31
0.0
0
LINE
5
44f
100
AcDbEntity
8
0-7図枠
6
CONTINUOUS
62
3
100
AcDbLine
10
3655.001000000000
20
2840.000000000000
30
0.0
11
3655.001000000000
21
2765.000000000000
31
0.0
0
LINE
5
450
100
AcDbEntity
8
0-7図枠
6
CONTINUOUS
62
3
100
AcDbLine
10
3855.001000000000
20
2840.000000000000
30
0.0
11
3855.001000000000
21
2765.000000000000
31
0.0
0
LINE
5
451
100
AcDbEntity
8
0-7図枠
6
CONTINUOUS
62
3
100
AcDbLine
10
3215.001000000000
20
2840.000000000000
30
0.0
11
3215.001000000000
21
2765.000000000000
31
0.0
0
LINE
5
452
100
AcDbEntity
8
0-7図枠
6
CONTINUOUS
62
4
100
AcDbLine
10
3055.000000000000
20
2425.001000000000
30
0.0
11
3864.998000000000
21
2425.001000000000
31
0.0
0
LINE
5
453
100
AcDbEntity
8
0-7図枠
6
CONTINUOUS
62
4
100
AcDbLine
10
3055.000000000000
20
2350.000000000000
30
0.0
11
3864.998000000000
21
2350.000000000000
31
0.0
0
LINE
5
454
100
AcDbEntity
8
0-7図枠
6
CONTINUOUS
62
4
100
AcDbLine
10
3055.000000000000
20
2290.001000000000
30
0.0
11
3864.998000000000
21
2290.001000000000
31
0.0
0
LINE
5
455
100
AcDbEntity
8
0-7図枠
6
CONTINUOUS
62
4
100
AcDbLine
10
3055.000000000000
20
2230.001000000000
30
0.0
11
3864.998000000000
21
2230.001000000000
31
0.0
0
LINE
5
456
100
AcDbEntity
8
0-7図枠
6
CONTINUOUS
62
4
100
AcDbLine
10
3055.000000000000
20
2170.000000000000
30
0.0
11
3864.998000000000
21
2170.000000000000
31
0.0
0
LINE
5
457
100
AcDbEntity
8
0-7図枠
6
CONTINUOUS
62
4
100
AcDbLine
10
3055.000000000000
20
2425.001000000000
30
0.0
11
3055.000000000000
21
2170.000000000000
31
0.0
0
LINE
5
458
100
AcDbEntity
8
0-7図枠
6
CONTINUOUS
62
4
100
AcDbLine
10
3864.998000000000
20
2425.001000000000
30
0.0
11
3864.998000000000
21
2170.000000000000
31
0.0
0
LINE
5
459
100
AcDbEntity
8
0-7図枠
6
CONTINUOUS
62
4
100
AcDbLine
10
3234.999000000000
20
2350.000000000000
30
0.0
11
3234.999000000000
21
2170.000000000000
31
0.0
0
LINE
5
45a
100
AcDbEntity
8
0-7図枠
6
CONTINUOUS
62
4
100
AcDbLine
10
3549.999000000000
20
2350.000000000000
30
0.0
11
3549.999000000000
21
2170.000000000000
31
0.0
0
ARC
5
45b
100
AcDbEntity
8
0-7図枠
6
CONTINUOUS
62
3
100
AcDbCircle
10
2928.826000000000
20
171.043000000000
30
0.0
40
10.000000000000
100
AcDbArc
50
60.000000000000
51
105.000000000000
0
ARC
5
45c
100
AcDbEntity
8
0-7図枠
6
CONTINUOUS
62
3
100
AcDbCircle
10
2939.071000000000
20
173.788000000000
30
0.0
40
10.000000000000
100
AcDbArc
50
60.000000000000
51
105.000000000000
0
ARC
5
45d
100
AcDbEntity
8
0-7図枠
6
CONTINUOUS
62
3
100
AcDbCircle
10
2949.316000000000
20
176.533000000000
30
0.0
40
10.000000000000
100
AcDbArc
50
60.000000000000
51
105.000000000000
0
ELLIPSE
  5
45e
100
AcDbEntity
8
0-7図枠
6
CONTINUOUS
62
3
100
AcDbEllipse
10
2944.994000000000
20
179.029000000000
30
0.0
11
25.000000000000
21
0.000000000000
31
0.0
210
0.0
220
0.0
230
1.0
40
0.800000000000
41
0.270792616483
42
6.145261525885
0
TEXT
5
45f
100
AcDbEntity
8
0-7図枠
62
7
370
-3
100
AcDbText
10
2998.956
20
170.639
30
0.0
40
37.807
1
三重重工業株式会社
41
0.856
50
0.000
100
AcDbText
0
TEXT
5
460
100
AcDbEntity
8
0-7図枠
62
7
370
-3
100
AcDbText
10
3128.899
20
2790.239
30
0.0
40
29.405
1
記号
41
0.856
50
0.000
100
AcDbText
0
TEXT
5
461
100
AcDbEntity
8
0-7図枠
62
7
370
-3
100
AcDbText
10
3281.399
20
2790.239
30
0.0
40
29.405
1
修　　　　　　　正
41
0.856
50
0.000
100
AcDbText
0
TEXT
5
462
100
AcDbEntity
8
0-7図枠
62
7
370
-3
100
AcDbText
10
3688.899
20
2790.239
30
0.0
40
29.405
1
日　　付
41
0.856
50
0.000
100
AcDbText
0
TEXT
5
463
100
AcDbEntity
8
0-7図枠
62
7
370
-3
100
AcDbText
10
3886.399
20
2790.239
30
0.0
40
29.405
1
担　　当
41
0.856
50
0.000
100
AcDbText
0
TEXT
5
464
100
AcDbEntity
8
0-7図枠
62
7
370
-3
100
AcDbText
10
2926.828
20
401.487
30
0.0
40
26.465
1
材質
41
0.856
50
360.000
  7
TATEGAKI
100
AcDbText
0
TEXT
5
465
100
AcDbEntity
8
0-7図枠
62
7
370
-3
100
AcDbText
10
2926.828
20
311.487
30
0.0
40
26.465
1
尺度
41
0.856
50
360.000
  7
TATEGAKI
100
AcDbText
0
TEXT
5
466
100
AcDbEntity
8
0-7図枠
62
7
370
-3
100
AcDbText
10
3719.370
20
269.432
30
0.0
40
37.807
41
0.856
50
0.000
1
井福
72
1
11
3762.501
21
285.000
31
0.0
100
AcDbText
73
2
0
TEXT
5
467
100
AcDbEntity
8
0-7図枠
62
7
370
-3
100
AcDbText
10
3000.638
20
349.432
30
0.0
40
37.807
41
0.530
50
0.000
1
A5083
72
1
11
3055.001
21
365.000
31
0.0
100
AcDbText
73
2
0
TEXT
5
468
100
AcDbEntity
8
0-7図枠
62
7
370
-3
100
AcDbText
10
3011.870
20
259.432
30
0.0
40
37.807
41
0.684
50
0.000
1
1/10
72
1
11
3055.001
21
275.000
31
0.0
100
AcDbText
73
2
0
TEXT
5
469
100
AcDbEntity
8
0-7図枠
62
7
370
-3
100
AcDbText
10
3181.829
20
401.487
30
0.0
40
26.465
1
数量
41
0.856
50
360.000
  7
TATEGAKI
100
AcDbText
0
TEXT
5
46a
100
AcDbEntity
8
0-7図枠
62
7
370
-3
100
AcDbText
10
3181.829
20
311.487
30
0.0
40
26.465
1
日付
41
0.856
50
360.000
  7
TATEGAKI
100
AcDbText
0
TEXT
5
46b
100
AcDbEntity
8
0-7図枠
62
7
370
-3
100
AcDbText
10
3444.328
20
488.959
30
0.0
40
26.465
1
名　称
41
0.856
50
360.000
  7
TATEGAKI
100
AcDbText
0
TEXT
5
46c
100
AcDbEntity
8
0-7図枠
62
7
370
-3
100
AcDbText
10
3444.328
20
321.487
30
0.0
40
26.465
1
承認
41
0.856
50
360.000
  7
TATEGAKI
100
AcDbText
0
TEXT
5
46d
100
AcDbEntity
8
0-7図枠
62
7
370
-3
100
AcDbText
10
3444.328
20
221.487
30
0.0
40
26.465
1
図番
41
0.856
50
360.000
  7
TATEGAKI
100
AcDbText
0
TEXT
5
46e
100
AcDbEntity
8
0-7図枠
62
7
370
-3
100
AcDbText
10
3659.328
20
321.487
30
0.0
40
26.465
1
検図
41
0.856
50
360.000
  7
TATEGAKI
100
AcDbText
0
TEXT
5
46f
100
AcDbEntity
8
0-7図枠
62
7
370
-3
100
AcDbText
10
3864.328
20
321.487
30
0.0
40
26.465
1
担当
41
0.856
50
360.000
  7
TATEGAKI
100
AcDbText
0
TEXT
5
470
100
AcDbEntity
8
0-7図枠
62
7
370
-3
100
AcDbText
10
3579.514
20
169.432
30
0.0
40
37.807
41
0.856
50
0.000
1
Ｋ－１１５１
72
1
11
3712.501
21
185.000
31
0.0
100
AcDbText
73
2
0
TEXT
5
471
100
AcDbEntity
8
0-7図枠
62
7
370
-3
100
AcDbText
10
3992.073
20
166.442
30
0.0
40
29.405
41
0.461
50
0.000
1
2
72
1
11
3999.411
21
178.550
31
0.0
100
AcDbText
73
2
0
TEXT
5
472
100
AcDbEntity
8
0-7図枠
62
7
370
-3
100
AcDbText
10
3511.871
20
269.432
30
0.0
40
37.807
41
0.856
50
0.000
1
熊崎
72
1
11
3555.002
21
285.000
31
0.0
100
AcDbText
73
2
0
TEXT
5
473
100
AcDbEntity
8
0-7図枠
62
7
370
-3
100
AcDbText
10
3926.870
20
269.432
30
0.0
40
37.807
41
0.856
50
0.000
1
平川
72
1
11
3970.001
21
285.000
31
0.0
100
AcDbText
73
2
0
LINE
5
474
100
AcDbEntity
8
F-F_J_ADD
6
HIDDEN
62
109
100
AcDbLine
10
2927.500500000000
20
530.000000000000
30
0.0
11
2927.500500000000
21
410.000000000000
31
0.0
0
LINE
5
475
100
AcDbEntity
8
F-F_J_ADD
6
HIDDEN
62
109
100
AcDbLine
10
2900.001000000000
20
470.000000000000
30
0.0
11
2955.000000000000
21
470.000000000000
31
0.0
0
LINE
5
476
100
AcDbEntity
8
F-F_J_ADD
6
HIDDEN
62
109
100
AcDbLine
10
2927.500500000000
20
230.000000000000
30
0.0
11
2927.500500000000
21
530.000000000000
31
0.0
0
LINE
5
477
100
AcDbEntity
8
F-F_J_ADD
6
HIDDEN
62
109
100
AcDbLine
10
3185.000500000000
20
410.000000000000
30
0.0
11
3185.000500000000
21
530.000000000000
31
0.0
0
LINE
5
478
100
AcDbEntity
8
F-F_J_ADD
6
HIDDEN
62
109
100
AcDbLine
10
3055.001000000000
20
230.000000000000
30
0.0
11
3055.001000000000
21
410.000000000000
31
0.0
0
LINE
5
479
100
AcDbEntity
8
F-F_J_ADD
6
HIDDEN
62
109
100
AcDbLine
10
3312.501000000000
20
230.000000000000
30
0.0
11
3312.501000000000
21
410.000000000000
31
0.0
0
LINE
5
47a
100
AcDbEntity
8
F-F_J_ADD
6
HIDDEN
62
109
100
AcDbLine
10
3415.000500000001
20
365.000000000000
30
0.0
11
2900.000500000000
21
365.000000000000
31
0.0
0
LINE
5
47b
100
AcDbEntity
8
F-F_J_ADD
6
HIDDEN
62
109
100
AcDbLine
10
2900.000500000000
20
470.000000000000
30
0.0
11
3415.000500000001
21
470.000000000000
31
0.0
0
LINE
5
47c
100
AcDbEntity
8
F-F_J_ADD
6
HIDDEN
62
109
100
AcDbLine
10
3415.000500000001
20
275.000000000000
30
0.0
11
2900.000500000000
21
275.000000000000
31
0.0
0
LINE
5
47d
100
AcDbEntity
8
F-F_J_ADD
6
HIDDEN
62
109
100
AcDbLine
10
3182.501500000000
20
230.000000000000
30
0.0
11
3182.501500000000
21
410.000000000000
31
0.0
0
LINE
5
47e
100
AcDbEntity
8
F-F_J_ADD
6
HIDDEN
62
109
100
AcDbLine
10
3445.001000000000
20
530.000000000000
30
0.0
11
3445.001000000000
21
140.000000000000
31
0.0
0
LINE
5
47f
100
AcDbEntity
8
F-F_J_ADD
6
HIDDEN
62
109
100
AcDbLine
10
3475.001500000000
20
435.000000000000
30
0.0
11
3415.000500000001
21
435.000000000000
31
0.0
0
LINE
5
480
100
AcDbEntity
8
F-F_J_ADD
6
HIDDEN
62
109
100
AcDbLine
10
3415.000500000001
20
285.000000000000
30
0.0
11
4050.000500000000
21
285.000000000000
31
0.0
0
LINE
5
481
100
AcDbEntity
8
F-F_J_ADD
6
HIDDEN
62
109
100
AcDbLine
10
4050.000500000000
20
185.000000000000
30
0.0
11
2900.000500000000
21
185.000000000000
31
0.0
0
LINE
5
482
100
AcDbEntity
8
F-F_J_ADD
6
HIDDEN
62
109
100
AcDbLine
10
3712.501000000000
20
140.000000000000
30
0.0
11
3712.501000000000
21
230.000000000000
31
0.0
0
LINE
5
483
100
AcDbEntity
8
F-F_J_ADD
6
HIDDEN
62
109
100
AcDbLine
10
3555.001500000000
20
230.000000000000
30
0.0
11
3555.001500000000
21
340.000000000000
31
0.0
0
LINE
5
484
100
AcDbEntity
8
F-F_J_ADD
6
HIDDEN
62
109
100
AcDbLine
10
3660.001000000000
20
340.000000000000
30
0.0
11
3660.001000000000
21
230.000000000000
31
0.0
0
LINE
5
485
100
AcDbEntity
8
F-F_J_ADD
6
HIDDEN
62
109
100
AcDbLine
10
3762.500500000001
20
340.000000000000
30
0.0
11
3762.500500000001
21
230.000000000000
31
0.0
0
LINE
5
486
100
AcDbEntity
8
F-F_J_ADD
6
HIDDEN
62
109
100
AcDbLine
10
3865.000500000001
20
230.000000000000
30
0.0
11
3865.000500000001
21
340.000000000000
31
0.0
0
LINE
5
487
100
AcDbEntity
8
F-F_J_ADD
6
HIDDEN
62
109
100
AcDbLine
10
3970.000500000001
20
340.000000000000
30
0.0
11
3970.000500000001
21
230.000000000000
31
0.0
0
TEXT
5
488
100
AcDbEntity
8
0-7図枠
62
7
370
-3
100
AcDbText
10
2926.828
20
506.487
30
0.0
40
26.465
1
客先
41
0.856
50
360.000
  7
TATEGAKI
100
AcDbText
0
POLYLINE
5
489
100
AcDbEntity
  8
0-8寸法
6
CONTINUOUS
62
2
100
AcDb2dPolyline
66
1
10
0
20
0
70
1
40
4.000
41
4.000
0
VERTEX
5
48a
100
AcDbEntity
  8
0-8寸法
6
CONTINUOUS
62
2
100
AcDbVertex
100
AcDb2dVertex
10
2371.118
20
975.166
30
0.0
42
1.000
0
VERTEX
5
48b
100
AcDbEntity
  8
0-8寸法
6
CONTINUOUS
62
2
100
AcDbVertex
100
AcDb2dVertex
10
2375.118
20
975.166
30
0.0
42
1.000
0
SEQEND
5
48c
100
AcDbEntity
  8
0-8寸法
0
POLYLINE
5
48d
100
AcDbEntity
  8
0-8寸法
6
CONTINUOUS
62
2
100
AcDb2dPolyline
66
1
10
0
20
0
70
1
40
4.000
41
4.000
0
VERTEX
5
48e
100
AcDbEntity
  8
0-8寸法
6
CONTINUOUS
62
2
100
AcDbVertex
100
AcDb2dVertex
10
2371.118
20
975.166
30
0.0
42
1.000
0
VERTEX
5
48f
100
AcDbEntity
  8
0-8寸法
6
CONTINUOUS
62
2
100
AcDbVertex
100
AcDb2dVertex
10
2375.118
20
975.166
30
0.0
42
1.000
0
SEQEND
5
490
100
AcDbEntity
  8
0-8寸法
0
LINE
5
491
100
AcDbEntity
8
0-3RC
6
CONTINUOUS
62
7
100
AcDbLine
10
2373.118000000000
20
725.166000000000
30
0.0
11
2498.118000000000
21
725.166000000000
31
0.0
0
POLYLINE
5
492
100
AcDbEntity
8
0-3RC
6
CONTINUOUS
62
  7
100
AcDb2dPolyline
66
1
10
0.0
20
0.0
30
0.0
70
0
0
VERTEX
5
493
100
AcDbEntity
8
0-3RC
6
CONTINUOUS
62
  7
100
AcDbVertex
100
AcDb2dVertex
10
2373.118000000000
20
1375.166000000000
30
0.0
0
VERTEX
5
494
100
AcDbEntity
8
0-3RC
6
CONTINUOUS
62
  7
100
AcDbVertex
100
AcDb2dVertex
10
2498.118000000000
20
1375.166000000000
30
0.0
0
VERTEX
5
495
100
AcDbEntity
8
0-3RC
6
CONTINUOUS
62
  7
100
AcDbVertex
100
AcDb2dVertex
10
2498.118000000000
20
725.166000000000
30
0.0
0
SEQEND
5
496
100
AcDbEntity
8
0-3RC
0
LINE
5
497
100
AcDbEntity
8
0-3RC
6
CONTINUOUS
62
7
100
AcDbLine
10
2373.118000000000
20
1175.166000000000
30
0.0
11
2573.118000000000
21
1175.166000000000
31
0.0
0
LINE
5
498
100
AcDbEntity
8
0-9扉体
6
CONTINUOUS
62
4
100
AcDbLine
10
1004.686000000000
20
1215.166000000000
30
0.0
11
1384.686000000000
21
1215.166000000000
31
0.0
0
LINE
5
499
100
AcDbEntity
8
0-9扉体
6
CONTINUOUS
62
4
100
AcDbLine
10
1064.686000000000
20
835.166000000000
30
0.0
11
1064.686000000000
21
1215.166000000000
31
0.0
0
LINE
5
49a
100
AcDbEntity
8
0-9扉体
6
CONTINUOUS
62
4
100
AcDbLine
10
1324.686000000000
20
1215.166000000000
30
0.0
11
1324.686000000000
21
835.166000000000
31
0.0
0
LINE
5
49b
100
AcDbEntity
8
0-9扉体
6
DOT
62
4
100
AcDbLine
10
1010.686000000000
20
835.166000000000
30
0.0
11
1010.686000000000
21
1215.166000000000
31
0.0
0
LINE
5
49c
100
AcDbEntity
8
0-9扉体
6
CONTINUOUS
62
4
100
AcDbLine
10
1324.686000000000
20
895.166000000000
30
0.0
11
1064.686000000000
21
895.166000000000
31
0.0
0
LINE
5
49d
100
AcDbEntity
8
0-9扉体
6
DOT
62
4
100
AcDbLine
10
1010.686000000000
20
1209.166000000000
30
0.0
11
1378.686000000000
21
1209.166000000000
31
0.0
0
LINE
5
49e
100
AcDbEntity
8
0-9扉体
6
CONTINUOUS
62
4
100
AcDbLine
10
1064.686000000000
20
1155.166000000000
30
0.0
11
1324.686000000000
21
1155.166000000000
31
0.0
0
LINE
5
49f
100
AcDbEntity
8
0-9扉体
6
CONTINUOUS
62
3
100
AcDbLine
10
1209.686000000000
20
1224.166000000000
30
0.0
11
1349.686000000000
21
1224.166000000000
31
0.0
0
LINE
5
4a0
100
AcDbEntity
8
0-9扉体
6
CONTINUOUS
62
3
100
AcDbLine
10
1209.686000000000
20
1224.166000000000
30
0.0
11
1209.686000000000
21
1215.166000000000
31
0.0
0
LINE
5
4a1
100
AcDbEntity
8
0-9扉体
6
CONTINUOUS
62
3
100
AcDbLine
10
1349.686000000000
20
1224.166000000000
30
0.0
11
1349.686000000000
21
1215.166000000000
31
0.0
0
LINE
5
4a2
100
AcDbEntity
8
0-9扉体
6
CONTINUOUS
62
4
100
AcDbLine
10
1349.686000000000
20
1220.166000000000
30
0.0
11
1389.686000000000
21
1220.166000000000
31
0.0
0
LINE
5
4a3
100
AcDbEntity
8
0-6戸当り
6
DOT
62
6
100
AcDbLine
10
1298.686000000000
20
1256.166000000000
30
0.0
11
1260.686000000000
21
1256.166000000000
31
0.0
0
LINE
5
4a4
100
AcDbEntity
8
0-6戸当り
6
CONTINUOUS
62
6
100
AcDbLine
10
1298.686000000000
20
1248.166000000000
30
0.0
11
1260.686000000000
21
1248.166000000000
31
0.0
0
LINE
5
4a5
100
AcDbEntity
8
0-6戸当り
6
CONTINUOUS
62
6
100
AcDbLine
10
1298.686000000000
20
1282.166000000000
30
0.0
11
1298.686000000000
21
1248.166000000000
31
0.0
0
POLYLINE
5
4a6
100
AcDbEntity
8
0-6戸当り
6
CONTINUOUS
62
  6
100
AcDb2dPolyline
66
1
10
0.0
20
0.0
30
0.0
70
0
0
VERTEX
5
4a7
100
AcDbEntity
8
0-6戸当り
6
CONTINUOUS
62
  6
100
AcDbVertex
100
AcDb2dVertex
10
1298.686000000000
20
1282.166000000000
30
0.0
0
VERTEX
5
4a8
100
AcDbEntity
8
0-6戸当り
6
CONTINUOUS
62
  6
100
AcDbVertex
100
AcDb2dVertex
10
1260.686000000000
20
1282.166000000000
30
0.0
0
VERTEX
5
4a9
100
AcDbEntity
8
0-6戸当り
6
CONTINUOUS
62
  6
100
AcDbVertex
100
AcDb2dVertex
10
1260.686000000000
20
1248.166000000000
30
0.0
0
SEQEND
5
4aa
100
AcDbEntity
8
0-6戸当り
0
LINE
5
4ab
100
AcDbEntity
8
0-9扉体
6
CONTINUOUS
62
6
100
AcDbLine
10
1312.286000000000
20
1281.166000000000
30
0.0
11
1312.286000000000
21
1249.166000000000
31
0.0
0
LINE
5
4ac
100
AcDbEntity
8
0-9扉体
6
CONTINUOUS
62
6
100
AcDbLine
10
1312.286000000000
20
1281.166000000000
30
0.0
11
1309.686000000000
21
1281.166000000000
31
0.0
0
LINE
5
4ad
100
AcDbEntity
8
0-9扉体
6
CONTINUOUS
62
6
100
AcDbLine
10
1312.286000000000
20
1249.166000000000
30
0.0
11
1309.686000000000
21
1249.166000000000
31
0.0
0
LINE
5
4ae
100
AcDbEntity
8
0-9扉体
6
CONTINUOUS
62
6
100
AcDbLine
10
1323.186000000000
20
1273.166000000000
30
0.0
11
1323.186000000000
21
1257.166000000000
31
0.0
0
LINE
5
4af
100
AcDbEntity
8
0-9扉体
6
CONTINUOUS
62
6
100
AcDbLine
10
1323.186000000000
20
1273.166000000000
30
0.0
11
1312.286000000000
21
1273.166000000000
31
0.0
0
LINE
5
4b0
100
AcDbEntity
8
0-9扉体
6
CONTINUOUS
62
6
100
AcDbLine
10
1323.186000000000
20
1257.166000000000
30
0.0
11
1312.286000000000
21
1257.166000000000
31
0.0
0
LINE
5
4b1
100
AcDbEntity
8
0-9扉体
6
CONTINUOUS
62
6
100
AcDbLine
10
1300.686000000000
20
1257.166000000000
30
0.0
11
1298.686000000000
21
1257.166000000000
31
0.0
0
LINE
5
4b2
100
AcDbEntity
8
0-6戸当り
6
DOT
62
6
100
AcDbLine
10
1298.686000000000
20
1274.166000000000
30
0.0
11
1260.686000000000
21
1274.166000000000
31
0.0
0
LINE
5
4b3
100
AcDbEntity
8
0-9扉体
6
CONTINUOUS
62
6
100
AcDbLine
10
1300.686000000000
20
1273.166000000000
30
0.0
11
1298.686000000000
21
1273.166000000000
31
0.0
0
LINE
5
4b4
100
AcDbEntity
8
0-9扉体
6
CONTINUOUS
62
6
100
AcDbLine
10
1247.086000000000
20
1281.166000000000
30
0.0
11
1247.086000000000
21
1249.166000000000
31
0.0
0
LINE
5
4b5
100
AcDbEntity
8
0-9扉体
6
CONTINUOUS
62
6
100
AcDbLine
10
1247.086000000000
20
1281.166000000000
30
0.0
11
1249.686000000000
21
1281.166000000000
31
0.0
0
LINE
5
4b6
100
AcDbEntity
8
0-9扉体
6
CONTINUOUS
62
6
100
AcDbLine
10
1247.086000000000
20
1249.166000000000
30
0.0
11
1249.686000000000
21
1249.166000000000
31
0.0
0
LINE
5
4b7
100
AcDbEntity
8
0-9扉体
6
CONTINUOUS
62
6
100
AcDbLine
10
1236.186000000000
20
1273.166000000000
30
0.0
11
1236.186000000000
21
1257.166000000000
31
0.0
0
LINE
5
4b8
100
AcDbEntity
8
0-9扉体
6
CONTINUOUS
62
6
100
AcDbLine
10
1236.186000000000
20
1273.166000000000
30
0.0
11
1247.086000000000
21
1273.166000000000
31
0.0
0
LINE
5
4b9
100
AcDbEntity
8
0-9扉体
6
CONTINUOUS
62
6
100
AcDbLine
10
1236.186000000000
20
1257.166000000000
30
0.0
11
1247.086000000000
21
1257.166000000000
31
0.0
0
LINE
5
4ba
100
AcDbEntity
8
0-9扉体
6
CONTINUOUS
62
6
100
AcDbLine
10
1258.686000000000
20
1257.166000000000
30
0.0
11
1260.686000000000
21
1257.166000000000
31
0.0
0
LINE
5
4bb
100
AcDbEntity
8
0-9扉体
6
CONTINUOUS
62
6
100
AcDbLine
10
1258.686000000000
20
1273.166000000000
30
0.0
11
1260.686000000000
21
1273.166000000000
31
0.0
0
LINE
5
4bc
100
AcDbEntity
8
0-9扉体
6
CONTINUOUS
62
4
100
AcDbLine
10
999.686000000000
20
1220.166000000000
30
0.0
11
1039.686000000000
21
1220.166000000000
31
0.0
0
LINE
5
4bd
100
AcDbEntity
8
0-9扉体
6
CONTINUOUS
62
4
100
AcDbLine
10
1179.686000000000
20
1220.166000000000
30
0.0
11
1209.686000000000
21
1220.166000000000
31
0.0
0
LINE
5
4be
100
AcDbEntity
8
0-3RC
6
CONTINUOUS
62
7
100
AcDbLine
10
1494.686000000000
20
725.166000000000
30
0.0
11
894.686000000000
21
725.166000000000
31
0.0
0
LINE
5
4bf
100
AcDbEntity
8
0-3RC
6
CONTINUOUS
62
7
100
AcDbLine
10
1494.686000000000
20
1375.166000000000
30
0.0
11
1494.686000000000
21
725.166000000000
31
0.0
0
POLYLINE
5
4c0
100
AcDbEntity
8
0-3RC
6
CONTINUOUS
62
  7
100
AcDb2dPolyline
66
1
10
0.0
20
0.0
30
0.0
70
0
0
VERTEX
5
4c1
100
AcDbEntity
8
0-3RC
6
CONTINUOUS
62
  7
100
AcDbVertex
100
AcDb2dVertex
10
1494.686000000000
20
1375.166000000000
30
0.0
0
VERTEX
5
4c2
100
AcDbEntity
8
0-3RC
6
CONTINUOUS
62
  7
100
AcDbVertex
100
AcDb2dVertex
10
894.686000000000
20
1375.166000000000
30
0.0
0
VERTEX
5
4c3
100
AcDbEntity
8
0-3RC
6
CONTINUOUS
62
  7
100
AcDbVertex
100
AcDb2dVertex
10
894.686000000000
20
725.166000000000
30
0.0
0
SEQEND
5
4c4
100
AcDbEntity
8
0-3RC
0
LINE
5
4c5
100
AcDbEntity
8
0-3RC
6
CONTINUOUS
62
6
100
AcDbLine
10
2454.344000000000
20
725.166000000000
30
0.0
11
2498.118000000000
21
768.939000000000
31
0.0
0
LINE
5
4c6
100
AcDbEntity
8
0-3RC
6
CONTINUOUS
62
6
100
AcDbLine
10
2383.634000000000
20
725.166000000000
30
0.0
11
2498.118000000000
21
839.650000000000
31
0.0
0
LINE
5
4c7
100
AcDbEntity
8
0-3RC
6
CONTINUOUS
62
6
100
AcDbLine
10
2373.118000000000
20
785.361000000000
30
0.0
11
2462.923000000000
21
875.166000000000
31
0.0
0
LINE
5
4c8
100
AcDbEntity
8
0-3RC
6
CONTINUOUS
62
6
100
AcDbLine
10
2480.081000000000
20
1175.166000000000
30
0.0
11
2498.118000000000
21
1193.203000000000
31
0.0
0
LINE
5
4c9
100
AcDbEntity
8
0-3RC
6
CONTINUOUS
62
6
100
AcDbLine
10
2373.118000000000
20
1351.046000000000
30
0.0
11
2397.238000000000
21
1375.166000000000
31
0.0
0
LINE
5
4ca
100
AcDbEntity
8
0-3RC
6
CONTINUOUS
62
6
100
AcDbLine
10
2379.118000000000
20
1215.624000000000
30
0.0
11
2498.118000000000
21
1334.624000000000
31
0.0
0
LINE
5
4cb
100
AcDbEntity
8
0-3RC
6
CONTINUOUS
62
6
100
AcDbLine
10
2415.370000000000
20
1181.166000000000
30
0.0
11
2498.118000000000
21
1263.914000000000
31
0.0
0
LINE
5
4cc
100
AcDbEntity
8
0-3RC
6
CONTINUOUS
62
6
100
AcDbLine
10
2455.394000000000
20
1175.166000000000
30
0.0
11
2498.118000000000
21
1132.442000000000
31
0.0
0
LINE
5
4cd
100
AcDbEntity
8
0-3RC
6
CONTINUOUS
62
6
100
AcDbLine
10
894.686000000000
20
735.265000000000
30
0.0
11
904.786000000000
21
725.166000000000
31
0.0
0
LINE
5
4ce
100
AcDbEntity
8
0-3RC
6
CONTINUOUS
62
6
100
AcDbLine
10
894.686000000000
20
805.976000000000
30
0.0
11
975.496000000000
21
725.166000000000
31
0.0
0
LINE
5
4cf
100
AcDbEntity
8
0-3RC
6
CONTINUOUS
62
6
100
AcDbLine
10
894.686000000000
20
876.687000000000
30
0.0
11
1046.207000000000
21
725.166000000000
31
0.0
0
LINE
5
4d0
100
AcDbEntity
8
0-3RC
6
CONTINUOUS
62
6
100
AcDbLine
10
1315.447000000000
20
1375.166000000000
30
0.0
11
1494.686000000000
21
1195.926000000000
31
0.0
0
LINE
5
4d1
100
AcDbEntity
8
0-3RC
6
CONTINUOUS
62
6
100
AcDbLine
10
1386.157000000000
20
1375.166000000000
30
0.0
11
1494.686000000000
21
1266.637000000000
31
0.0
0
LINE
5
4d2
100
AcDbEntity
8
0-A文字
6
CONTINUOUS
62
7
100
AcDbLine
10
1953.136000000000
20
1045.166000000000
30
0.0
11
2153.836000000000
21
1045.166000000000
31
0.0
0
LINE
5
4d3
100
AcDbEntity
8
0-A文字
6
CONTINUOUS
62
7
100
AcDbLine
10
1953.136000000000
20
1005.166000000000
30
0.0
11
2153.836000000000
21
1005.166000000000
31
0.0
0
LINE
5
4d4
100
AcDbEntity
8
0-A文字
6
CONTINUOUS
62
7
100
AcDbLine
10
1953.136000000000
20
1045.166000000000
30
0.0
11
1953.136000000000
21
1005.166000000000
31
0.0
0
LINE
5
4d5
100
AcDbEntity
8
0-A文字
6
CONTINUOUS
62
7
100
AcDbLine
10
2153.836000000000
20
1045.166000000000
30
0.0
11
2153.836000000000
21
1065.166000000000
31
0.0
0
LINE
5
4d6
100
AcDbEntity
8
0-A文字
6
CONTINUOUS
62
7
100
AcDbLine
10
2153.836000000000
20
1005.166000000000
30
0.0
11
2153.836000000000
21
985.166000000000
31
0.0
0
LINE
5
4d7
100
AcDbEntity
8
0-A文字
6
CONTINUOUS
62
7
100
AcDbLine
10
2153.836000000000
20
1065.166000000000
30
0.0
11
2223.118000000000
21
1025.166000000000
31
0.0
0
LINE
5
4d8
100
AcDbEntity
8
0-A文字
6
CONTINUOUS
62
7
100
AcDbLine
10
2153.836000000000
20
985.166000000000
30
0.0
11
2223.118000000000
21
1025.166000000000
31
0.0
0
LINE
5
4d9
100
AcDbEntity
8
0-8寸法
6
CONTINUOUS
62
4
100
AcDbLine
10
1094.686000000000
20
525.166000000000
30
0.0
11
1294.686000000000
21
525.166000000000
31
0.0
0
LINE
5
4da
100
AcDbEntity
8
0-8寸法
6
CONTINUOUS
62
4
100
AcDbLine
10
1094.686000000000
20
525.166000000000
30
0.0
11
1114.005000000000
21
530.342000000000
31
0.0
0
LINE
5
4db
100
AcDbEntity
8
0-8寸法
6
CONTINUOUS
62
4
100
AcDbLine
10
1094.686000000000
20
525.166000000000
30
0.0
11
1114.005000000000
21
519.990000000000
31
0.0
0
LINE
5
4dc
100
AcDbEntity
8
0-8寸法
6
CONTINUOUS
62
4
100
AcDbLine
10
1294.686000000000
20
525.166000000000
30
0.0
11
1275.368000000000
21
530.342000000000
31
0.0
0
LINE
5
4dd
100
AcDbEntity
8
0-8寸法
6
CONTINUOUS
62
4
100
AcDbLine
10
1294.686000000000
20
525.166000000000
30
0.0
11
1275.368000000000
21
519.990000000000
31
0.0
0
LINE
5
4de
100
AcDbEntity
8
0-8寸法
6
CONTINUOUS
62
4
100
AcDbLine
10
1004.686000000000
20
425.166000000000
30
0.0
11
1384.686000000000
21
425.166000000000
31
0.0
0
LINE
5
4df
100
AcDbEntity
8
0-8寸法
6
CONTINUOUS
62
4
100
AcDbLine
10
1004.686000000000
20
425.166000000000
30
0.0
11
1024.005000000000
21
430.342000000000
31
0.0
0
LINE
5
4e0
100
AcDbEntity
8
0-8寸法
6
CONTINUOUS
62
4
100
AcDbLine
10
1004.686000000000
20
425.166000000000
30
0.0
11
1024.005000000000
21
419.990000000000
31
0.0
0
LINE
5
4e1
100
AcDbEntity
8
0-8寸法
6
CONTINUOUS
62
4
100
AcDbLine
10
1384.686000000000
20
425.166000000000
30
0.0
11
1365.368000000000
21
430.342000000000
31
0.0
0
LINE
5
4e2
100
AcDbEntity
8
0-8寸法
6
CONTINUOUS
62
4
100
AcDbLine
10
1384.686000000000
20
425.166000000000
30
0.0
11
1365.368000000000
21
419.990000000000
31
0.0
0
LINE
5
4e3
100
AcDbEntity
8
0-8寸法
6
CONTINUOUS
62
4
100
AcDbLine
10
1004.686000000000
20
828.310000000000
30
0.0
11
1004.686000000000
21
415.166000000000
31
0.0
0
LINE
5
4e4
100
AcDbEntity
8
0-8寸法
6
CONTINUOUS
62
4
100
AcDbLine
10
1384.686000000000
20
828.310000000000
30
0.0
11
1384.686000000000
21
415.166000000000
31
0.0
0
LINE
5
4e5
100
AcDbEntity
8
0-A文字
6
CONTINUOUS
62
4
100
AcDbLine
10
1094.891000000000
20
1055.721000000000
30
0.0
11
1290.920000000000
21
1055.721000000000
31
0.0
0
LINE
5
4e6
100
AcDbEntity
8
0-8寸法
6
CONTINUOUS
62
4
100
AcDbLine
10
552.926000000000
20
525.166000000000
30
0.0
11
904.686000000000
21
525.166000000000
31
0.0
0
LINE
5
4e7
100
AcDbEntity
8
0-8寸法
6
CONTINUOUS
62
4
100
AcDbLine
10
1109.686000000000
20
1525.166000000000
30
0.0
11
1279.686000000000
21
1525.166000000000
31
0.0
0
LINE
5
4e8
100
AcDbEntity
8
0-8寸法
6
CONTINUOUS
62
4
100
AcDbLine
10
1109.686000000000
20
1525.166000000000
30
0.0
11
1129.005000000000
21
1530.342000000000
31
0.0
0
LINE
5
4e9
100
AcDbEntity
8
0-8寸法
6
CONTINUOUS
62
4
100
AcDbLine
10
1109.686000000000
20
1525.166000000000
30
0.0
11
1129.005000000000
21
1519.989000000000
31
0.0
0
LINE
5
4ea
100
AcDbEntity
8
0-8寸法
6
CONTINUOUS
62
4
100
AcDbLine
10
1279.686000000000
20
1525.166000000000
30
0.0
11
1260.368000000000
21
1530.342000000000
31
0.0
0
LINE
5
4eb
100
AcDbEntity
8
0-8寸法
6
CONTINUOUS
62
4
100
AcDbLine
10
1279.686000000000
20
1525.166000000000
30
0.0
11
1260.368000000000
21
1519.989000000000
31
0.0
0
LINE
5
4ec
100
AcDbEntity
8
0-8寸法
6
CONTINUOUS
62
4
100
AcDbLine
10
904.686000000000
20
525.166000000000
30
0.0
11
1122.630000000000
21
855.831000000000
31
0.0
0
LINE
5
4ed
100
AcDbEntity
8
0-8寸法
6
CONTINUOUS
62
4
100
AcDbLine
10
904.686000000000
20
525.166000000000
30
0.0
11
1038.042000000000
21
928.820000000000
31
0.0
0
LINE
5
4ee
100
AcDbEntity
8
0-9扉体
6
CONTINUOUS
62
7
100
AcDbLine
10
1339.186000000000
20
1239.466000000000
30
0.0
11
1339.186000000000
21
1229.466000000000
31
0.0
0
LINE
5
4ef
100
AcDbEntity
8
0-9扉体
6
CONTINUOUS
62
7
100
AcDbLine
10
1320.186000000000
20
1239.466000000000
30
0.0
11
1320.186000000000
21
1229.466000000000
31
0.0
0
LINE
5
4f0
100
AcDbEntity
8
0-9扉体
6
CONTINUOUS
62
7
100
AcDbLine
10
1320.186000000000
20
1239.466000000000
30
0.0
11
1339.186000000000
21
1239.466000000000
31
0.0
0
LINE
5
4f1
100
AcDbEntity
8
0-9扉体
6
CONTINUOUS
62
7
100
AcDbLine
10
1329.686000000000
20
1238.617000000000
30
0.0
11
1329.686000000000
21
1229.466000000000
31
0.0
0
LINE
5
4f2
100
AcDbEntity
8
0-9扉体
6
CONTINUOUS
62
4
100
AcDbLine
10
1342.686000000000
20
1226.466000000000
30
0.0
11
1316.686000000000
21
1226.466000000000
31
0.0
0
LINE
5
4f3
100
AcDbEntity
8
0-9扉体
6
CONTINUOUS
62
4
100
AcDbLine
10
1342.686000000000
20
1226.466000000000
30
0.0
11
1342.686000000000
21
1224.166000000000
31
0.0
0
LINE
5
4f4
100
AcDbEntity
8
0-9扉体
6
CONTINUOUS
62
4
100
AcDbLine
10
1316.686000000000
20
1226.466000000000
30
0.0
11
1316.686000000000
21
1224.166000000000
31
0.0
0
LINE
5
4f5
100
AcDbEntity
8
0-9扉体
6
CONTINUOUS
62
4
100
AcDbLine
10
1335.686000000000
20
1249.166000000000
30
0.0
11
1323.686000000000
21
1249.166000000000
31
0.0
0
LINE
5
4f6
100
AcDbEntity
8
0-9扉体
6
CONTINUOUS
62
4
100
AcDbLine
10
1335.686000000000
20
1249.166000000000
30
0.0
11
1335.686000000000
21
1239.466000000000
31
0.0
0
LINE
5
4f7
100
AcDbEntity
8
0-9扉体
6
CONTINUOUS
62
4
100
AcDbLine
10
1323.686000000000
20
1249.166000000000
30
0.0
11
1323.686000000000
21
1239.466000000000
31
0.0
0
LINE
5
4f8
100
AcDbEntity
8
0-9扉体
6
CONTINUOUS
62
4
100
AcDbLine
10
1334.686000000000
20
1249.166000000000
30
0.0
11
1334.686000000000
21
1239.466000000000
31
0.0
0
LINE
5
4f9
100
AcDbEntity
8
0-9扉体
6
CONTINUOUS
62
4
100
AcDbLine
10
1324.686000000000
20
1249.166000000000
30
0.0
11
1324.686000000000
21
1239.466000000000
31
0.0
0
LINE
5
4fa
100
AcDbEntity
8
0-9扉体
6
CONTINUOUS
62
4
100
AcDbLine
10
1329.686000000000
20
1229.466000000000
30
0.0
11
1332.686000000000
21
1226.466000000000
31
0.0
0
LINE
5
4fb
100
AcDbEntity
8
0-9扉体
6
CONTINUOUS
62
4
100
AcDbLine
10
1329.686000000000
20
1226.466000000000
30
0.0
11
1326.686000000000
21
1229.466000000000
31
0.0
0
LINE
5
4fc
100
AcDbEntity
8
0-9扉体
6
CONTINUOUS
62
4
100
AcDbLine
10
1340.436000000000
20
1229.466000000000
30
0.0
11
1340.436000000000
21
1226.466000000000
31
0.0
0
POLYLINE
5
4fd
100
AcDbEntity
8
0-9扉体
6
CONTINUOUS
62
  4
100
AcDb2dPolyline
66
1
10
0.0
20
0.0
30
0.0
70
0
0
VERTEX
5
4fe
100
AcDbEntity
8
0-9扉体
6
CONTINUOUS
62
  4
100
AcDbVertex
100
AcDb2dVertex
10
1340.436000000000
20
1229.466000000000
30
0.0
0
VERTEX
5
4ff
100
AcDbEntity
8
0-9扉体
6
CONTINUOUS
62
  4
100
AcDbVertex
100
AcDb2dVertex
10
1318.936000000000
20
1229.466000000000
30
0.0
0
VERTEX
5
500
100
AcDbEntity
8
0-9扉体
6
CONTINUOUS
62
  4
100
AcDbVertex
100
AcDb2dVertex
10
1318.936000000000
20
1226.466000000000
30
0.0
0
SEQEND
5
501
100
AcDbEntity
8
0-9扉体
0
LINE
5
502
100
AcDbEntity
8
0-5基準線
6
CENTER2
62
7
100
AcDbLine
10
1329.686000000000
20
1252.121000000000
30
0.0
11
1329.686000000000
21
1238.617000000000
31
0.0
0
LINE
5
503
100
AcDbEntity
8
0-9扉体
6
CONTINUOUS
62
7
100
AcDbLine
10
1220.186000000000
20
1239.466000000000
30
0.0
11
1220.186000000000
21
1229.466000000000
31
0.0
0
LINE
5
504
100
AcDbEntity
8
0-9扉体
6
CONTINUOUS
62
7
100
AcDbLine
10
1239.186000000000
20
1239.466000000000
30
0.0
11
1239.186000000000
21
1229.466000000000
31
0.0
0
LINE
5
505
100
AcDbEntity
8
0-9扉体
6
CONTINUOUS
62
7
100
AcDbLine
10
1239.186000000000
20
1239.466000000000
30
0.0
11
1220.186000000000
21
1239.466000000000
31
0.0
0
LINE
5
506
100
AcDbEntity
8
0-9扉体
6
CONTINUOUS
62
7
100
AcDbLine
10
1229.686000000000
20
1238.617000000000
30
0.0
11
1229.686000000000
21
1229.466000000000
31
0.0
0
LINE
5
507
100
AcDbEntity
8
0-9扉体
6
CONTINUOUS
62
4
100
AcDbLine
10
1216.686000000000
20
1226.466000000000
30
0.0
11
1242.686000000000
21
1226.466000000000
31
0.0
0
LINE
5
508
100
AcDbEntity
8
0-9扉体
6
CONTINUOUS
62
4
100
AcDbLine
10
1216.686000000000
20
1226.466000000000
30
0.0
11
1216.686000000000
21
1224.166000000000
31
0.0
0
LINE
5
509
100
AcDbEntity
8
0-9扉体
6
CONTINUOUS
62
4
100
AcDbLine
10
1242.686000000000
20
1226.466000000000
30
0.0
11
1242.686000000000
21
1224.166000000000
31
0.0
0
LINE
5
50a
100
AcDbEntity
8
0-9扉体
6
CONTINUOUS
62
4
100
AcDbLine
10
1223.686000000000
20
1249.166000000000
30
0.0
11
1235.686000000000
21
1249.166000000000
31
0.0
0
LINE
5
50b
100
AcDbEntity
8
0-9扉体
6
CONTINUOUS
62
4
100
AcDbLine
10
1223.686000000000
20
1249.166000000000
30
0.0
11
1223.686000000000
21
1239.466000000000
31
0.0
0
LINE
5
50c
100
AcDbEntity
8
0-9扉体
6
CONTINUOUS
62
4
100
AcDbLine
10
1235.686000000000
20
1249.166000000000
30
0.0
11
1235.686000000000
21
1239.466000000000
31
0.0
0
LINE
5
50d
100
AcDbEntity
8
0-9扉体
6
CONTINUOUS
62
4
100
AcDbLine
10
1224.686000000000
20
1249.166000000000
30
0.0
11
1224.686000000000
21
1239.466000000000
31
0.0
0
LINE
5
50e
100
AcDbEntity
8
0-9扉体
6
CONTINUOUS
62
4
100
AcDbLine
10
1234.686000000000
20
1249.166000000000
30
0.0
11
1234.686000000000
21
1239.466000000000
31
0.0
0
LINE
5
50f
100
AcDbEntity
8
0-9扉体
6
CONTINUOUS
62
4
100
AcDbLine
10
1229.686000000000
20
1229.466000000000
30
0.0
11
1226.686000000000
21
1226.466000000000
31
0.0
0
LINE
5
510
100
AcDbEntity
8
0-9扉体
6
CONTINUOUS
62
4
100
AcDbLine
10
1229.686000000000
20
1226.466000000000
30
0.0
11
1232.686000000000
21
1229.466000000000
31
0.0
0
LINE
5
511
100
AcDbEntity
8
0-9扉体
6
CONTINUOUS
62
4
100
AcDbLine
10
1218.936000000000
20
1229.466000000000
30
0.0
11
1218.936000000000
21
1226.466000000000
31
0.0
0
POLYLINE
5
512
100
AcDbEntity
8
0-9扉体
6
CONTINUOUS
62
  4
100
AcDb2dPolyline
66
1
10
0.0
20
0.0
30
0.0
70
0
0
VERTEX
5
513
100
AcDbEntity
8
0-9扉体
6
CONTINUOUS
62
  4
100
AcDbVertex
100
AcDb2dVertex
10
1218.936000000000
20
1229.466000000000
30
0.0
0
VERTEX
5
514
100
AcDbEntity
8
0-9扉体
6
CONTINUOUS
62
  4
100
AcDbVertex
100
AcDb2dVertex
10
1240.436000000000
20
1229.466000000000
30
0.0
0
VERTEX
5
515
100
AcDbEntity
8
0-9扉体
6
CONTINUOUS
62
  4
100
AcDbVertex
100
AcDb2dVertex
10
1240.436000000000
20
1226.466000000000
30
0.0
0
SEQEND
5
516
100
AcDbEntity
8
0-9扉体
0
LINE
5
517
100
AcDbEntity
8
0-5基準線
6
CENTER2
62
7
100
AcDbLine
10
1229.686000000000
20
1252.121000000000
30
0.0
11
1229.686000000000
21
1238.617000000000
31
0.0
0
LINE
5
518
100
AcDbEntity
8
0-6戸当り
6
CONTINUOUS
62
3
100
AcDbLine
10
1258.686000000000
20
1225.166000000000
30
0.0
11
1300.686000000000
21
1225.166000000000
31
0.0
0
LINE
5
519
100
AcDbEntity
8
0-8寸法
6
CONTINUOUS
62
4
100
AcDbLine
10
2042.909000000000
20
1425.166000000000
30
0.0
11
2241.138000000000
21
1425.166000000000
31
0.0
0
LINE
5
51a
100
AcDbEntity
8
0-8寸法
6
CONTINUOUS
62
4
100
AcDbLine
10
2057.219000000000
20
1415.166000000000
30
0.0
11
2227.160000000000
21
1415.166000000000
31
0.0
0
LINE
5
51b
100
AcDbEntity
8
0-8寸法
6
CONTINUOUS
62
4
100
AcDbLine
10
2075.610000000000
20
1405.166000000000
30
0.0
11
2206.561000000000
21
1405.166000000000
31
0.0
0
LINE
5
51c
100
AcDbEntity
8
0-8寸法
6
CONTINUOUS
62
4
100
AcDbLine
10
2095.474000000000
20
1395.166000000000
30
0.0
11
2188.169000000000
21
1395.166000000000
31
0.0
0
LINE
5
51d
100
AcDbEntity
8
0-8寸法
6
CONTINUOUS
62
4
100
AcDbLine
10
2113.866000000000
20
1385.166000000000
30
0.0
11
2166.834000000000
21
1385.166000000000
31
0.0
0
LINE
5
51e
100
AcDbEntity
8
0-8寸法
6
CONTINUOUS
62
4
100
AcDbLine
10
2126.372000000000
20
1375.166000000000
30
0.0
11
2152.121000000000
21
1375.166000000000
31
0.0
0
LINE
5
51f
100
AcDbEntity
8
0-8寸法
6
CONTINUOUS
62
4
100
AcDbLine
10
2373.118000000000
20
1457.056000000000
30
0.0
11
2373.118000000000
21
1535.166000000000
31
0.0
0
LINE
5
520
100
AcDbEntity
8
0-8寸法
6
CONTINUOUS
62
4
100
AcDbLine
10
2373.118000000000
20
1525.166000000000
30
0.0
11
2392.437000000000
21
1530.342000000000
31
0.0
0
LINE
5
521
100
AcDbEntity
8
0-8寸法
6
CONTINUOUS
62
4
100
AcDbLine
10
2373.118000000000
20
1525.166000000000
30
0.0
11
2392.437000000000
21
1519.989000000000
31
0.0
0
LINE
5
522
100
AcDbEntity
8
0-8寸法
6
CONTINUOUS
62
4
100
AcDbLine
10
1873.118000000000
20
835.166000000000
30
0.0
11
1873.118000000000
21
1425.166000000000
31
0.0
0
LINE
5
523
100
AcDbEntity
8
0-8寸法
6
CONTINUOUS
62
4
100
AcDbLine
10
2016.000000000000
20
1425.166000000000
30
0.0
11
1863.118000000000
21
1425.166000000000
31
0.0
0
LINE
5
524
100
AcDbEntity
8
0-8寸法
6
CONTINUOUS
62
4
100
AcDbLine
10
1873.118000000000
20
835.166000000000
30
0.0
11
1867.942000000000
21
854.484000000000
31
0.0
0
LINE
5
525
100
AcDbEntity
8
0-8寸法
6
CONTINUOUS
62
4
100
AcDbLine
10
1873.118000000000
20
835.166000000000
30
0.0
11
1878.295000000000
21
854.484000000000
31
0.0
0
LINE
5
526
100
AcDbEntity
8
0-8寸法
6
CONTINUOUS
62
4
100
AcDbLine
10
1873.118000000000
20
1425.166000000000
30
0.0
11
1867.942000000000
21
1405.847000000000
31
0.0
0
LINE
5
527
100
AcDbEntity
8
0-8寸法
6
CONTINUOUS
62
4
100
AcDbLine
10
1873.118000000000
20
1425.166000000000
30
0.0
11
1878.295000000000
21
1405.847000000000
31
0.0
0
LINE
5
528
100
AcDbEntity
8
0-8寸法
6
CONTINUOUS
62
4
100
AcDbLine
10
2281.247000000000
20
835.166000000000
30
0.0
11
1863.118000000000
21
835.166000000000
31
0.0
0
LINE
5
529
100
AcDbEntity
8
0-8寸法
6
CONTINUOUS
62
4
100
AcDbLine
10
1709.796000000000
20
625.166000000000
30
0.0
11
2273.118000000000
21
625.166000000000
31
0.0
0
LINE
5
52a
100
AcDbEntity
8
0-8寸法
6
CONTINUOUS
62
4
100
AcDbLine
10
1709.796000000000
20
525.166000000000
30
0.0
11
2273.118000000000
21
525.166000000000
31
0.0
0
LINE
5
52b
100
AcDbEntity
8
0-8寸法
6
CONTINUOUS
62
4
100
AcDbLine
10
2273.118000000000
20
625.166000000000
30
0.0
11
2273.118000000000
21
525.166000000000
31
0.0
0
LINE
5
52c
100
AcDbEntity
8
0-3RC
6
CONTINUOUS
62
7
100
AcDbLine
10
2373.118000000000
20
1450.166000000000
30
0.0
11
2373.118000000000
21
1085.278000000000
31
0.0
0
LINE
5
52d
100
AcDbEntity
8
0-3RC
6
CONTINUOUS
62
7
100
AcDbLine
10
2373.118000000000
20
1063.162000000000
30
0.0
11
2373.118000000000
21
650.166000000000
31
0.0
0
LINE
5
52e
100
AcDbEntity
8
0-6戸当り
6
DOT
62
3
100
AcDbLine
10
2379.118000000000
20
1175.166000000000
30
0.0
11
2379.118000000000
21
1085.278000000000
31
0.0
0
LINE
5
52f
100
AcDbEntity
8
0-8寸法
6
CONTINUOUS
62
4
100
AcDbLine
10
2423.118000000000
20
975.166000000000
30
0.0
11
2442.436000000000
21
980.342000000000
31
0.0
0
LINE
5
530
100
AcDbEntity
8
0-8寸法
6
CONTINUOUS
62
4
100
AcDbLine
10
2423.118000000000
20
975.166000000000
30
0.0
11
2442.436000000000
21
969.990000000000
31
0.0
0
LINE
5
531
100
AcDbEntity
8
0-6戸当り
6
DOT
62
2
100
AcDbLine
10
1350.686000000000
20
1220.166000000000
30
0.0
11
1350.686000000000
21
1225.166000000000
31
0.0
0
LINE
5
532
100
AcDbEntity
8
0-6戸当り
6
CONTINUOUS
62
2
100
AcDbLine
10
1344.686000000000
20
1224.166000000000
30
0.0
11
1344.686000000000
21
1225.166000000000
31
0.0
0
LINE
5
533
100
AcDbEntity
8
0-6戸当り
6
CONTINUOUS
62
3
100
AcDbLine
10
2406.118000000000
20
848.666000000000
30
0.0
11
2406.118000000000
21
869.166000000000
31
0.0
0
LINE
5
534
100
AcDbEntity
8
0-6戸当り
6
CONTINUOUS
62
3
100
AcDbLine
10
2419.118000000000
20
848.666000000000
30
0.0
11
2419.118000000000
21
869.166000000000
31
0.0
0
LINE
5
535
100
AcDbEntity
8
0-6戸当り
6
CONTINUOUS
62
3
100
AcDbLine
10
2399.618000000000
20
842.166000000000
30
0.0
11
2379.118000000000
21
842.166000000000
31
0.0
0
LINE
5
536
100
AcDbEntity
8
0-6戸当り
6
CONTINUOUS
62
3
100
AcDbLine
10
2399.618000000000
20
829.166000000000
30
0.0
11
2379.118000000000
21
829.166000000000
31
0.0
0
LINE
5
537
100
AcDbEntity
8
0-6戸当り
6
CONTINUOUS
62
3
100
AcDbLine
10
2374.618000000000
20
825.166000000000
30
0.0
11
2373.118000000000
21
825.166000000000
31
0.0
0
LINE
5
538
100
AcDbEntity
8
0-6戸当り
6
CONTINUOUS
62
3
100
AcDbLine
10
2385.618000000000
20
869.166000000000
30
0.0
11
2418.618000000000
21
869.166000000000
31
0.0
0
LINE
5
539
100
AcDbEntity
8
0-6戸当り
6
CONTINUOUS
62
3
100
AcDbLine
10
2379.118000000000
20
862.666000000000
30
0.0
11
2379.118000000000
21
829.666000000000
31
0.0
0
LINE
5
53a
100
AcDbEntity
8
0-3RC
6
CONTINUOUS
62
6
100
AcDbLine
10
2379.118000000000
20
862.072000000000
30
0.0
11
2386.212000000000
21
869.166000000000
31
0.0
0
LINE
5
53b
100
AcDbEntity
8
0-6戸当り
6
CONTINUOUS
62
3
100
AcDbLine
10
2406.118000000000
20
1201.666000000000
30
0.0
11
2406.118000000000
21
1181.166000000000
31
0.0
0
LINE
5
53c
100
AcDbEntity
8
0-6戸当り
6
CONTINUOUS
62
3
100
AcDbLine
10
2419.118000000000
20
1201.666000000000
30
0.0
11
2419.118000000000
21
1181.166000000000
31
0.0
0
LINE
5
53d
100
AcDbEntity
8
0-6戸当り
6
CONTINUOUS
62
3
100
AcDbLine
10
2399.618000000000
20
1208.166000000000
30
0.0
11
2379.118000000000
21
1208.166000000000
31
0.0
0
LINE
5
53e
100
AcDbEntity
8
0-6戸当り
6
CONTINUOUS
62
3
100
AcDbLine
10
2399.618000000000
20
1221.166000000000
30
0.0
11
2379.118000000000
21
1221.166000000000
31
0.0
0
LINE
5
53f
100
AcDbEntity
8
0-5基準線
6
CENTER2
62
7
100
AcDbLine
10
2399.618000000000
20
1214.666000000000
30
0.0
11
2376.097000000000
21
1214.666000000000
31
0.0
0
LINE
5
540
100
AcDbEntity
8
0-5基準線
6
CENTER2
62
7
100
AcDbLine
10
2412.618000000000
20
1201.666000000000
30
0.0
11
2412.618000000000
21
1178.345000000000
31
0.0
0
LINE
5
541
100
AcDbEntity
8
0-6戸当り
6
CONTINUOUS
62
3
100
AcDbLine
10
2379.118000000000
20
1225.166000000000
30
0.0
11
2373.118000000000
21
1225.166000000000
31
0.0
0
LINE
5
542
100
AcDbEntity
8
0-3RC
6
CONTINUOUS
62
6
100
AcDbLine
10
2423.118000000000
20
924.600000000000
30
0.0
11
2472.552000000000
21
875.166000000000
31
0.0
0
LINE
5
543
100
AcDbEntity
8
0-6戸当り
6
DOT
62
3
100
AcDbLine
10
2379.118000000000
20
1063.162000000000
30
0.0
11
2379.118000000000
21
875.166000000000
31
0.0
0
LINE
5
544
100
AcDbEntity
8
0-3RC
6
CONTINUOUS
62
6
100
AcDbLine
10
2458.899000000000
20
959.529000000000
30
0.0
11
2498.118000000000
21
920.310000000000
31
0.0
0
LINE
5
545
100
AcDbEntity
8
0-6戸当り
6
CONTINUOUS
62
3
100
AcDbLine
10
2423.118000000000
20
1176.666000000000
30
0.0
11
2423.118000000000
21
1125.907000000000
31
0.0
0
LINE
5
546
100
AcDbEntity
8
0-6戸当り
6
CONTINUOUS
62
3
100
AcDbLine
10
2423.118000000000
20
1069.682000000000
30
0.0
11
2423.118000000000
21
873.666000000000
31
0.0
0
LINE
5
547
100
AcDbEntity
8
0-3RC
6
CONTINUOUS
62
6
100
AcDbLine
10
2423.118000000000
20
1136.731000000000
30
0.0
11
2498.118000000000
21
1061.731000000000
31
0.0
0
LINE
5
548
100
AcDbEntity
8
0-3RC
6
CONTINUOUS
62
6
100
AcDbLine
10
2423.118000000000
20
1066.021000000000
30
0.0
11
2454.362000000000
21
1034.777000000000
31
0.0
0
LINE
5
549
100
AcDbEntity
8
0-3RC
6
CONTINUOUS
62
6
100
AcDbLine
10
894.686000000000
20
1300.951000000000
30
0.0
11
994.686000000000
21
1200.951000000000
31
0.0
0
LINE
5
54a
100
AcDbEntity
8
0-3RC
6
CONTINUOUS
62
6
100
AcDbLine
10
894.686000000000
20
1230.240000000000
30
0.0
11
994.686000000000
21
1130.240000000000
31
0.0
0
LINE
5
54b
100
AcDbEntity
8
0-3RC
6
CONTINUOUS
62
6
100
AcDbLine
10
894.686000000000
20
1159.530000000000
30
0.0
11
994.686000000000
21
1059.530000000000
31
0.0
0
LINE
5
54c
100
AcDbEntity
8
0-3RC
6
CONTINUOUS
62
6
100
AcDbLine
10
894.686000000000
20
1088.819000000000
30
0.0
11
994.686000000000
21
988.819000000000
31
0.0
0
LINE
5
54d
100
AcDbEntity
8
0-3RC
6
CONTINUOUS
62
6
100
AcDbLine
10
894.686000000000
20
1018.108000000000
30
0.0
11
994.686000000000
21
918.108000000000
31
0.0
0
LINE
5
54e
100
AcDbEntity
8
0-6戸当り
6
CONTINUOUS
62
2
100
AcDbLine
10
999.686000000000
20
875.166000000000
30
0.0
11
994.686000000000
21
875.166000000000
31
0.0
0
LINE
5
54f
100
AcDbEntity
8
0-6戸当り
6
DOT
62
2
100
AcDbLine
10
999.686000000000
20
869.166000000000
30
0.0
11
994.686000000000
21
869.166000000000
31
0.0
0
LINE
5
550
100
AcDbEntity
8
0-3RC
6
CONTINUOUS
62
6
100
AcDbLine
10
894.686000000000
20
947.398000000000
30
0.0
11
994.686000000000
21
847.398000000000
31
0.0
0
LINE
5
551
100
AcDbEntity
8
0-6戸当り
6
CONTINUOUS
62
3
100
AcDbLine
10
994.686000000000
20
825.166000000000
30
0.0
11
994.686000000000
21
1225.166000000000
31
0.0
0
LINE
5
552
100
AcDbEntity
8
0-6戸当り
6
CONTINUOUS
62
3
100
AcDbLine
10
1394.686000000000
20
1225.166000000000
30
0.0
11
1394.686000000000
21
825.166000000000
31
0.0
0
LINE
5
553
100
AcDbEntity
8
0-3RC
6
CONTINUOUS
62
6
100
AcDbLine
10
1370.471000000000
20
825.166000000000
30
0.0
11
1470.471000000000
21
725.166000000000
31
0.0
0
LINE
5
554
100
AcDbEntity
8
0-3RC
6
CONTINUOUS
62
6
100
AcDbLine
10
1299.761000000000
20
825.166000000000
30
0.0
11
1399.761000000000
21
725.166000000000
31
0.0
0
LINE
5
555
100
AcDbEntity
8
0-3RC
6
CONTINUOUS
62
6
100
AcDbLine
10
1229.050000000000
20
825.166000000000
30
0.0
11
1329.050000000000
21
725.166000000000
31
0.0
0
LINE
5
556
100
AcDbEntity
8
0-3RC
6
CONTINUOUS
62
6
100
AcDbLine
10
1158.339000000000
20
825.166000000000
30
0.0
11
1258.339000000000
21
725.166000000000
31
0.0
0
LINE
5
557
100
AcDbEntity
8
0-3RC
6
CONTINUOUS
62
6
100
AcDbLine
10
1087.629000000000
20
825.166000000000
30
0.0
11
1187.629000000000
21
725.166000000000
31
0.0
0
LINE
5
558
100
AcDbEntity
8
0-3RC
6
CONTINUOUS
62
6
100
AcDbLine
10
1016.918000000000
20
825.166000000000
30
0.0
11
1116.918000000000
21
725.166000000000
31
0.0
0
LINE
5
559
100
AcDbEntity
8
0-3RC
6
CONTINUOUS
62
6
100
AcDbLine
10
1394.686000000000
20
1154.505000000000
30
0.0
11
1494.686000000000
21
1054.505000000000
31
0.0
0
LINE
5
55a
100
AcDbEntity
8
0-3RC
6
CONTINUOUS
62
6
100
AcDbLine
10
1394.686000000000
20
1083.794000000000
30
0.0
11
1494.686000000000
21
983.794000000000
31
0.0
0
LINE
5
55b
100
AcDbEntity
8
0-3RC
6
CONTINUOUS
62
6
100
AcDbLine
10
1394.686000000000
20
1013.084000000000
30
0.0
11
1494.686000000000
21
913.084000000000
31
0.0
0
LINE
5
55c
100
AcDbEntity
8
0-6戸当り
6
CONTINUOUS
62
3
100
AcDbLine
10
1394.686000000000
20
825.166000000000
30
0.0
11
994.686000000000
21
825.166000000000
31
0.0
0
LINE
5
55d
100
AcDbEntity
8
0-3RC
6
CONTINUOUS
62
6
100
AcDbLine
10
1394.686000000000
20
871.662000000000
30
0.0
11
1494.686000000000
21
771.662000000000
31
0.0
0
LINE
5
55e
100
AcDbEntity
8
0-6戸当り
6
CONTINUOUS
62
2
100
AcDbLine
10
1389.686000000000
20
875.166000000000
30
0.0
11
1394.686000000000
21
875.166000000000
31
0.0
0
LINE
5
55f
100
AcDbEntity
8
0-6戸当り
6
DOT
62
2
100
AcDbLine
10
1389.686000000000
20
869.166000000000
30
0.0
11
1394.686000000000
21
869.166000000000
31
0.0
0
LINE
5
560
100
AcDbEntity
8
0-3RC
6
CONTINUOUS
62
6
100
AcDbLine
10
1394.686000000000
20
942.373000000000
30
0.0
11
1494.686000000000
21
842.373000000000
31
0.0
0
LINE
5
561
100
AcDbEntity
8
0-6戸当り
6
CONTINUOUS
62
3
100
AcDbLine
10
994.686000000000
20
1225.166000000000
30
0.0
11
1046.686000000000
21
1225.166000000000
31
0.0
0
LINE
5
562
100
AcDbEntity
8
0-6戸当り
6
CONTINUOUS
62
3
100
AcDbLine
10
1172.686000000000
20
1225.166000000000
30
0.0
11
1216.686000000000
21
1225.166000000000
31
0.0
0
LINE
5
563
100
AcDbEntity
8
0-6戸当り
6
CONTINUOUS
62
3
100
AcDbLine
10
1242.686000000000
20
1225.166000000000
30
0.0
11
1249.686000000000
21
1225.166000000000
31
0.0
0
LINE
5
564
100
AcDbEntity
8
0-6戸当り
6
CONTINUOUS
62
3
100
AcDbLine
10
1309.686000000000
20
1225.166000000000
30
0.0
11
1316.686000000000
21
1225.166000000000
31
0.0
0
LINE
5
565
100
AcDbEntity
8
0-6戸当り
6
CONTINUOUS
62
3
100
AcDbLine
10
1342.686000000000
20
1225.166000000000
30
0.0
11
1394.686000000000
21
1225.166000000000
31
0.0
0
LINE
5
566
100
AcDbEntity
8
0-6戸当り
6
DOT
62
6
100
AcDbLine
10
2360.618000000000
20
1248.166000000000
30
0.0
11
2322.118000000000
21
1248.166000000000
31
0.0
0
LINE
5
567
100
AcDbEntity
8
0-6戸当り
6
DOT
62
6
100
AcDbLine
10
2360.618000000000
20
1256.166000000000
30
0.0
11
2322.118000000000
21
1256.166000000000
31
0.0
0
LINE
5
568
100
AcDbEntity
8
0-5基準線
6
CENTER2
62
7
100
AcDbLine
10
1351.367000000000
20
1265.166000000000
30
0.0
11
1207.686000000000
21
1265.166000000000
31
0.0
0
LINE
5
569
100
AcDbEntity
8
0-5基準線
6
CENTER2
62
7
100
AcDbLine
10
1279.686000000000
20
1300.712000000000
30
0.0
11
1279.686000000000
21
1196.944000000000
31
0.0
0
LINE
5
56a
100
AcDbEntity
8
0-5基準線
6
CENTER2
62
7
100
AcDbLine
10
1229.686000000000
20
1229.466000000000
30
0.0
11
1229.686000000000
21
1196.944000000000
31
0.0
0
LINE
5
56b
100
AcDbEntity
8
0-5基準線
6
CENTER2
62
7
100
AcDbLine
10
1329.686000000000
20
1229.466000000000
30
0.0
11
1329.686000000000
21
1196.944000000000
31
0.0
0
LINE
5
56c
100
AcDbEntity
8
0-9扉体
6
CONTINUOUS
62
3
100
AcDbLine
10
1179.686000000000
20
1224.166000000000
30
0.0
11
1039.686000000000
21
1224.166000000000
31
0.0
0
LINE
5
56d
100
AcDbEntity
8
0-9扉体
6
CONTINUOUS
62
3
100
AcDbLine
10
1179.686000000000
20
1224.166000000000
30
0.0
11
1179.686000000000
21
1215.166000000000
31
0.0
0
LINE
5
56e
100
AcDbEntity
8
0-9扉体
6
CONTINUOUS
62
3
100
AcDbLine
10
1039.686000000000
20
1224.166000000000
30
0.0
11
1039.686000000000
21
1215.166000000000
31
0.0
0
LINE
5
56f
100
AcDbEntity
8
0-6戸当り
6
DOT
62
6
100
AcDbLine
10
1090.686000000000
20
1256.166000000000
30
0.0
11
1128.686000000000
21
1256.166000000000
31
0.0
0
LINE
5
570
100
AcDbEntity
8
0-6戸当り
6
CONTINUOUS
62
6
100
AcDbLine
10
1090.686000000000
20
1248.166000000000
30
0.0
11
1128.686000000000
21
1248.166000000000
31
0.0
0
LINE
5
571
100
AcDbEntity
8
0-6戸当り
6
CONTINUOUS
62
6
100
AcDbLine
10
1090.686000000000
20
1282.166000000000
30
0.0
11
1090.686000000000
21
1248.166000000000
31
0.0
0
POLYLINE
5
572
100
AcDbEntity
8
0-6戸当り
6
CONTINUOUS
62
  6
100
AcDb2dPolyline
66
1
10
0.0
20
0.0
30
0.0
70
0
0
VERTEX
5
573
100
AcDbEntity
8
0-6戸当り
6
CONTINUOUS
62
  6
100
AcDbVertex
100
AcDb2dVertex
10
1090.686000000000
20
1282.166000000000
30
0.0
0
VERTEX
5
574
100
AcDbEntity
8
0-6戸当り
6
CONTINUOUS
62
  6
100
AcDbVertex
100
AcDb2dVertex
10
1128.686000000000
20
1282.166000000000
30
0.0
0
VERTEX
5
575
100
AcDbEntity
8
0-6戸当り
6
CONTINUOUS
62
  6
100
AcDbVertex
100
AcDb2dVertex
10
1128.686000000000
20
1248.166000000000
30
0.0
0
SEQEND
5
576
100
AcDbEntity
8
0-6戸当り
0
LINE
5
577
100
AcDbEntity
8
0-9扉体
6
CONTINUOUS
62
6
100
AcDbLine
10
1077.086000000000
20
1281.166000000000
30
0.0
11
1077.086000000000
21
1249.166000000000
31
0.0
0
LINE
5
578
100
AcDbEntity
8
0-9扉体
6
CONTINUOUS
62
6
100
AcDbLine
10
1077.086000000000
20
1281.166000000000
30
0.0
11
1079.686000000000
21
1281.166000000000
31
0.0
0
LINE
5
579
100
AcDbEntity
8
0-9扉体
6
CONTINUOUS
62
6
100
AcDbLine
10
1077.086000000000
20
1249.166000000000
30
0.0
11
1079.686000000000
21
1249.166000000000
31
0.0
0
LINE
5
57a
100
AcDbEntity
8
0-9扉体
6
CONTINUOUS
62
6
100
AcDbLine
10
1066.186000000000
20
1273.166000000000
30
0.0
11
1066.186000000000
21
1257.166000000000
31
0.0
0
LINE
5
57b
100
AcDbEntity
8
0-9扉体
6
CONTINUOUS
62
6
100
AcDbLine
10
1066.186000000000
20
1273.166000000000
30
0.0
11
1077.086000000000
21
1273.166000000000
31
0.0
0
LINE
5
57c
100
AcDbEntity
8
0-9扉体
6
CONTINUOUS
62
6
100
AcDbLine
10
1066.186000000000
20
1257.166000000000
30
0.0
11
1077.086000000000
21
1257.166000000000
31
0.0
0
LINE
5
57d
100
AcDbEntity
8
0-9扉体
6
CONTINUOUS
62
6
100
AcDbLine
10
1088.686000000000
20
1257.166000000000
30
0.0
11
1090.686000000000
21
1257.166000000000
31
0.0
0
LINE
5
57e
100
AcDbEntity
8
0-6戸当り
6
DOT
62
6
100
AcDbLine
10
1090.686000000000
20
1274.166000000000
30
0.0
11
1128.686000000000
21
1274.166000000000
31
0.0
0
LINE
5
57f
100
AcDbEntity
8
0-9扉体
6
CONTINUOUS
62
6
100
AcDbLine
10
1088.686000000000
20
1273.166000000000
30
0.0
11
1090.686000000000
21
1273.166000000000
31
0.0
0
LINE
5
580
100
AcDbEntity
8
0-9扉体
6
CONTINUOUS
62
6
100
AcDbLine
10
1142.286000000000
20
1281.166000000000
30
0.0
11
1142.286000000000
21
1249.166000000000
31
0.0
0
LINE
5
581
100
AcDbEntity
8
0-9扉体
6
CONTINUOUS
62
6
100
AcDbLine
10
1142.286000000000
20
1281.166000000000
30
0.0
11
1139.686000000000
21
1281.166000000000
31
0.0
0
LINE
5
582
100
AcDbEntity
8
0-9扉体
6
CONTINUOUS
62
6
100
AcDbLine
10
1142.286000000000
20
1249.166000000000
30
0.0
11
1139.686000000000
21
1249.166000000000
31
0.0
0
LINE
5
583
100
AcDbEntity
8
0-9扉体
6
CONTINUOUS
62
6
100
AcDbLine
10
1153.186000000000
20
1273.166000000000
30
0.0
11
1153.186000000000
21
1257.166000000000
31
0.0
0
LINE
5
584
100
AcDbEntity
8
0-9扉体
6
CONTINUOUS
62
6
100
AcDbLine
10
1153.186000000000
20
1273.166000000000
30
0.0
11
1142.286000000000
21
1273.166000000000
31
0.0
0
LINE
5
585
100
AcDbEntity
8
0-9扉体
6
CONTINUOUS
62
6
100
AcDbLine
10
1153.186000000000
20
1257.166000000000
30
0.0
11
1142.286000000000
21
1257.166000000000
31
0.0
0
LINE
5
586
100
AcDbEntity
8
0-9扉体
6
CONTINUOUS
62
6
100
AcDbLine
10
1130.686000000000
20
1257.166000000000
30
0.0
11
1128.686000000000
21
1257.166000000000
31
0.0
0
LINE
5
587
100
AcDbEntity
8
0-9扉体
6
CONTINUOUS
62
6
100
AcDbLine
10
1130.686000000000
20
1273.166000000000
30
0.0
11
1128.686000000000
21
1273.166000000000
31
0.0
0
LINE
5
588
100
AcDbEntity
8
0-9扉体
6
CONTINUOUS
62
7
100
AcDbLine
10
1050.186000000000
20
1239.466000000000
30
0.0
11
1050.186000000000
21
1229.466000000000
31
0.0
0
LINE
5
589
100
AcDbEntity
8
0-9扉体
6
CONTINUOUS
62
7
100
AcDbLine
10
1069.186000000000
20
1239.466000000000
30
0.0
11
1069.186000000000
21
1229.466000000000
31
0.0
0
LINE
5
58a
100
AcDbEntity
8
0-9扉体
6
CONTINUOUS
62
7
100
AcDbLine
10
1069.186000000000
20
1239.466000000000
30
0.0
11
1050.186000000000
21
1239.466000000000
31
0.0
0
LINE
5
58b
100
AcDbEntity
8
0-9扉体
6
CONTINUOUS
62
7
100
AcDbLine
10
1059.686000000000
20
1238.617000000000
30
0.0
11
1059.686000000000
21
1229.466000000000
31
0.0
0
LINE
5
58c
100
AcDbEntity
8
0-9扉体
6
CONTINUOUS
62
4
100
AcDbLine
10
1046.686000000000
20
1226.466000000000
30
0.0
11
1072.686000000000
21
1226.466000000000
31
0.0
0
LINE
5
58d
100
AcDbEntity
8
0-9扉体
6
CONTINUOUS
62
4
100
AcDbLine
10
1046.686000000000
20
1226.466000000000
30
0.0
11
1046.686000000000
21
1224.166000000000
31
0.0
0
LINE
5
58e
100
AcDbEntity
8
0-9扉体
6
CONTINUOUS
62
4
100
AcDbLine
10
1072.686000000000
20
1226.466000000000
30
0.0
11
1072.686000000000
21
1224.166000000000
31
0.0
0
LINE
5
58f
100
AcDbEntity
8
0-9扉体
6
CONTINUOUS
62
4
100
AcDbLine
10
1053.686000000000
20
1249.166000000000
30
0.0
11
1065.686000000000
21
1249.166000000000
31
0.0
0
LINE
5
590
100
AcDbEntity
8
0-9扉体
6
CONTINUOUS
62
4
100
AcDbLine
10
1053.686000000000
20
1249.166000000000
30
0.0
11
1053.686000000000
21
1239.466000000000
31
0.0
0
LINE
5
591
100
AcDbEntity
8
0-9扉体
6
CONTINUOUS
62
4
100
AcDbLine
10
1065.686000000000
20
1249.166000000000
30
0.0
11
1065.686000000000
21
1239.466000000000
31
0.0
0
LINE
5
592
100
AcDbEntity
8
0-9扉体
6
CONTINUOUS
62
4
100
AcDbLine
10
1054.686000000000
20
1249.166000000000
30
0.0
11
1054.686000000000
21
1239.466000000000
31
0.0
0
LINE
5
593
100
AcDbEntity
8
0-9扉体
6
CONTINUOUS
62
4
100
AcDbLine
10
1064.686000000000
20
1249.166000000000
30
0.0
11
1064.686000000000
21
1239.466000000000
31
0.0
0
LINE
5
594
100
AcDbEntity
8
0-9扉体
6
CONTINUOUS
62
4
100
AcDbLine
10
1059.686000000000
20
1229.466000000000
30
0.0
11
1056.686000000000
21
1226.466000000000
31
0.0
0
LINE
5
595
100
AcDbEntity
8
0-9扉体
6
CONTINUOUS
62
4
100
AcDbLine
10
1059.686000000000
20
1226.466000000000
30
0.0
11
1062.686000000000
21
1229.466000000000
31
0.0
0
LINE
5
596
100
AcDbEntity
8
0-9扉体
6
CONTINUOUS
62
4
100
AcDbLine
10
1048.936000000000
20
1229.466000000000
30
0.0
11
1048.936000000000
21
1226.466000000000
31
0.0
0
POLYLINE
5
597
100
AcDbEntity
8
0-9扉体
6
CONTINUOUS
62
  4
100
AcDb2dPolyline
66
1
10
0.0
20
0.0
30
0.0
70
0
0
VERTEX
5
598
100
AcDbEntity
8
0-9扉体
6
CONTINUOUS
62
  4
100
AcDbVertex
100
AcDb2dVertex
10
1048.936000000000
20
1229.466000000000
30
0.0
0
VERTEX
5
599
100
AcDbEntity
8
0-9扉体
6
CONTINUOUS
62
  4
100
AcDbVertex
100
AcDb2dVertex
10
1070.436000000000
20
1229.466000000000
30
0.0
0
VERTEX
5
59a
100
AcDbEntity
8
0-9扉体
6
CONTINUOUS
62
  4
100
AcDbVertex
100
AcDb2dVertex
10
1070.436000000000
20
1226.466000000000
30
0.0
0
SEQEND
5
59b
100
AcDbEntity
8
0-9扉体
0
LINE
5
59c
100
AcDbEntity
8
0-5基準線
6
CENTER2
62
7
100
AcDbLine
10
1059.686000000000
20
1252.121000000000
30
0.0
11
1059.686000000000
21
1238.617000000000
31
0.0
0
LINE
5
59d
100
AcDbEntity
8
0-9扉体
6
CONTINUOUS
62
7
100
AcDbLine
10
1169.186000000000
20
1239.466000000000
30
0.0
11
1169.186000000000
21
1229.466000000000
31
0.0
0
LINE
5
59e
100
AcDbEntity
8
0-9扉体
6
CONTINUOUS
62
7
100
AcDbLine
10
1150.186000000000
20
1239.466000000000
30
0.0
11
1150.186000000000
21
1229.466000000000
31
0.0
0
LINE
5
59f
100
AcDbEntity
8
0-9扉体
6
CONTINUOUS
62
7
100
AcDbLine
10
1150.186000000000
20
1239.466000000000
30
0.0
11
1169.186000000000
21
1239.466000000000
31
0.0
0
LINE
5
5a0
100
AcDbEntity
8
0-9扉体
6
CONTINUOUS
62
7
100
AcDbLine
10
1159.686000000000
20
1238.617000000000
30
0.0
11
1159.686000000000
21
1229.466000000000
31
0.0
0
LINE
5
5a1
100
AcDbEntity
8
0-9扉体
6
CONTINUOUS
62
4
100
AcDbLine
10
1172.686000000000
20
1226.466000000000
30
0.0
11
1146.686000000000
21
1226.466000000000
31
0.0
0
LINE
5
5a2
100
AcDbEntity
8
0-9扉体
6
CONTINUOUS
62
4
100
AcDbLine
10
1172.686000000000
20
1226.466000000000
30
0.0
11
1172.686000000000
21
1224.166000000000
31
0.0
0
LINE
5
5a3
100
AcDbEntity
8
0-9扉体
6
CONTINUOUS
62
4
100
AcDbLine
10
1146.686000000000
20
1226.466000000000
30
0.0
11
1146.686000000000
21
1224.166000000000
31
0.0
0
LINE
5
5a4
100
AcDbEntity
8
0-9扉体
6
CONTINUOUS
62
4
100
AcDbLine
10
1165.686000000000
20
1249.166000000000
30
0.0
11
1153.686000000000
21
1249.166000000000
31
0.0
0
LINE
5
5a5
100
AcDbEntity
8
0-9扉体
6
CONTINUOUS
62
4
100
AcDbLine
10
1165.686000000000
20
1249.166000000000
30
0.0
11
1165.686000000000
21
1239.466000000000
31
0.0
0
LINE
5
5a6
100
AcDbEntity
8
0-9扉体
6
CONTINUOUS
62
4
100
AcDbLine
10
1153.686000000000
20
1249.166000000000
30
0.0
11
1153.686000000000
21
1239.466000000000
31
0.0
0
LINE
5
5a7
100
AcDbEntity
8
0-9扉体
6
CONTINUOUS
62
4
100
AcDbLine
10
1164.686000000000
20
1249.166000000000
30
0.0
11
1164.686000000000
21
1239.466000000000
31
0.0
0
LINE
5
5a8
100
AcDbEntity
8
0-9扉体
6
CONTINUOUS
62
4
100
AcDbLine
10
1154.686000000000
20
1249.166000000000
30
0.0
11
1154.686000000000
21
1239.466000000000
31
0.0
0
LINE
5
5a9
100
AcDbEntity
8
0-9扉体
6
CONTINUOUS
62
4
100
AcDbLine
10
1159.686000000000
20
1229.466000000000
30
0.0
11
1162.686000000000
21
1226.466000000000
31
0.0
0
LINE
5
5aa
100
AcDbEntity
8
0-9扉体
6
CONTINUOUS
62
4
100
AcDbLine
10
1159.686000000000
20
1226.466000000000
30
0.0
11
1156.686000000000
21
1229.466000000000
31
0.0
0
LINE
5
5ab
100
AcDbEntity
8
0-9扉体
6
CONTINUOUS
62
4
100
AcDbLine
10
1170.436000000000
20
1229.466000000000
30
0.0
11
1170.436000000000
21
1226.466000000000
31
0.0
0
POLYLINE
5
5ac
100
AcDbEntity
8
0-9扉体
6
CONTINUOUS
62
  4
100
AcDb2dPolyline
66
1
10
0.0
20
0.0
30
0.0
70
0
0
VERTEX
5
5ad
100
AcDbEntity
8
0-9扉体
6
CONTINUOUS
62
  4
100
AcDbVertex
100
AcDb2dVertex
10
1170.436000000000
20
1229.466000000000
30
0.0
0
VERTEX
5
5ae
100
AcDbEntity
8
0-9扉体
6
CONTINUOUS
62
  4
100
AcDbVertex
100
AcDb2dVertex
10
1148.936000000000
20
1229.466000000000
30
0.0
0
VERTEX
5
5af
100
AcDbEntity
8
0-9扉体
6
CONTINUOUS
62
  4
100
AcDbVertex
100
AcDb2dVertex
10
1148.936000000000
20
1226.466000000000
30
0.0
0
SEQEND
5
5b0
100
AcDbEntity
8
0-9扉体
0
LINE
5
5b1
100
AcDbEntity
8
0-5基準線
6
CENTER2
62
7
100
AcDbLine
10
1159.686000000000
20
1252.121000000000
30
0.0
11
1159.686000000000
21
1238.617000000000
31
0.0
0
LINE
5
5b2
100
AcDbEntity
8
0-6戸当り
6
CONTINUOUS
62
3
100
AcDbLine
10
1130.686000000000
20
1225.166000000000
30
0.0
11
1088.686000000000
21
1225.166000000000
31
0.0
0
LINE
5
5b3
100
AcDbEntity
8
0-6戸当り
6
DOT
62
2
100
AcDbLine
10
1038.686000000000
20
1220.166000000000
30
0.0
11
1038.686000000000
21
1225.166000000000
31
0.0
0
LINE
5
5b4
100
AcDbEntity
8
0-6戸当り
6
CONTINUOUS
62
2
100
AcDbLine
10
1044.686000000000
20
1224.166000000000
30
0.0
11
1044.686000000000
21
1225.166000000000
31
0.0
0
LINE
5
5b5
100
AcDbEntity
8
0-6戸当り
6
CONTINUOUS
62
3
100
AcDbLine
10
1146.686000000000
20
1225.166000000000
30
0.0
11
1139.686000000000
21
1225.166000000000
31
0.0
0
LINE
5
5b6
100
AcDbEntity
8
0-6戸当り
6
CONTINUOUS
62
3
100
AcDbLine
10
1079.686000000000
20
1225.166000000000
30
0.0
11
1072.686000000000
21
1225.166000000000
31
0.0
0
LINE
5
5b7
100
AcDbEntity
8
0-5基準線
6
CENTER2
62
7
100
AcDbLine
10
1038.005000000000
20
1265.166000000000
30
0.0
11
1181.686000000000
21
1265.166000000000
31
0.0
0
LINE
5
5b8
100
AcDbEntity
8
0-5基準線
6
CENTER2
62
7
100
AcDbLine
10
1159.686000000000
20
1229.466000000000
30
0.0
11
1159.686000000000
21
1196.944000000000
31
0.0
0
LINE
5
5b9
100
AcDbEntity
8
0-5基準線
6
CENTER2
62
7
100
AcDbLine
10
1059.686000000000
20
1229.466000000000
30
0.0
11
1059.686000000000
21
1196.944000000000
31
0.0
0
LINE
5
5ba
100
AcDbEntity
8
0-5基準線
6
CENTER2
62
7
100
AcDbLine
10
2303.827000000000
20
1265.166000000000
30
0.0
11
2452.118000000000
21
1265.166000000000
31
0.0
0
LINE
5
5bb
100
AcDbEntity
8
0-3RC
6
CONTINUOUS
62
6
100
AcDbLine
10
2379.118000000000
20
1286.335000000000
30
0.0
11
2467.949000000000
21
1375.166000000000
31
0.0
0
LINE
5
5bc
100
AcDbEntity
8
0-6戸当り
6
CONTINUOUS
62
3
100
AcDbLine
10
2379.118000000000
20
1220.666000000000
30
0.0
11
2379.118000000000
21
1187.666000000000
31
0.0
0
LINE
5
5bd
100
AcDbEntity
8
0-6戸当り
6
CONTINUOUS
62
3
100
AcDbLine
10
2385.618000000000
20
1181.166000000000
30
0.0
11
2429.118000000000
21
1181.166000000000
31
0.0
0
LINE
5
5be
100
AcDbEntity
8
0-5基準線
6
CENTER2
62
7
100
AcDbLine
10
1109.686000000000
20
1300.712000000000
30
0.0
11
1109.686000000000
21
1196.944000000000
31
0.0
0
LINE
5
5bf
100
AcDbEntity
8
0-3RC
6
CONTINUOUS
62
6
100
AcDbLine
10
1456.868000000000
20
1375.166000000000
30
0.0
11
1494.686000000000
21
1337.347000000000
31
0.0
0
LINE
5
5c0
100
AcDbEntity
8
0-8寸法
6
CONTINUOUS
62
4
100
AcDbLine
10
2488.039000000000
20
975.166000000000
30
0.0
11
2373.118000000000
21
975.166000000000
31
0.0
0
LINE
5
5c1
100
AcDbEntity
8
0-8寸法
6
CONTINUOUS
62
4
100
AcDbLine
10
1109.686000000000
20
1308.177000000000
30
0.0
11
1109.686000000000
21
1535.166000000000
31
0.0
0
LINE
5
5c2
100
AcDbEntity
8
0-8寸法
6
CONTINUOUS
62
4
100
AcDbLine
10
1279.686000000000
20
1308.177000000000
30
0.0
11
1279.686000000000
21
1535.166000000000
31
0.0
0
LINE
5
5c3
100
AcDbEntity
8
0-5基準線
6
CENTER2
62
7
100
AcDbLine
10
1194.686000000000
20
947.200000000000
30
0.0
11
1194.686000000000
21
675.166000000000
31
0.0
0
LINE
5
5c4
100
AcDbEntity
8
0-5基準線
6
CENTER2
62
7
100
AcDbLine
10
1194.686000000000
20
1425.166000000000
30
0.0
11
1194.686000000000
21
1110.817000000000
31
0.0
0
LINE
5
5c5
100
AcDbEntity
8
0-6戸当り
6
CONTINUOUS
62
6
100
AcDbLine
10
2322.118000000000
20
1274.166000000000
30
0.0
11
2325.258000000000
21
1274.166000000000
31
0.0
0
LINE
5
5c6
100
AcDbEntity
8
0-6戸当り
6
DOT
62
6
100
AcDbLine
10
2325.258000000000
20
1274.166000000000
30
0.0
11
2360.618000000000
21
1274.166000000000
31
0.0
0
LINE
5
5c7
100
AcDbEntity
8
0-6戸当り
6
DOT
62
6
100
AcDbLine
10
2360.618000000000
20
1282.166000000000
30
0.0
11
2332.582000000000
21
1282.166000000000
31
0.0
0
LINE
5
5c8
100
AcDbEntity
8
0-6戸当り
6
CONTINUOUS
62
6
100
AcDbLine
10
2332.582000000000
20
1282.166000000000
30
0.0
11
2322.118000000000
21
1282.166000000000
31
0.0
0
LINE
5
5c9
100
AcDbEntity
8
0-8寸法
6
CONTINUOUS
62
4
100
AcDbLine
10
1709.796000000000
20
425.166000000000
30
0.0
11
2273.118000000000
21
425.166000000000
31
0.0
0
LINE
5
5ca
100
AcDbEntity
8
0-8寸法
6
CONTINUOUS
62
4
100
AcDbLine
10
2273.118000000000
20
625.166000000000
30
0.0
11
2412.083000000000
21
872.582000000000
31
0.0
0
LINE
5
5cb
100
AcDbEntity
8
0-5基準線
6
CENTER2
62
7
100
AcDbLine
10
2412.618000000000
20
848.666000000000
30
0.0
11
2412.618000000000
21
869.166000000000
31
0.0
0
LINE
5
5cc
100
AcDbEntity
8
0-5基準線
6
CENTER2
62
7
100
AcDbLine
10
2399.618000000000
20
835.666000000000
30
0.0
11
2379.118000000000
21
835.666000000000
31
0.0
0
LINE
5
5cd
100
AcDbEntity
8
0-6戸当り
6
CONTINUOUS
62
3
100
AcDbLine
10
2379.118000000000
20
1325.166000000000
30
0.0
11
2379.118000000000
21
1225.166000000000
31
0.0
0
POLYLINE
5
5ce
100
AcDbEntity
8
0-6戸当り
6
CONTINUOUS
62
  3
100
AcDb2dPolyline
66
1
10
0.0
20
0.0
30
0.0
70
0
0
VERTEX
5
5cf
100
AcDbEntity
8
0-6戸当り
6
CONTINUOUS
62
  3
100
AcDbVertex
100
AcDb2dVertex
10
2379.118000000000
20
1321.166000000000
30
0.0
0
VERTEX
5
5d0
100
AcDbEntity
8
0-6戸当り
6
CONTINUOUS
62
  3
100
AcDbVertex
100
AcDb2dVertex
10
2429.118000000000
20
1321.166000000000
30
0.0
0
VERTEX
5
5d1
100
AcDbEntity
8
0-6戸当り
6
CONTINUOUS
62
  3
100
AcDbVertex
100
AcDb2dVertex
10
2429.118000000000
20
1181.166000000000
30
0.0
0
SEQEND
5
5d2
100
AcDbEntity
8
0-6戸当り
0
LINE
5
5d3
100
AcDbEntity
8
0-5基準線
6
CENTER2
62
7
100
AcDbLine
10
2442.118000000000
20
1320.166000000000
30
0.0
11
2442.118000000000
21
1300.166000000000
31
0.0
0
LINE
5
5d4
100
AcDbEntity
8
0-6戸当り
6
CONTINUOUS
62
6
100
AcDbLine
10
2398.118000000000
20
1316.166000000000
30
0.0
11
2398.118000000000
21
1304.166000000000
31
0.0
0
LINE
5
5d5
100
AcDbEntity
8
0-6戸当り
6
CONTINUOUS
62
7
100
AcDbLine
10
2389.118000000000
20
1319.666000000000
30
0.0
11
2389.118000000000
21
1300.666000000000
31
0.0
0
LINE
5
5d6
100
AcDbEntity
8
0-6戸当り
6
CONTINUOUS
62
7
100
AcDbLine
10
2389.118000000000
20
1319.666000000000
30
0.0
11
2388.269000000000
21
1321.135000000000
31
0.0
0
LINE
5
5d7
100
AcDbEntity
8
0-6戸当り
6
CONTINUOUS
62
7
100
AcDbLine
10
2389.118000000000
20
1300.666000000000
30
0.0
11
2388.269000000000
21
1299.196000000000
31
0.0
0
LINE
5
5d8
100
AcDbEntity
8
0-6戸当り
6
CONTINUOUS
62
7
100
AcDbLine
10
2379.118000000000
20
1321.135000000000
30
0.0
11
2388.269000000000
21
1321.135000000000
31
0.0
0
LINE
5
5d9
100
AcDbEntity
8
0-6戸当り
6
CONTINUOUS
62
7
100
AcDbLine
10
2379.118000000000
20
1299.196000000000
30
0.0
11
2388.269000000000
21
1299.196000000000
31
0.0
0
LINE
5
5da
100
AcDbEntity
8
0-6戸当り
6
CONTINUOUS
62
7
100
AcDbLine
10
2379.118000000000
20
1315.651000000000
30
0.0
11
2388.269000000000
21
1315.651000000000
31
0.0
0
LINE
5
5db
100
AcDbEntity
8
0-6戸当り
6
CONTINUOUS
62
7
100
AcDbLine
10
2379.118000000000
20
1304.681000000000
30
0.0
11
2388.269000000000
21
1304.681000000000
31
0.0
0
LINE
5
5dc
100
AcDbEntity
8
0-6戸当り
6
CONTINUOUS
62
6
100
AcDbLine
10
2389.118000000000
20
1316.166000000000
30
0.0
11
2442.118000000000
21
1316.166000000000
31
0.0
0
LINE
5
5dd
100
AcDbEntity
8
0-6戸当り
6
CONTINUOUS
62
6
100
AcDbLine
10
2389.118000000000
20
1315.166000000000
30
0.0
11
2398.118000000000
21
1315.166000000000
31
0.0
0
LINE
5
5de
100
AcDbEntity
8
0-6戸当り
6
CONTINUOUS
62
6
100
AcDbLine
10
2389.118000000000
20
1305.166000000000
30
0.0
11
2398.118000000000
21
1305.166000000000
31
0.0
0
LINE
5
5df
100
AcDbEntity
8
0-5基準線
6
CENTER2
62
7
100
AcDbLine
10
2332.085000000000
20
1310.166000000000
30
0.0
11
2466.814000000000
21
1310.166000000000
31
0.0
0
LINE
5
5e0
100
AcDbEntity
8
0-6戸当り
6
CONTINUOUS
62
3
100
AcDbLine
10
1049.686000000000
20
1325.166000000000
30
0.0
11
1169.686000000000
21
1325.166000000000
31
0.0
0
LINE
5
5e1
100
AcDbEntity
8
0-6戸当り
6
CONTINUOUS
62
7
100
AcDbLine
10
1071.686000000000
20
1315.651000000000
30
0.0
11
1062.186000000000
21
1321.135000000000
31
0.0
0
LINE
5
5e2
100
AcDbEntity
8
0-6戸当り
6
CONTINUOUS
62
7
100
AcDbLine
10
1071.686000000000
20
1315.651000000000
30
0.0
11
1071.686000000000
21
1304.681000000000
31
0.0
0
LINE
5
5e3
100
AcDbEntity
8
0-6戸当り
6
CONTINUOUS
62
7
100
AcDbLine
10
1062.186000000000
20
1299.196000000000
30
0.0
11
1071.686000000000
21
1304.681000000000
31
0.0
0
POLYLINE
5
5e4
100
AcDbEntity
8
0-6戸当り
6
CONTINUOUS
62
  7
100
AcDb2dPolyline
66
1
10
0.0
20
0.0
30
0.0
70
0
0
VERTEX
5
5e5
100
AcDbEntity
8
0-6戸当り
6
CONTINUOUS
62
  7
100
AcDbVertex
100
AcDb2dVertex
10
1062.186000000000
20
1299.196000000000
30
0.0
0
VERTEX
5
5e6
100
AcDbEntity
8
0-6戸当り
6
CONTINUOUS
62
  7
100
AcDbVertex
100
AcDb2dVertex
10
1052.686000000000
20
1304.681000000000
30
0.0
0
VERTEX
5
5e7
100
AcDbEntity
8
0-6戸当り
6
CONTINUOUS
62
  7
100
AcDbVertex
100
AcDb2dVertex
10
1052.686000000000
20
1315.651000000000
30
0.0
0
VERTEX
5
5e8
100
AcDbEntity
8
0-6戸当り
6
CONTINUOUS
62
  7
100
AcDbVertex
100
AcDb2dVertex
10
1062.186000000000
20
1321.135000000000
30
0.0
0
SEQEND
5
5e9
100
AcDbEntity
8
0-6戸当り
0
LINE
5
5ea
100
AcDbEntity
8
0-5基準線
6
CENTER2
62
7
100
AcDbLine
10
1062.186000000000
20
1322.166000000000
30
0.0
11
1062.186000000000
21
1298.166000000000
31
0.0
0
LINE
5
5eb
100
AcDbEntity
8
0-5基準線
6
CENTER2
62
7
100
AcDbLine
10
1048.406000000000
20
1310.166000000000
30
0.0
11
1077.939000000000
21
1310.166000000000
31
0.0
0
LINE
5
5ec
100
AcDbEntity
8
0-6戸当り
6
CONTINUOUS
62
7
100
AcDbLine
10
1147.686000000000
20
1315.651000000000
30
0.0
11
1157.186000000000
21
1321.135000000000
31
0.0
0
LINE
5
5ed
100
AcDbEntity
8
0-6戸当り
6
CONTINUOUS
62
7
100
AcDbLine
10
1147.686000000000
20
1315.651000000000
30
0.0
11
1147.686000000000
21
1304.681000000000
31
0.0
0
LINE
5
5ee
100
AcDbEntity
8
0-6戸当り
6
CONTINUOUS
62
7
100
AcDbLine
10
1157.186000000000
20
1299.196000000000
30
0.0
11
1147.686000000000
21
1304.681000000000
31
0.0
0
POLYLINE
5
5ef
100
AcDbEntity
8
0-6戸当り
6
CONTINUOUS
62
  7
100
AcDb2dPolyline
66
1
10
0.0
20
0.0
30
0.0
70
0
0
VERTEX
5
5f0
100
AcDbEntity
8
0-6戸当り
6
CONTINUOUS
62
  7
100
AcDbVertex
100
AcDb2dVertex
10
1157.186000000000
20
1299.196000000000
30
0.0
0
VERTEX
5
5f1
100
AcDbEntity
8
0-6戸当り
6
CONTINUOUS
62
  7
100
AcDbVertex
100
AcDb2dVertex
10
1166.686000000000
20
1304.681000000000
30
0.0
0
VERTEX
5
5f2
100
AcDbEntity
8
0-6戸当り
6
CONTINUOUS
62
  7
100
AcDbVertex
100
AcDb2dVertex
10
1166.686000000000
20
1315.651000000000
30
0.0
0
VERTEX
5
5f3
100
AcDbEntity
8
0-6戸当り
6
CONTINUOUS
62
  7
100
AcDbVertex
100
AcDb2dVertex
10
1157.186000000000
20
1321.135000000000
30
0.0
0
SEQEND
5
5f4
100
AcDbEntity
8
0-6戸当り
0
LINE
5
5f5
100
AcDbEntity
8
0-5基準線
6
CENTER2
62
7
100
AcDbLine
10
1157.186000000000
20
1322.166000000000
30
0.0
11
1157.186000000000
21
1298.166000000000
31
0.0
0
LINE
5
5f6
100
AcDbEntity
8
0-5基準線
6
CENTER2
62
7
100
AcDbLine
10
1170.967000000000
20
1310.166000000000
30
0.0
11
1141.433000000000
21
1310.166000000000
31
0.0
0
LINE
5
5f7
100
AcDbEntity
8
0-3RC
6
CONTINUOUS
62
6
100
AcDbLine
10
961.893000000000
20
1375.166000000000
30
0.0
11
1049.686000000000
21
1287.373000000000
31
0.0
0
LINE
5
5f8
100
AcDbEntity
8
0-3RC
6
CONTINUOUS
62
6
100
AcDbLine
10
894.686000000000
20
1371.662000000000
30
0.0
11
1039.934000000000
21
1226.414000000000
31
0.0
0
LINE
5
5f9
100
AcDbEntity
8
0-3RC
6
CONTINUOUS
62
6
100
AcDbLine
10
1032.604000000000
20
1375.166000000000
30
0.0
11
1082.604000000000
21
1325.166000000000
31
0.0
0
LINE
5
5fa
100
AcDbEntity
8
0-6戸当り
6
CONTINUOUS
62
3
100
AcDbLine
10
1049.686000000000
20
1325.166000000000
30
0.0
11
1049.686000000000
21
1242.168000000000
31
0.0
0
LINE
5
5fb
100
AcDbEntity
8
0-6戸当り
6
CONTINUOUS
62
3
100
AcDbLine
10
1169.686000000000
20
1325.166000000000
30
0.0
11
1169.686000000000
21
1243.439000000000
31
0.0
0
LINE
5
5fc
100
AcDbEntity
8
0-8寸法
6
CONTINUOUS
62
4
100
AcDbLine
10
1009.686000000000
20
1525.166000000000
30
0.0
11
1086.794000000000
21
1310.191000000000
31
0.0
0
LINE
5
5fd
100
AcDbEntity
8
0-3RC
6
CONTINUOUS
62
6
100
AcDbLine
10
1103.315000000000
20
1375.166000000000
30
0.0
11
1153.314000000000
21
1325.166000000000
31
0.0
0
LINE
5
5fe
100
AcDbEntity
8
0-6戸当り
6
CONTINUOUS
62
3
100
AcDbLine
10
1339.686000000000
20
1325.166000000000
30
0.0
11
1219.686000000000
21
1325.166000000000
31
0.0
0
LINE
5
5ff
100
AcDbEntity
8
0-6戸当り
6
CONTINUOUS
62
7
100
AcDbLine
10
1317.686000000000
20
1315.651000000000
30
0.0
11
1327.186000000000
21
1321.135000000000
31
0.0
0
LINE
5
600
100
AcDbEntity
8
0-6戸当り
6
CONTINUOUS
62
7
100
AcDbLine
10
1317.686000000000
20
1315.651000000000
30
0.0
11
1317.686000000000
21
1304.681000000000
31
0.0
0
LINE
5
601
100
AcDbEntity
8
0-6戸当り
6
CONTINUOUS
62
7
100
AcDbLine
10
1327.186000000000
20
1299.196000000000
30
0.0
11
1317.686000000000
21
1304.681000000000
31
0.0
0
POLYLINE
5
602
100
AcDbEntity
8
0-6戸当り
6
CONTINUOUS
62
  7
100
AcDb2dPolyline
66
1
10
0.0
20
0.0
30
0.0
70
0
0
VERTEX
5
603
100
AcDbEntity
8
0-6戸当り
6
CONTINUOUS
62
  7
100
AcDbVertex
100
AcDb2dVertex
10
1327.186000000000
20
1299.196000000000
30
0.0
0
VERTEX
5
604
100
AcDbEntity
8
0-6戸当り
6
CONTINUOUS
62
  7
100
AcDbVertex
100
AcDb2dVertex
10
1336.686000000000
20
1304.681000000000
30
0.0
0
VERTEX
5
605
100
AcDbEntity
8
0-6戸当り
6
CONTINUOUS
62
  7
100
AcDbVertex
100
AcDb2dVertex
10
1336.686000000000
20
1315.651000000000
30
0.0
0
VERTEX
5
606
100
AcDbEntity
8
0-6戸当り
6
CONTINUOUS
62
  7
100
AcDbVertex
100
AcDb2dVertex
10
1327.186000000000
20
1321.135000000000
30
0.0
0
SEQEND
5
607
100
AcDbEntity
8
0-6戸当り
0
LINE
5
608
100
AcDbEntity
8
0-5基準線
6
CENTER2
62
7
100
AcDbLine
10
1327.186000000000
20
1322.166000000000
30
0.0
11
1327.186000000000
21
1298.166000000000
31
0.0
0
LINE
5
609
100
AcDbEntity
8
0-5基準線
6
CENTER2
62
7
100
AcDbLine
10
1340.967000000000
20
1310.166000000000
30
0.0
11
1311.433000000000
21
1310.166000000000
31
0.0
0
LINE
5
60a
100
AcDbEntity
8
0-6戸当り
6
CONTINUOUS
62
7
100
AcDbLine
10
1241.686000000000
20
1315.651000000000
30
0.0
11
1232.186000000000
21
1321.135000000000
31
0.0
0
LINE
5
60b
100
AcDbEntity
8
0-6戸当り
6
CONTINUOUS
62
7
100
AcDbLine
10
1241.686000000000
20
1315.651000000000
30
0.0
11
1241.686000000000
21
1304.681000000000
31
0.0
0
LINE
5
60c
100
AcDbEntity
8
0-6戸当り
6
CONTINUOUS
62
7
100
AcDbLine
10
1232.186000000000
20
1299.196000000000
30
0.0
11
1241.686000000000
21
1304.681000000000
31
0.0
0
POLYLINE
5
60d
100
AcDbEntity
8
0-6戸当り
6
CONTINUOUS
62
  7
100
AcDb2dPolyline
66
1
10
0.0
20
0.0
30
0.0
70
0
0
VERTEX
5
60e
100
AcDbEntity
8
0-6戸当り
6
CONTINUOUS
62
  7
100
AcDbVertex
100
AcDb2dVertex
10
1232.186000000000
20
1299.196000000000
30
0.0
0
VERTEX
5
60f
100
AcDbEntity
8
0-6戸当り
6
CONTINUOUS
62
  7
100
AcDbVertex
100
AcDb2dVertex
10
1222.686000000000
20
1304.681000000000
30
0.0
0
VERTEX
5
610
100
AcDbEntity
8
0-6戸当り
6
CONTINUOUS
62
  7
100
AcDbVertex
100
AcDb2dVertex
10
1222.686000000000
20
1315.651000000000
30
0.0
0
VERTEX
5
611
100
AcDbEntity
8
0-6戸当り
6
CONTINUOUS
62
  7
100
AcDbVertex
100
AcDb2dVertex
10
1232.186000000000
20
1321.135000000000
30
0.0
0
SEQEND
5
612
100
AcDbEntity
8
0-6戸当り
0
LINE
5
613
100
AcDbEntity
8
0-5基準線
6
CENTER2
62
7
100
AcDbLine
10
1232.186000000000
20
1322.166000000000
30
0.0
11
1232.186000000000
21
1298.166000000000
31
0.0
0
LINE
5
614
100
AcDbEntity
8
0-5基準線
6
CENTER2
62
7
100
AcDbLine
10
1218.406000000000
20
1310.166000000000
30
0.0
11
1247.939000000000
21
1310.166000000000
31
0.0
0
LINE
5
615
100
AcDbEntity
8
0-6戸当り
6
CONTINUOUS
62
3
100
AcDbLine
10
1339.686000000000
20
1325.166000000000
30
0.0
11
1339.686000000000
21
1242.168000000000
31
0.0
0
LINE
5
616
100
AcDbEntity
8
0-6戸当り
6
CONTINUOUS
62
3
100
AcDbLine
10
1219.686000000000
20
1325.166000000000
30
0.0
11
1219.686000000000
21
1243.439000000000
31
0.0
0
LINE
5
617
100
AcDbEntity
8
0-3RC
6
CONTINUOUS
62
6
100
AcDbLine
10
1169.686000000000
20
1308.794000000000
30
0.0
11
1219.686000000000
21
1258.794000000000
31
0.0
0
LINE
5
618
100
AcDbEntity
8
0-3RC
6
CONTINUOUS
62
6
100
AcDbLine
10
1174.025000000000
20
1375.166000000000
30
0.0
11
1224.025000000000
21
1325.166000000000
31
0.0
0
LINE
5
619
100
AcDbEntity
8
0-3RC
6
CONTINUOUS
62
6
100
AcDbLine
10
1244.736000000000
20
1375.166000000000
30
0.0
11
1294.736000000000
21
1325.166000000000
31
0.0
0
LINE
5
61a
100
AcDbEntity
8
0-3RC
6
CONTINUOUS
62
6
100
AcDbLine
10
1339.686000000000
20
1280.215000000000
30
0.0
11
1494.686000000000
21
1125.216000000000
31
0.0
0
LINE
5
61b
100
AcDbEntity
8
0-6戸当り
6
CONTINUOUS
62
4
100
AcDbLine
10
2370.118000000000
20
1310.166000000000
30
0.0
11
2373.118000000000
21
1307.166000000000
31
0.0
0
LINE
5
61c
100
AcDbEntity
8
0-6戸当り
6
CONTINUOUS
62
4
100
AcDbLine
10
2373.118000000000
20
1310.166000000000
30
0.0
11
2370.118000000000
21
1313.166000000000
31
0.0
0
LINE
5
61d
100
AcDbEntity
8
0-6戸当り
6
CONTINUOUS
62
6
100
AcDbLine
10
2349.118000000000
20
1316.166000000000
30
0.0
11
2360.118000000000
21
1316.166000000000
31
0.0
0
LINE
5
61e
100
AcDbEntity
8
0-6戸当り
6
CONTINUOUS
62
6
100
AcDbLine
10
2349.118000000000
20
1315.166000000000
30
0.0
11
2360.118000000000
21
1315.166000000000
31
0.0
0
LINE
5
61f
100
AcDbEntity
8
0-6戸当り
6
CONTINUOUS
62
6
100
AcDbLine
10
2349.118000000000
20
1305.166000000000
30
0.0
11
2360.118000000000
21
1305.166000000000
31
0.0
0
LINE
5
620
100
AcDbEntity
8
0-6戸当り
6
CONTINUOUS
62
6
100
AcDbLine
10
2349.118000000000
20
1304.166000000000
30
0.0
11
2360.118000000000
21
1304.166000000000
31
0.0
0
LINE
5
621
100
AcDbEntity
8
0-6戸当り
6
CONTINUOUS
62
7
100
AcDbLine
10
2360.118000000000
20
1300.666000000000
30
0.0
11
2370.118000000000
21
1300.666000000000
31
0.0
0
LINE
5
622
100
AcDbEntity
8
0-6戸当り
6
CONTINUOUS
62
7
100
AcDbLine
10
2360.118000000000
20
1319.666000000000
30
0.0
11
2370.118000000000
21
1319.666000000000
31
0.0
0
LINE
5
623
100
AcDbEntity
8
0-6戸当り
6
CONTINUOUS
62
7
100
AcDbLine
10
2360.118000000000
20
1319.666000000000
30
0.0
11
2360.118000000000
21
1300.666000000000
31
0.0
0
LINE
5
624
100
AcDbEntity
8
0-6戸当り
6
CONTINUOUS
62
7
100
AcDbLine
10
2360.967000000000
20
1310.166000000000
30
0.0
11
2370.118000000000
21
1310.166000000000
31
0.0
0
LINE
5
625
100
AcDbEntity
8
0-6戸当り
6
CONTINUOUS
62
4
100
AcDbLine
10
2370.118000000000
20
1320.916000000000
30
0.0
11
2373.118000000000
21
1320.916000000000
31
0.0
0
LINE
5
626
100
AcDbEntity
8
0-6戸当り
6
CONTINUOUS
62
4
100
AcDbLine
10
2370.118000000000
20
1299.416000000000
30
0.0
11
2370.118000000000
21
1320.916000000000
31
0.0
0
LINE
5
627
100
AcDbEntity
8
0-6戸当り
6
CONTINUOUS
62
4
100
AcDbLine
10
2370.118000000000
20
1299.416000000000
30
0.0
11
2373.118000000000
21
1299.416000000000
31
0.0
0
LINE
5
628
100
AcDbEntity
8
0-5基準線
6
CENTER2
62
7
100
AcDbLine
10
2360.967000000000
20
1310.166000000000
30
0.0
11
2347.851000000000
21
1310.166000000000
31
0.0
0
LINE
5
629
100
AcDbEntity
8
0-6戸当り
6
CONTINUOUS
62
6
100
AcDbLine
10
2349.118000000000
20
1316.166000000000
30
0.0
11
2349.118000000000
21
1304.166000000000
31
0.0
0
LINE
5
62a
100
AcDbEntity
8
0-6戸当り
6
CONTINUOUS
62
6
100
AcDbLine
10
2360.618000000000
20
1282.166000000000
30
0.0
11
2373.118000000000
21
1282.166000000000
31
0.0
0
LINE
5
62b
100
AcDbEntity
8
0-6戸当り
6
CONTINUOUS
62
6
100
AcDbLine
10
2360.618000000000
20
1274.166000000000
30
0.0
11
2373.118000000000
21
1274.166000000000
31
0.0
0
LINE
5
62c
100
AcDbEntity
8
0-6戸当り
6
CONTINUOUS
62
6
100
AcDbLine
10
2360.618000000000
20
1248.166000000000
30
0.0
11
2373.118000000000
21
1248.166000000000
31
0.0
0
LINE
5
62d
100
AcDbEntity
8
0-6戸当り
6
CONTINUOUS
62
6
100
AcDbLine
10
2360.618000000000
20
1256.166000000000
30
0.0
11
2373.118000000000
21
1256.166000000000
31
0.0
0
LINE
5
62e
100
AcDbEntity
8
0-6戸当り
6
CONTINUOUS
62
3
100
AcDbLine
10
2379.118000000000
20
1325.166000000000
30
0.0
11
2373.118000000000
21
1325.166000000000
31
0.0
0
LINE
5
62f
100
AcDbEntity
8
0-9扉体
6
CONTINUOUS
62
4
100
AcDbLine
10
2315.118000000000
20
1209.166000000000
30
0.0
11
2351.118000000000
21
1209.166000000000
31
0.0
0
LINE
5
630
100
AcDbEntity
8
0-9扉体
6
CONTINUOUS
62
4
100
AcDbLine
10
2309.118000000000
20
1155.666000000000
30
0.0
11
2309.118000000000
21
1203.166000000000
31
0.0
0
LINE
5
631
100
AcDbEntity
8
0-9扉体
6
CONTINUOUS
62
4
100
AcDbLine
10
2303.118000000000
20
1215.166000000000
30
0.0
11
2351.118000000000
21
1215.166000000000
31
0.0
0
LINE
5
632
100
AcDbEntity
8
0-9扉体
6
CONTINUOUS
62
4
100
AcDbLine
10
2308.618000000000
20
1155.166000000000
30
0.0
11
2303.118000000000
21
1155.166000000000
31
0.0
0
LINE
5
633
100
AcDbEntity
8
0-9扉体
6
CONTINUOUS
62
4
100
AcDbLine
10
2303.118000000000
20
1215.166000000000
30
0.0
11
2303.118000000000
21
835.166000000000
31
0.0
0
LINE
5
634
100
AcDbEntity
8
0-5基準線
6
CENTER2
62
7
100
AcDbLine
10
2333.714000000000
20
875.166000000000
30
0.0
11
2372.642000000000
21
875.166000000000
31
0.0
0
LINE
5
635
100
AcDbEntity
8
0-5基準線
6
CENTER2
62
7
100
AcDbLine
10
2327.118000000000
20
1251.380000000000
30
0.0
11
2327.118000000000
21
1195.893000000000
31
0.0
0
LINE
5
636
100
AcDbEntity
8
0-9扉体
6
CONTINUOUS
62
4
100
AcDbLine
10
2308.118000000000
20
1224.166000000000
30
0.0
11
2308.118000000000
21
1215.166000000000
31
0.0
0
POLYLINE
5
637
100
AcDbEntity
8
0-9扉体
6
CONTINUOUS
62
  4
100
AcDb2dPolyline
66
1
10
0.0
20
0.0
30
0.0
70
0
0
VERTEX
5
638
100
AcDbEntity
8
0-9扉体
6
CONTINUOUS
62
  4
100
AcDbVertex
100
AcDb2dVertex
10
2308.118000000000
20
1224.166000000000
30
0.0
0
VERTEX
5
639
100
AcDbEntity
8
0-9扉体
6
CONTINUOUS
62
  4
100
AcDbVertex
100
AcDb2dVertex
10
2346.118000000000
20
1224.166000000000
30
0.0
0
VERTEX
5
63a
100
AcDbEntity
8
0-9扉体
6
CONTINUOUS
62
  4
100
AcDbVertex
100
AcDb2dVertex
10
2346.118000000000
20
1215.166000000000
30
0.0
0
SEQEND
5
63b
100
AcDbEntity
8
0-9扉体
0
LINE
5
63c
100
AcDbEntity
8
0-9扉体
6
CONTINUOUS
62
4
100
AcDbLine
10
2314.118000000000
20
1226.466000000000
30
0.0
11
2340.118000000000
21
1226.466000000000
31
0.0
0
LINE
5
63d
100
AcDbEntity
8
0-9扉体
6
CONTINUOUS
62
4
100
AcDbLine
10
2314.118000000000
20
1226.466000000000
30
0.0
11
2314.118000000000
21
1224.166000000000
31
0.0
0
LINE
5
63e
100
AcDbEntity
8
0-9扉体
6
CONTINUOUS
62
4
100
AcDbLine
10
2340.118000000000
20
1226.466000000000
30
0.0
11
2340.118000000000
21
1224.166000000000
31
0.0
0
LINE
5
63f
100
AcDbEntity
8
0-9扉体
6
CONTINUOUS
62
4
100
AcDbLine
10
2316.368000000000
20
1229.466000000000
30
0.0
11
2316.368000000000
21
1226.466000000000
31
0.0
0
LINE
5
640
100
AcDbEntity
8
0-9扉体
6
CONTINUOUS
62
4
100
AcDbLine
10
2337.868000000000
20
1229.466000000000
30
0.0
11
2337.868000000000
21
1226.466000000000
31
0.0
0
LINE
5
641
100
AcDbEntity
8
0-9扉体
6
CONTINUOUS
62
7
100
AcDbLine
10
2317.618000000000
20
1239.466000000000
30
0.0
11
2336.618000000000
21
1239.466000000000
31
0.0
0
LINE
5
642
100
AcDbEntity
8
0-9扉体
6
CONTINUOUS
62
7
100
AcDbLine
10
2317.618000000000
20
1239.466000000000
30
0.0
11
2316.148000000000
21
1238.617000000000
31
0.0
0
LINE
5
643
100
AcDbEntity
8
0-9扉体
6
CONTINUOUS
62
7
100
AcDbLine
10
2336.618000000000
20
1239.466000000000
30
0.0
11
2338.087000000000
21
1238.617000000000
31
0.0
0
LINE
5
644
100
AcDbEntity
8
0-9扉体
6
CONTINUOUS
62
7
100
AcDbLine
10
2316.148000000000
20
1229.466000000000
30
0.0
11
2316.148000000000
21
1238.617000000000
31
0.0
0
LINE
5
645
100
AcDbEntity
8
0-9扉体
6
CONTINUOUS
62
7
100
AcDbLine
10
2338.087000000000
20
1229.466000000000
30
0.0
11
2338.087000000000
21
1238.617000000000
31
0.0
0
LINE
5
646
100
AcDbEntity
8
0-9扉体
6
CONTINUOUS
62
4
100
AcDbLine
10
2316.148000000000
20
1229.466000000000
30
0.0
11
2338.087000000000
21
1229.466000000000
31
0.0
0
LINE
5
647
100
AcDbEntity
8
0-9扉体
6
CONTINUOUS
62
7
100
AcDbLine
10
2321.633000000000
20
1229.466000000000
30
0.0
11
2321.633000000000
21
1238.617000000000
31
0.0
0
LINE
5
648
100
AcDbEntity
8
0-9扉体
6
CONTINUOUS
62
7
100
AcDbLine
10
2332.603000000000
20
1229.466000000000
30
0.0
11
2332.603000000000
21
1238.617000000000
31
0.0
0
LINE
5
649
100
AcDbEntity
8
0-9扉体
6
CONTINUOUS
62
7
100
AcDbLine
10
2336.618000000000
20
1201.166000000000
30
0.0
11
2317.618000000000
21
1201.166000000000
31
0.0
0
LINE
5
64a
100
AcDbEntity
8
0-9扉体
6
CONTINUOUS
62
7
100
AcDbLine
10
2336.618000000000
20
1201.166000000000
30
0.0
11
2338.087000000000
21
1202.015000000000
31
0.0
0
LINE
5
64b
100
AcDbEntity
8
0-9扉体
6
CONTINUOUS
62
7
100
AcDbLine
10
2317.618000000000
20
1201.166000000000
30
0.0
11
2316.148000000000
21
1202.015000000000
31
0.0
0
LINE
5
64c
100
AcDbEntity
8
0-9扉体
6
CONTINUOUS
62
7
100
AcDbLine
10
2338.087000000000
20
1209.166000000000
30
0.0
11
2338.087000000000
21
1202.015000000000
31
0.0
0
LINE
5
64d
100
AcDbEntity
8
0-9扉体
6
CONTINUOUS
62
7
100
AcDbLine
10
2316.148000000000
20
1209.166000000000
30
0.0
11
2316.148000000000
21
1202.015000000000
31
0.0
0
LINE
5
64e
100
AcDbEntity
8
0-9扉体
6
CONTINUOUS
62
7
100
AcDbLine
10
2332.603000000000
20
1209.166000000000
30
0.0
11
2332.603000000000
21
1202.015000000000
31
0.0
0
LINE
5
64f
100
AcDbEntity
8
0-9扉体
6
CONTINUOUS
62
7
100
AcDbLine
10
2321.633000000000
20
1209.166000000000
30
0.0
11
2321.633000000000
21
1202.015000000000
31
0.0
0
LINE
5
650
100
AcDbEntity
8
0-9扉体
6
CONTINUOUS
62
4
100
AcDbLine
10
2321.118000000000
20
1249.166000000000
30
0.0
11
2333.118000000000
21
1249.166000000000
31
0.0
0
LINE
5
651
100
AcDbEntity
8
0-9扉体
6
CONTINUOUS
62
4
100
AcDbLine
10
2321.118000000000
20
1249.166000000000
30
0.0
11
2321.118000000000
21
1239.466000000000
31
0.0
0
LINE
5
652
100
AcDbEntity
8
0-9扉体
6
CONTINUOUS
62
4
100
AcDbLine
10
2333.118000000000
20
1249.166000000000
30
0.0
11
2333.118000000000
21
1239.466000000000
31
0.0
0
LINE
5
653
100
AcDbEntity
8
0-9扉体
6
CONTINUOUS
62
4
100
AcDbLine
10
2322.118000000000
20
1249.166000000000
30
0.0
11
2322.118000000000
21
1239.466000000000
31
0.0
0
LINE
5
654
100
AcDbEntity
8
0-9扉体
6
CONTINUOUS
62
4
100
AcDbLine
10
2332.118000000000
20
1249.166000000000
30
0.0
11
2332.118000000000
21
1239.466000000000
31
0.0
0
LINE
5
655
100
AcDbEntity
8
0-9扉体
6
CONTINUOUS
62
4
100
AcDbLine
10
2327.118000000000
20
1229.466000000000
30
0.0
11
2324.118000000000
21
1226.466000000000
31
0.0
0
LINE
5
656
100
AcDbEntity
8
0-9扉体
6
CONTINUOUS
62
4
100
AcDbLine
10
2327.118000000000
20
1226.466000000000
30
0.0
11
2330.118000000000
21
1229.466000000000
31
0.0
0
LINE
5
657
100
AcDbEntity
8
0-8寸法
6
CONTINUOUS
62
4
100
AcDbLine
10
2360.118000000000
20
1075.166000000000
30
0.0
11
2379.436000000000
21
1080.342000000000
31
0.0
0
LINE
5
658
100
AcDbEntity
8
0-8寸法
6
CONTINUOUS
62
4
100
AcDbLine
10
2360.118000000000
20
1075.166000000000
30
0.0
11
2379.436000000000
21
1069.990000000000
31
0.0
0
LINE
5
659
100
AcDbEntity
8
0-8寸法
6
CONTINUOUS
62
4
100
AcDbLine
10
2357.118000000000
20
975.166000000000
30
0.0
11
2337.799000000000
21
980.342000000000
31
0.0
0
LINE
5
65a
100
AcDbEntity
8
0-8寸法
6
CONTINUOUS
62
4
100
AcDbLine
10
2357.118000000000
20
975.166000000000
30
0.0
11
2337.799000000000
21
969.990000000000
31
0.0
0
LINE
5
65b
100
AcDbEntity
8
0-8寸法
6
CONTINUOUS
62
4
100
AcDbLine
10
2377.118000000000
20
975.166000000000
30
0.0
11
2309.315000000000
21
975.166000000000
31
0.0
0
LINE
5
65c
100
AcDbEntity
8
0-8寸法
6
CONTINUOUS
62
4
100
AcDbLine
10
2296.010000000000
20
1175.166000000000
30
0.0
11
2196.118000000000
21
1175.166000000000
31
0.0
0
LINE
5
65d
100
AcDbEntity
8
0-8寸法
6
CONTINUOUS
62
4
100
AcDbLine
10
2296.010000000000
20
1215.166000000000
30
0.0
11
2196.118000000000
21
1215.166000000000
31
0.0
0
LINE
5
65e
100
AcDbEntity
8
0-8寸法
6
CONTINUOUS
62
4
100
AcDbLine
10
2206.118000000000
20
1175.166000000000
30
0.0
11
2200.941000000000
21
1155.847000000000
31
0.0
0
LINE
5
65f
100
AcDbEntity
8
0-8寸法
6
CONTINUOUS
62
4
100
AcDbLine
10
2206.118000000000
20
1175.166000000000
30
0.0
11
2211.294000000000
21
1155.847000000000
31
0.0
0
LINE
5
660
100
AcDbEntity
8
0-8寸法
6
CONTINUOUS
62
4
100
AcDbLine
10
2296.010000000000
20
1265.166000000000
30
0.0
11
2196.118000000000
21
1265.166000000000
31
0.0
0
LINE
5
661
100
AcDbEntity
8
0-8寸法
6
CONTINUOUS
62
4
100
AcDbLine
10
2206.118000000000
20
1265.166000000000
30
0.0
11
2200.941000000000
21
1284.484000000000
31
0.0
0
LINE
5
662
100
AcDbEntity
8
0-8寸法
6
CONTINUOUS
62
4
100
AcDbLine
10
2206.118000000000
20
1265.166000000000
30
0.0
11
2211.294000000000
21
1284.484000000000
31
0.0
0
POLYLINE
5
663
100
AcDbEntity
8
0-8寸法
6
CONTINUOUS
62
  4
100
AcDb2dPolyline
66
1
10
0.0
20
0.0
30
0.0
70
0
0
VERTEX
5
664
100
AcDbEntity
8
0-8寸法
6
CONTINUOUS
62
  4
100
AcDbVertex
100
AcDb2dVertex
10
2206.118000000000
20
1099.947000000000
30
0.0
0
VERTEX
5
665
100
AcDbEntity
8
0-8寸法
6
CONTINUOUS
62
  4
100
AcDbVertex
100
AcDb2dVertex
10
2206.118000000000
20
1215.166000000000
30
0.0
0
VERTEX
5
666
100
AcDbEntity
8
0-8寸法
6
CONTINUOUS
62
  4
100
AcDbVertex
100
AcDb2dVertex
10
2206.118000000000
20
1334.358000000000
30
0.0
0
SEQEND
5
667
100
AcDbEntity
8
0-8寸法
0
LINE
5
668
100
AcDbEntity
8
0-8寸法
6
CONTINUOUS
62
4
100
AcDbLine
10
2351.118000000000
20
1075.166000000000
30
0.0
11
2225.531000000000
21
1075.166000000000
31
0.0
0
LINE
5
669
100
AcDbEntity
8
0-8寸法
6
CONTINUOUS
62
4
100
AcDbLine
10
2351.118000000000
20
1075.166000000000
30
0.0
11
2439.596000000000
21
1075.166000000000
31
0.0
0
LINE
5
66a
100
AcDbEntity
8
0-8寸法
6
CONTINUOUS
62
4
100
AcDbLine
10
2303.118000000000
20
1075.166000000000
30
0.0
11
2283.799000000000
21
1080.342000000000
31
0.0
0
LINE
5
66b
100
AcDbEntity
8
0-8寸法
6
CONTINUOUS
62
4
100
AcDbLine
10
2303.118000000000
20
1075.166000000000
30
0.0
11
2283.799000000000
21
1069.990000000000
31
0.0
0
LINE
5
66c
100
AcDbEntity
8
0-5基準線
6
CENTER2
62
7
100
AcDbLine
10
2347.118000000000
20
1287.319000000000
30
0.0
11
2347.118000000000
21
1245.166000000000
31
0.0
0
LINE
5
66d
100
AcDbEntity
8
0-9扉体
6
CONTINUOUS
62
3
100
AcDbLine
10
2329.618000000000
20
1289.166000000000
30
0.0
11
2308.118000000000
21
1224.166000000000
31
0.0
0
LINE
5
66e
100
AcDbEntity
8
0-9扉体
6
CONTINUOUS
62
3
100
AcDbLine
10
2346.118000000000
20
1224.166000000000
30
0.0
11
2364.618000000000
21
1242.666000000000
31
0.0
0
LINE
5
66f
100
AcDbEntity
8
0-9扉体
6
CONTINUOUS
62
3
100
AcDbLine
10
2368.933000000000
20
1202.366000000000
30
0.0
11
2372.696000000000
21
1198.603000000000
31
0.0
0
LINE
5
670
100
AcDbEntity
8
0-9扉体
6
CONTINUOUS
62
3
100
AcDbLine
10
2362.555000000000
20
1208.744000000000
30
0.0
11
2366.318000000000
21
1204.981000000000
31
0.0
0
LINE
5
671
100
AcDbEntity
8
0-9扉体
6
CONTINUOUS
62
3
100
AcDbLine
10
2366.725000000000
20
1197.503000000000
30
0.0
11
2369.653000000000
21
1194.576000000000
31
0.0
0
LINE
5
672
100
AcDbEntity
8
0-9扉体
6
CONTINUOUS
62
3
100
AcDbLine
10
2358.528000000000
20
1205.701000000000
30
0.0
11
2361.455000000000
21
1202.773000000000
31
0.0
0
LINE
5
673
100
AcDbEntity
8
0-9扉体
6
CONTINUOUS
62
3
100
AcDbLine
10
2357.118000000000
20
1200.040000000000
30
0.0
11
2363.898000000000
21
1193.259000000000
31
0.0
0
LINE
5
674
100
AcDbEntity
8
0-9扉体
6
CONTINUOUS
62
3
100
AcDbLine
10
2357.118000000000
20
1192.969000000000
30
0.0
11
2363.118000000000
21
1186.969000000000
31
0.0
0
LINE
5
675
100
AcDbEntity
8
0-9扉体
6
CONTINUOUS
62
3
100
AcDbLine
10
2357.118000000000
20
1185.898000000000
30
0.0
11
2363.118000000000
21
1179.898000000000
31
0.0
0
LINE
5
676
100
AcDbEntity
8
0-9扉体
6
CONTINUOUS
62
3
100
AcDbLine
10
2357.118000000000
20
1164.684000000000
30
0.0
11
2363.118000000000
21
1158.684000000000
31
0.0
0
LINE
5
677
100
AcDbEntity
8
0-9扉体
6
CONTINUOUS
62
3
100
AcDbLine
10
2357.118000000000
20
1201.166000000000
30
0.0
11
2357.118000000000
21
1158.166000000000
31
0.0
0
LINE
5
678
100
AcDbEntity
8
0-9扉体
6
CONTINUOUS
62
3
100
AcDbLine
10
2363.118000000000
20
1179.166000000000
30
0.0
11
2357.118000000000
21
1179.166000000000
31
0.0
0
LINE
5
679
100
AcDbEntity
8
0-9扉体
6
CONTINUOUS
62
3
100
AcDbLine
10
2363.118000000000
20
1171.166000000000
30
0.0
11
2357.118000000000
21
1171.166000000000
31
0.0
0
LINE
5
67a
100
AcDbEntity
8
0-9扉体
6
DOT
62
3
100
AcDbLine
10
2365.118000000000
20
1171.165000000000
30
0.0
11
2369.118000000000
21
1167.166000000000
31
0.0
0
LINE
5
67b
100
AcDbEntity
8
0-9扉体
6
DOT
62
3
100
AcDbLine
10
2365.118000000000
20
1179.165000000000
30
0.0
11
2369.118000000000
21
1183.166000000000
31
0.0
0
LINE
5
67c
100
AcDbEntity
8
0-9扉体
6
DOT
62
3
100
AcDbLine
10
2365.118000000000
20
1171.165000000000
30
0.0
11
2365.118000000000
21
1179.165000000000
31
0.0
0
LINE
5
67d
100
AcDbEntity
8
0-9扉体
6
CONTINUOUS
62
3
100
AcDbLine
10
2363.118000000000
20
1191.166000000000
30
0.0
11
2369.118000000000
21
1191.166000000000
31
0.0
0
LINE
5
67e
100
AcDbEntity
8
0-9扉体
6
CONTINUOUS
62
3
100
AcDbLine
10
2369.118000000000
20
1159.166000000000
30
0.0
11
2369.118000000000
21
1191.166000000000
31
0.0
0
LINE
5
67f
100
AcDbEntity
8
0-9扉体
6
CONTINUOUS
62
3
100
AcDbLine
10
2363.118000000000
20
1159.166000000000
30
0.0
11
2369.118000000000
21
1159.166000000000
31
0.0
0
LINE
5
680
100
AcDbEntity
8
0-9扉体
6
DOT
62
3
100
AcDbLine
10
2351.118000000000
20
1179.165000000000
30
0.0
11
2365.118000000000
21
1179.165000000000
31
0.0
0
LINE
5
681
100
AcDbEntity
8
0-9扉体
6
DOT
62
3
100
AcDbLine
10
2351.118000000000
20
1171.165000000000
30
0.0
11
2365.118000000000
21
1171.165000000000
31
0.0
0
LINE
5
682
100
AcDbEntity
8
0-9扉体
6
CONTINUOUS
62
3
100
AcDbLine
10
2349.518000000000
20
1166.166000000000
30
0.0
11
2351.118000000000
21
1166.166000000000
31
0.0
0
LINE
5
683
100
AcDbEntity
8
0-9扉体
6
CONTINUOUS
62
3
100
AcDbLine
10
2349.518000000000
20
1184.166000000000
30
0.0
11
2351.118000000000
21
1184.166000000000
31
0.0
0
LINE
5
684
100
AcDbEntity
8
0-9扉体
6
CONTINUOUS
62
3
100
AcDbLine
10
2341.117000000000
20
1171.165000000000
30
0.0
11
2341.117000000000
21
1179.165000000000
31
0.0
0
LINE
5
685
100
AcDbEntity
8
0-9扉体
6
CONTINUOUS
62
3
100
AcDbLine
10
2349.518000000000
20
1184.166000000000
30
0.0
11
2349.518000000000
21
1166.166000000000
31
0.0
0
LINE
5
686
100
AcDbEntity
8
0-9扉体
6
CONTINUOUS
62
3
100
AcDbLine
10
2343.017000000000
20
1168.665000000000
30
0.0
11
2343.599000000000
21
1167.660000000000
31
0.0
0
LINE
5
687
100
AcDbEntity
8
0-9扉体
6
CONTINUOUS
62
3
100
AcDbLine
10
2343.017000000000
20
1181.665000000000
30
0.0
11
2343.599000000000
21
1182.671000000000
31
0.0
0
LINE
5
688
100
AcDbEntity
8
0-9扉体
6
CONTINUOUS
62
3
100
AcDbLine
10
2343.017000000000
20
1168.665000000000
30
0.0
11
2343.017000000000
21
1181.665000000000
31
0.0
0
LINE
5
689
100
AcDbEntity
8
0-9扉体
6
CONTINUOUS
62
3
100
AcDbLine
10
2349.518000000000
20
1182.671000000000
30
0.0
11
2343.599000000000
21
1182.671000000000
31
0.0
0
LINE
5
68a
100
AcDbEntity
8
0-9扉体
6
CONTINUOUS
62
3
100
AcDbLine
10
2349.518000000000
20
1167.660000000000
30
0.0
11
2343.599000000000
21
1167.660000000000
31
0.0
0
LINE
5
68b
100
AcDbEntity
8
0-9扉体
6
CONTINUOUS
62
3
100
AcDbLine
10
2343.017000000000
20
1179.165000000000
30
0.0
11
2341.117000000000
21
1179.165000000000
31
0.0
0
LINE
5
68c
100
AcDbEntity
8
0-9扉体
6
CONTINUOUS
62
3
100
AcDbLine
10
2343.017000000000
20
1171.165000000000
30
0.0
11
2341.117000000000
21
1171.165000000000
31
0.0
0
LINE
5
68d
100
AcDbEntity
8
0-9扉体
6
CONTINUOUS
62
3
100
AcDbLine
10
2349.518000000000
20
1171.413000000000
30
0.0
11
2343.598000000000
21
1171.413000000000
31
0.0
0
LINE
5
68e
100
AcDbEntity
8
0-9扉体
6
CONTINUOUS
62
3
100
AcDbLine
10
2349.518000000000
20
1178.919000000000
30
0.0
11
2343.599000000000
21
1178.919000000000
31
0.0
0
LINE
5
68f
100
AcDbEntity
8
0-9扉体
6
CONTINUOUS
62
3
100
AcDbLine
10
2343.017000000000
20
1178.165000000000
30
0.0
11
2341.117000000000
21
1178.165000000000
31
0.0
0
LINE
5
690
100
AcDbEntity
8
0-9扉体
6
CONTINUOUS
62
3
100
AcDbLine
10
2343.017000000000
20
1172.166000000000
30
0.0
11
2341.117000000000
21
1172.166000000000
31
0.0
0
LINE
5
691
100
AcDbEntity
8
0-9扉体
6
CONTINUOUS
62
3
100
AcDbLine
10
2351.118000000000
20
1166.166000000000
30
0.0
11
2351.118000000000
21
1184.166000000000
31
0.0
0
LINE
5
692
100
AcDbEntity
8
0-5基準線
6
CENTER2
62
7
100
AcDbLine
10
2337.993000000000
20
1175.166000000000
30
0.0
11
2370.612000000000
21
1175.166000000000
31
0.0
0
LINE
5
693
100
AcDbEntity
8
0-9扉体
6
CONTINUOUS
62
3
100
AcDbLine
10
2363.118000000000
20
1158.166000000000
30
0.0
11
2357.118000000000
21
1158.166000000000
31
0.0
0
LINE
5
694
100
AcDbEntity
8
0-9扉体
6
CONTINUOUS
62
3
100
AcDbLine
10
2363.118000000000
20
1193.420000000000
30
0.0
11
2363.118000000000
21
1158.166000000000
31
0.0
0
LINE
5
695
100
AcDbEntity
8
0-9扉体
6
CONTINUOUS
62
3
100
AcDbLine
10
2357.707000000000
20
1171.166000000000
30
0.0
11
2363.118000000000
21
1165.755000000000
31
0.0
0
LINE
5
696
100
AcDbEntity
8
0-9扉体
6
CONTINUOUS
62
3
100
AcDbLine
10
2368.933000000000
20
847.966000000000
30
0.0
11
2372.696000000000
21
851.729000000000
31
0.0
0
LINE
5
697
100
AcDbEntity
8
0-9扉体
6
CONTINUOUS
62
3
100
AcDbLine
10
2362.555000000000
20
841.588000000000
30
0.0
11
2366.318000000000
21
845.350000000000
31
0.0
0
LINE
5
698
100
AcDbEntity
8
0-9扉体
6
CONTINUOUS
62
3
100
AcDbLine
10
2366.725000000000
20
852.829000000000
30
0.0
11
2369.653000000000
21
855.756000000000
31
0.0
0
LINE
5
699
100
AcDbEntity
8
0-9扉体
6
CONTINUOUS
62
3
100
AcDbLine
10
2358.528000000000
20
844.631000000000
30
0.0
11
2361.455000000000
21
847.558000000000
31
0.0
0
LINE
5
69a
100
AcDbEntity
8
0-9扉体
6
CONTINUOUS
62
3
100
AcDbLine
10
2357.118000000000
20
850.292000000000
30
0.0
11
2363.898000000000
21
857.072000000000
31
0.0
0
LINE
5
69b
100
AcDbEntity
8
0-9扉体
6
CONTINUOUS
62
3
100
AcDbLine
10
2357.118000000000
20
857.363000000000
30
0.0
11
2363.118000000000
21
863.363000000000
31
0.0
0
LINE
5
69c
100
AcDbEntity
8
0-9扉体
6
CONTINUOUS
62
3
100
AcDbLine
10
2357.118000000000
20
864.434000000000
30
0.0
11
2363.118000000000
21
870.434000000000
31
0.0
0
LINE
5
69d
100
AcDbEntity
8
0-9扉体
6
CONTINUOUS
62
3
100
AcDbLine
10
2357.118000000000
20
885.648000000000
30
0.0
11
2363.118000000000
21
891.648000000000
31
0.0
0
LINE
5
69e
100
AcDbEntity
8
0-9扉体
6
CONTINUOUS
62
3
100
AcDbLine
10
2357.118000000000
20
849.166000000000
30
0.0
11
2357.118000000000
21
892.166000000000
31
0.0
0
LINE
5
69f
100
AcDbEntity
8
0-9扉体
6
CONTINUOUS
62
3
100
AcDbLine
10
2363.118000000000
20
871.166000000000
30
0.0
11
2357.118000000000
21
871.166000000000
31
0.0
0
LINE
5
6a0
100
AcDbEntity
8
0-9扉体
6
CONTINUOUS
62
3
100
AcDbLine
10
2363.118000000000
20
879.166000000000
30
0.0
11
2357.118000000000
21
879.166000000000
31
0.0
0
LINE
5
6a1
100
AcDbEntity
8
0-9扉体
6
DOT
62
3
100
AcDbLine
10
2365.118000000000
20
879.166000000000
30
0.0
11
2369.118000000000
21
883.166000000000
31
0.0
0
LINE
5
6a2
100
AcDbEntity
8
0-9扉体
6
DOT
62
3
100
AcDbLine
10
2365.118000000000
20
871.167000000000
30
0.0
11
2369.118000000000
21
867.166000000000
31
0.0
0
LINE
5
6a3
100
AcDbEntity
8
0-9扉体
6
DOT
62
3
100
AcDbLine
10
2365.118000000000
20
879.166000000000
30
0.0
11
2365.118000000000
21
871.167000000000
31
0.0
0
LINE
5
6a4
100
AcDbEntity
8
0-9扉体
6
CONTINUOUS
62
3
100
AcDbLine
10
2363.118000000000
20
859.166000000000
30
0.0
11
2369.118000000000
21
859.166000000000
31
0.0
0
LINE
5
6a5
100
AcDbEntity
8
0-9扉体
6
CONTINUOUS
62
3
100
AcDbLine
10
2369.118000000000
20
891.166000000000
30
0.0
11
2369.118000000000
21
859.166000000000
31
0.0
0
LINE
5
6a6
100
AcDbEntity
8
0-9扉体
6
CONTINUOUS
62
3
100
AcDbLine
10
2363.118000000000
20
891.166000000000
30
0.0
11
2369.118000000000
21
891.166000000000
31
0.0
0
LINE
5
6a7
100
AcDbEntity
8
0-9扉体
6
DOT
62
3
100
AcDbLine
10
2351.118000000000
20
871.167000000000
30
0.0
11
2365.118000000000
21
871.167000000000
31
0.0
0
LINE
5
6a8
100
AcDbEntity
8
0-9扉体
6
DOT
62
3
100
AcDbLine
10
2351.118000000000
20
879.166000000000
30
0.0
11
2365.118000000000
21
879.166000000000
31
0.0
0
LINE
5
6a9
100
AcDbEntity
8
0-9扉体
6
CONTINUOUS
62
3
100
AcDbLine
10
2349.518000000000
20
884.166000000000
30
0.0
11
2351.118000000000
21
884.166000000000
31
0.0
0
LINE
5
6aa
100
AcDbEntity
8
0-9扉体
6
CONTINUOUS
62
3
100
AcDbLine
10
2349.518000000000
20
866.166000000000
30
0.0
11
2351.118000000000
21
866.166000000000
31
0.0
0
LINE
5
6ab
100
AcDbEntity
8
0-9扉体
6
CONTINUOUS
62
3
100
AcDbLine
10
2341.117000000000
20
879.166000000000
30
0.0
11
2341.117000000000
21
871.167000000000
31
0.0
0
LINE
5
6ac
100
AcDbEntity
8
0-9扉体
6
CONTINUOUS
62
3
100
AcDbLine
10
2349.518000000000
20
866.166000000000
30
0.0
11
2349.518000000000
21
884.166000000000
31
0.0
0
LINE
5
6ad
100
AcDbEntity
8
0-9扉体
6
CONTINUOUS
62
3
100
AcDbLine
10
2343.017000000000
20
881.667000000000
30
0.0
11
2343.599000000000
21
882.671000000000
31
0.0
0
LINE
5
6ae
100
AcDbEntity
8
0-9扉体
6
CONTINUOUS
62
3
100
AcDbLine
10
2343.017000000000
20
868.666000000000
30
0.0
11
2343.599000000000
21
867.661000000000
31
0.0
0
LINE
5
6af
100
AcDbEntity
8
0-9扉体
6
CONTINUOUS
62
3
100
AcDbLine
10
2343.017000000000
20
881.667000000000
30
0.0
11
2343.017000000000
21
868.666000000000
31
0.0
0
LINE
5
6b0
100
AcDbEntity
8
0-9扉体
6
CONTINUOUS
62
3
100
AcDbLine
10
2349.518000000000
20
867.661000000000
30
0.0
11
2343.599000000000
21
867.661000000000
31
0.0
0
LINE
5
6b1
100
AcDbEntity
8
0-9扉体
6
CONTINUOUS
62
3
100
AcDbLine
10
2349.518000000000
20
882.671000000000
30
0.0
11
2343.599000000000
21
882.671000000000
31
0.0
0
LINE
5
6b2
100
AcDbEntity
8
0-9扉体
6
CONTINUOUS
62
3
100
AcDbLine
10
2343.017000000000
20
871.167000000000
30
0.0
11
2341.117000000000
21
871.167000000000
31
0.0
0
LINE
5
6b3
100
AcDbEntity
8
0-9扉体
6
CONTINUOUS
62
3
100
AcDbLine
10
2343.017000000000
20
879.166000000000
30
0.0
11
2341.117000000000
21
879.166000000000
31
0.0
0
LINE
5
6b4
100
AcDbEntity
8
0-9扉体
6
CONTINUOUS
62
3
100
AcDbLine
10
2349.518000000000
20
878.919000000000
30
0.0
11
2343.598000000000
21
878.919000000000
31
0.0
0
LINE
5
6b5
100
AcDbEntity
8
0-9扉体
6
CONTINUOUS
62
3
100
AcDbLine
10
2349.518000000000
20
871.413000000000
30
0.0
11
2343.599000000000
21
871.413000000000
31
0.0
0
LINE
5
6b6
100
AcDbEntity
8
0-9扉体
6
CONTINUOUS
62
3
100
AcDbLine
10
2343.017000000000
20
872.166000000000
30
0.0
11
2341.117000000000
21
872.166000000000
31
0.0
0
LINE
5
6b7
100
AcDbEntity
8
0-9扉体
6
CONTINUOUS
62
3
100
AcDbLine
10
2343.017000000000
20
878.166000000000
30
0.0
11
2341.117000000000
21
878.166000000000
31
0.0
0
LINE
5
6b8
100
AcDbEntity
8
0-9扉体
6
CONTINUOUS
62
3
100
AcDbLine
10
2351.118000000000
20
884.166000000000
30
0.0
11
2351.118000000000
21
866.166000000000
31
0.0
0
LINE
5
6b9
100
AcDbEntity
8
0-9扉体
6
CONTINUOUS
62
3
100
AcDbLine
10
2363.118000000000
20
892.166000000000
30
0.0
11
2357.118000000000
21
892.166000000000
31
0.0
0
LINE
5
6ba
100
AcDbEntity
8
0-9扉体
6
CONTINUOUS
62
3
100
AcDbLine
10
2363.118000000000
20
856.912000000000
30
0.0
11
2363.118000000000
21
892.166000000000
31
0.0
0
LINE
5
6bb
100
AcDbEntity
8
0-9扉体
6
CONTINUOUS
62
3
100
AcDbLine
10
2357.707000000000
20
879.166000000000
30
0.0
11
2363.118000000000
21
884.576000000000
31
0.0
0
LINE
5
6bc
100
AcDbEntity
8
0-8寸法
6
CONTINUOUS
62
4
100
AcDbLine
10
2347.118000000000
20
1525.166000000000
30
0.0
11
2327.799000000000
21
1530.342000000000
31
0.0
0
LINE
5
6bd
100
AcDbEntity
8
0-8寸法
6
CONTINUOUS
62
4
100
AcDbLine
10
2347.118000000000
20
1525.166000000000
30
0.0
11
2327.799000000000
21
1519.989000000000
31
0.0
0
LINE
5
6be
100
AcDbEntity
8
0-8寸法
6
CONTINUOUS
62
4
100
AcDbLine
10
2408.026000000000
20
1525.166000000000
30
0.0
11
2263.278000000000
21
1525.166000000000
31
0.0
0
LINE
5
6bf
100
AcDbEntity
8
0-8寸法
6
CONTINUOUS
62
4
100
AcDbLine
10
2347.118000000000
20
1295.000000000000
30
0.0
11
2347.118000000000
21
1535.166000000000
31
0.0
0
LINE
5
6c0
100
AcDbEntity
8
0-8寸法
6
CONTINUOUS
62
4
100
AcDbLine
10
1009.686000000000
20
1825.166000000000
30
0.0
11
1009.686000000000
21
1525.166000000000
31
0.0
0
POLYLINE
5
6c1
100
AcDbEntity
8
0-9扉体
6
CONTINUOUS
62
  4
100
AcDb2dPolyline
66
1
10
0.0
20
0.0
30
0.0
70
0
0
VERTEX
5
6c2
100
AcDbEntity
8
0-9扉体
6
CONTINUOUS
62
  4
100
AcDbVertex
100
AcDb2dVertex
10
2357.118000000000
20
1220.166000000000
30
0.0
0
VERTEX
5
6c3
100
AcDbEntity
8
0-9扉体
6
CONTINUOUS
62
  4
100
AcDbVertex
100
AcDb2dVertex
10
2351.118000000000
20
1220.166000000000
30
0.0
0
VERTEX
5
6c4
100
AcDbEntity
8
0-9扉体
6
CONTINUOUS
62
  4
100
AcDbVertex
100
AcDb2dVertex
10
2351.118000000000
20
988.906000000000
30
0.0
0
SEQEND
5
6c5
100
AcDbEntity
8
0-9扉体
0
POLYLINE
5
6c6
100
AcDbEntity
8
0-9扉体
6
CONTINUOUS
62
  4
100
AcDb2dPolyline
66
1
10
0.0
20
0.0
30
0.0
70
0
0
VERTEX
5
6c7
100
AcDbEntity
8
0-9扉体
6
CONTINUOUS
62
  4
100
AcDbVertex
100
AcDb2dVertex
10
1389.686000000000
20
1220.166000000000
30
0.0
0
VERTEX
5
6c8
100
AcDbEntity
8
0-9扉体
6
CONTINUOUS
62
  4
100
AcDbVertex
100
AcDb2dVertex
10
1389.686000000000
20
830.166000000000
30
0.0
0
VERTEX
5
6c9
100
AcDbEntity
8
0-9扉体
6
CONTINUOUS
62
  4
100
AcDbVertex
100
AcDb2dVertex
10
999.686000000000
20
830.166000000000
30
0.0
0
VERTEX
5
6ca
100
AcDbEntity
8
0-9扉体
6
CONTINUOUS
62
  4
100
AcDbVertex
100
AcDb2dVertex
10
999.686000000000
20
1220.166000000000
30
0.0
0
SEQEND
5
6cb
100
AcDbEntity
8
0-9扉体
0
LINE
5
6cc
100
AcDbEntity
8
0-9扉体
6
DOT
62
4
100
AcDbLine
10
1378.686000000000
20
841.166000000000
30
0.0
11
1010.686000000000
21
841.166000000000
31
0.0
0
LINE
5
6cd
100
AcDbEntity
8
0-9扉体
6
DOT
62
4
100
AcDbLine
10
1378.686000000000
20
1215.166000000000
30
0.0
11
1378.686000000000
21
835.166000000000
31
0.0
0
POLYLINE
5
6ce
100
AcDbEntity
8
0-9扉体
6
CONTINUOUS
62
  4
100
AcDb2dPolyline
66
1
10
0.0
20
0.0
30
0.0
70
0
0
VERTEX
5
6cf
100
AcDbEntity
8
0-9扉体
6
CONTINUOUS
62
  4
100
AcDbVertex
100
AcDb2dVertex
10
1384.686000000000
20
1215.166000000000
30
0.0
0
VERTEX
5
6d0
100
AcDbEntity
8
0-9扉体
6
CONTINUOUS
62
  4
100
AcDbVertex
100
AcDb2dVertex
10
1384.686000000000
20
835.166000000000
30
0.0
0
VERTEX
5
6d1
100
AcDbEntity
8
0-9扉体
6
CONTINUOUS
62
  4
100
AcDbVertex
100
AcDb2dVertex
10
1004.686000000000
20
835.166000000000
30
0.0
0
VERTEX
5
6d2
100
AcDbEntity
8
0-9扉体
6
CONTINUOUS
62
  4
100
AcDbVertex
100
AcDb2dVertex
10
1004.686000000000
20
1215.166000000000
30
0.0
0
SEQEND
5
6d3
100
AcDbEntity
8
0-9扉体
0
LINE
5
6d4
100
AcDbEntity
8
0-9扉体
6
CONTINUOUS
62
4
100
AcDbLine
10
2315.118000000000
20
841.166000000000
30
0.0
11
2351.118000000000
21
841.166000000000
31
0.0
0
LINE
5
6d5
100
AcDbEntity
8
0-9扉体
6
CONTINUOUS
62
4
100
AcDbLine
10
2309.118000000000
20
894.666000000000
30
0.0
11
2309.118000000000
21
847.166000000000
31
0.0
0
LINE
5
6d6
100
AcDbEntity
8
0-9扉体
6
CONTINUOUS
62
4
100
AcDbLine
10
2303.118000000000
20
835.166000000000
30
0.0
11
2351.118000000000
21
835.166000000000
31
0.0
0
LINE
5
6d7
100
AcDbEntity
8
0-9扉体
6
CONTINUOUS
62
4
100
AcDbLine
10
2308.618000000000
20
895.166000000000
30
0.0
11
2303.118000000000
21
895.166000000000
31
0.0
0
LINE
5
6d8
100
AcDbEntity
8
0-9扉体
6
CONTINUOUS
62
4
100
AcDbLine
10
2357.118000000000
20
1220.166000000000
30
0.0
11
2357.118000000000
21
830.166000000000
31
0.0
0
LINE
5
6d9
100
AcDbEntity
8
0-9扉体
6
CONTINUOUS
62
4
100
AcDbLine
10
2351.118000000000
20
835.166000000000
30
0.0
11
2303.118000000000
21
835.166000000000
31
0.0
0
LINE
5
6da
100
AcDbEntity
8
0-9扉体
6
CONTINUOUS
62
4
100
AcDbLine
10
2351.118000000000
20
966.093000000000
30
0.0
11
2351.118000000000
21
830.166000000000
31
0.0
0
LINE
5
6db
100
AcDbEntity
8
0-9扉体
6
CONTINUOUS
62
4
100
AcDbLine
10
2357.118000000000
20
830.166000000000
30
0.0
11
2351.118000000000
21
830.166000000000
31
0.0
0
LINE
5
6dc
100
AcDbEntity
8
0-8寸法
6
CONTINUOUS
62
4
100
AcDbLine
10
2508.026000000000
20
1525.166000000000
30
0.0
11
2347.118000000000
21
1265.166000000000
31
0.0
0
LINE
5
6dd
100
AcDbEntity
8
0-9扉体
6
CONTINUOUS
62
3
100
AcDbLine
10
1300.686000000000
20
1289.166000000000
30
0.0
11
1300.686000000000
21
1224.166000000000
31
0.0
0
LINE
5
6de
100
AcDbEntity
8
0-9扉体
6
CONTINUOUS
62
3
100
AcDbLine
10
1309.686000000000
20
1289.166000000000
30
0.0
11
1300.686000000000
21
1289.166000000000
31
0.0
0
LINE
5
6df
100
AcDbEntity
8
0-9扉体
6
CONTINUOUS
62
3
100
AcDbLine
10
1309.686000000000
20
1289.166000000000
30
0.0
11
1309.686000000000
21
1224.166000000000
31
0.0
0
LINE
5
6e0
100
AcDbEntity
8
0-9扉体
6
CONTINUOUS
62
3
100
AcDbLine
10
1249.686000000000
20
1289.166000000000
30
0.0
11
1249.686000000000
21
1224.166000000000
31
0.0
0
POLYLINE
5
6e1
100
AcDbEntity
8
0-9扉体
6
CONTINUOUS
62
  3
100
AcDb2dPolyline
66
1
10
0.0
20
0.0
30
0.0
70
0
0
VERTEX
5
6e2
100
AcDbEntity
8
0-9扉体
6
CONTINUOUS
62
  3
100
AcDbVertex
100
AcDb2dVertex
10
1249.686000000000
20
1289.166000000000
30
0.0
0
VERTEX
5
6e3
100
AcDbEntity
8
0-9扉体
6
CONTINUOUS
62
  3
100
AcDbVertex
100
AcDb2dVertex
10
1258.686000000000
20
1289.166000000000
30
0.0
0
VERTEX
5
6e4
100
AcDbEntity
8
0-9扉体
6
CONTINUOUS
62
  3
100
AcDbVertex
100
AcDb2dVertex
10
1258.686000000000
20
1224.166000000000
30
0.0
0
SEQEND
5
6e5
100
AcDbEntity
8
0-9扉体
0
LINE
5
6e6
100
AcDbEntity
8
0-9扉体
6
CONTINUOUS
62
3
100
AcDbLine
10
1079.686000000000
20
1289.166000000000
30
0.0
11
1079.686000000000
21
1224.166000000000
31
0.0
0
POLYLINE
5
6e7
100
AcDbEntity
8
0-9扉体
6
CONTINUOUS
62
  3
100
AcDb2dPolyline
66
1
10
0.0
20
0.0
30
0.0
70
0
0
VERTEX
5
6e8
100
AcDbEntity
8
0-9扉体
6
CONTINUOUS
62
  3
100
AcDbVertex
100
AcDb2dVertex
10
1079.686000000000
20
1289.166000000000
30
0.0
0
VERTEX
5
6e9
100
AcDbEntity
8
0-9扉体
6
CONTINUOUS
62
  3
100
AcDbVertex
100
AcDb2dVertex
10
1088.686000000000
20
1289.166000000000
30
0.0
0
VERTEX
5
6ea
100
AcDbEntity
8
0-9扉体
6
CONTINUOUS
62
  3
100
AcDbVertex
100
AcDb2dVertex
10
1088.686000000000
20
1224.166000000000
30
0.0
0
SEQEND
5
6eb
100
AcDbEntity
8
0-9扉体
0
LINE
5
6ec
100
AcDbEntity
8
0-9扉体
6
CONTINUOUS
62
3
100
AcDbLine
10
1130.686000000000
20
1289.166000000000
30
0.0
11
1130.686000000000
21
1224.166000000000
31
0.0
0
LINE
5
6ed
100
AcDbEntity
8
0-9扉体
6
CONTINUOUS
62
3
100
AcDbLine
10
1139.686000000000
20
1289.166000000000
30
0.0
11
1130.686000000000
21
1289.166000000000
31
0.0
0
LINE
5
6ee
100
AcDbEntity
8
0-9扉体
6
CONTINUOUS
62
3
100
AcDbLine
10
1139.686000000000
20
1289.166000000000
30
0.0
11
1139.686000000000
21
1224.166000000000
31
0.0
0
ARC
5
6ef
100
AcDbEntity
8
0-9扉体
6
CONTINUOUS
62
7
100
AcDbCircle
10
1334.436000000000
20
1225.746000000000
30
0.0
40
13.720000000000
100
AcDbArc
50
69.744000000000
51
110.256000000000
0
ARC
5
6f0
100
AcDbEntity
8
0-9扉体
6
CONTINUOUS
62
7
100
AcDbCircle
10
1324.936000000000
20
1225.746000000000
30
0.0
40
13.720000000000
100
AcDbArc
50
69.744000000000
51
110.256000000000
0
ARC
5
6f1
100
AcDbEntity
8
0-9扉体
6
CONTINUOUS
62
7
100
AcDbCircle
10
1224.936000000000
20
1225.746000000000
30
0.0
40
13.720000000000
100
AcDbArc
50
69.744000000000
51
110.256000000000
0
ARC
5
6f2
100
AcDbEntity
8
0-9扉体
6
CONTINUOUS
62
7
100
AcDbCircle
10
1234.436000000000
20
1225.746000000000
30
0.0
40
13.720000000000
100
AcDbArc
50
69.744000000000
51
110.256000000000
0
ARC
5
6f3
100
AcDbEntity
8
0-5基準線
6
CENTER2
62
7
100
AcDbCircle
10
2399.618000000000
20
848.666000000000
30
0.0
40
13.000000000000
100
AcDbArc
50
270.000000000000
51
360.000000000000
0
ARC
5
6f4
100
AcDbEntity
8
0-6戸当り
6
CONTINUOUS
62
3
100
AcDbCircle
10
2399.618000000000
20
848.666000000000
30
0.0
40
6.500000000000
100
AcDbArc
50
270.000000000000
51
360.000000000000
0
ARC
5
6f5
100
AcDbEntity
8
0-6戸当り
6
CONTINUOUS
62
3
100
AcDbCircle
10
2399.618000000000
20
848.666000000000
30
0.0
40
19.500000000000
100
AcDbArc
50
270.000000000000
51
360.000000000000
0
ARC
5
6f6
100
AcDbEntity
8
0-6戸当り
6
CONTINUOUS
62
3
100
AcDbCircle
10
2418.618000000000
20
873.666000000000
30
0.0
40
4.500000000000
100
AcDbArc
50
270.000000000000
51
360.000000000000
0
ARC
5
6f7
100
AcDbEntity
8
0-6戸当り
6
CONTINUOUS
62
3
100
AcDbCircle
10
2374.618000000000
20
829.666000000000
30
0.0
40
4.500000000000
100
AcDbArc
50
270.000000000000
51
360.000000000000
0
ARC
5
6f8
100
AcDbEntity
8
0-6戸当り
6
CONTINUOUS
62
3
100
AcDbCircle
10
2385.618000000000
20
862.666000000000
30
0.0
40
6.500000000000
100
AcDbArc
50
90.000000000000
51
180.000000000000
0
ARC
5
6f9
100
AcDbEntity
8
0-5基準線
6
CENTER2
62
7
100
AcDbCircle
10
2399.618000000000
20
1201.666000000000
30
0.0
40
13.000000000000
100
AcDbArc
50
0.000000000000
51
90.000000000000
0
ARC
5
6fa
100
AcDbEntity
8
0-6戸当り
6
CONTINUOUS
62
3
100
AcDbCircle
10
2399.618000000000
20
1201.666000000000
30
0.0
40
6.500000000000
100
AcDbArc
50
0.000000000000
51
90.000000000000
0
ARC
5
6fb
100
AcDbEntity
8
0-6戸当り
6
CONTINUOUS
62
3
100
AcDbCircle
10
2399.618000000000
20
1201.666000000000
30
0.0
40
19.500000000000
100
AcDbArc
50
0.000000000000
51
90.000000000000
0
ARC
5
6fc
100
AcDbEntity
8
0-6戸当り
6
CONTINUOUS
62
3
100
AcDbCircle
10
2418.618000000000
20
1176.666000000000
30
0.0
40
4.500000000000
100
AcDbArc
50
0.000000000000
51
90.000000000000
0
ARC
5
6fd
100
AcDbEntity
8
0-6戸当り
6
CONTINUOUS
62
3
100
AcDbCircle
10
2374.618000000000
20
1220.666000000000
30
0.0
40
4.500000000000
100
AcDbArc
50
0.000000000000
51
90.000000000000
0
ARC
5
6fe
100
AcDbEntity
8
0-6戸当り
6
CONTINUOUS
62
3
100
AcDbCircle
10
2385.618000000000
20
1187.666000000000
30
0.0
40
6.500000000000
100
AcDbArc
50
180.000000000000
51
270.000000000000
0
ARC
5
6ff
100
AcDbEntity
8
0-9扉体
6
CONTINUOUS
62
7
100
AcDbCircle
10
1054.936000000000
20
1225.746000000000
30
0.0
40
13.720000000000
100
AcDbArc
50
69.744000000000
51
110.256000000000
0
ARC
5
700
100
AcDbEntity
8
0-9扉体
6
CONTINUOUS
62
7
100
AcDbCircle
10
1064.436000000000
20
1225.746000000000
30
0.0
40
13.720000000000
100
AcDbArc
50
69.744000000000
51
110.256000000000
0
ARC
5
701
100
AcDbEntity
8
0-9扉体
6
CONTINUOUS
62
7
100
AcDbCircle
10
1164.436000000000
20
1225.746000000000
30
0.0
40
13.720000000000
100
AcDbArc
50
69.744000000000
51
110.256000000000
0
ARC
5
702
100
AcDbEntity
8
0-9扉体
6
CONTINUOUS
62
7
100
AcDbCircle
10
1154.936000000000
20
1225.746000000000
30
0.0
40
13.720000000000
100
AcDbArc
50
69.744000000000
51
110.256000000000
0
ARC
5
703
100
AcDbEntity
8
0-6戸当り
6
DOT
62
6
100
AcDbCircle
10
2322.118000000000
20
1265.166000000000
30
0.0
40
17.000000000000
100
AcDbArc
50
244.937000000000
51
270.000000000000
0
ARC
5
704
100
AcDbEntity
8
0-6戸当り
6
DOT
62
6
100
AcDbCircle
10
2322.118000000000
20
1265.166000000000
30
0.0
40
9.000000000000
100
AcDbArc
50
242.985000000000
51
270.000000000000
0
ARC
5
705
100
AcDbEntity
8
0-6戸当り
6
CONTINUOUS
62
6
100
AcDbCircle
10
2322.118000000000
20
1265.166000000000
30
0.0
40
17.000000000000
100
AcDbArc
50
90.000000000000
51
244.937000000000
0
ARC
5
706
100
AcDbEntity
8
0-6戸当り
6
CONTINUOUS
62
6
100
AcDbCircle
10
2322.118000000000
20
1265.166000000000
30
0.0
40
9.000000000000
100
AcDbArc
50
90.000000000000
51
242.985000000000
0
ARC
5
707
100
AcDbEntity
8
0-6戸当り
6
CONTINUOUS
62
7
100
AcDbCircle
10
2370.966000000000
20
1310.166000000000
30
0.0
40
18.152000000000
100
AcDbArc
50
342.412000000000
51
377.588000000000
0
ARC
5
708
100
AcDbEntity
8
0-6戸当り
6
CONTINUOUS
62
7
100
AcDbCircle
10
2384.262000000000
20
1301.938000000000
30
0.0
40
4.856000000000
100
AcDbArc
50
334.384000000000
51
394.384000000000
0
ARC
5
709
100
AcDbEntity
8
0-6戸当り
6
CONTINUOUS
62
7
100
AcDbCircle
10
2384.262000000000
20
1318.393000000000
30
0.0
40
4.856000000000
100
AcDbArc
50
325.616000000000
51
385.616000000000
0
ARC
5
70a
100
AcDbEntity
8
0-6戸当り
6
CONTINUOUS
62
6
100
AcDbCircle
10
2442.118000000000
20
1310.166000000000
30
0.0
40
6.000000000000
100
AcDbArc
50
270.000000000000
51
450.000000000000
0
ARC
5
70b
100
AcDbEntity
8
0-6戸当り
6
DOT
62
6
100
AcDbCircle
10
2442.118000000000
20
1310.166000000000
30
0.0
40
6.000000000000
100
AcDbArc
50
90.000000000000
51
270.000000000000
0
CIRCLE
5
70c
100
AcDbEntity
8
0-6戸当り
6
CONTINUOUS
62
7
100
AcDbCircle
10
1062.186000000000
20
1310.166000000000
30
0.0
40
9.500000000000
0
CIRCLE
5
70d
100
AcDbEntity
8
0-6戸当り
6
CONTINUOUS
62
6
100
AcDbCircle
10
1062.186000000000
20
1310.166000000000
30
0.0
40
6.000000000000
0
CIRCLE
5
70e
100
AcDbEntity
8
0-6戸当り
6
CONTINUOUS
62
6
100
AcDbCircle
10
1062.186000000000
20
1310.166000000000
30
0.0
40
5.000000000000
0
CIRCLE
5
70f
100
AcDbEntity
8
0-6戸当り
6
CONTINUOUS
62
7
100
AcDbCircle
10
1157.186000000000
20
1310.166000000000
30
0.0
40
9.500000000000
0
CIRCLE
5
710
100
AcDbEntity
8
0-6戸当り
6
CONTINUOUS
62
6
100
AcDbCircle
10
1157.186000000000
20
1310.166000000000
30
0.0
40
6.000000000000
0
CIRCLE
5
711
100
AcDbEntity
8
0-6戸当り
6
CONTINUOUS
62
6
100
AcDbCircle
10
1157.186000000000
20
1310.166000000000
30
0.0
40
5.000000000000
0
CIRCLE
5
712
100
AcDbEntity
8
0-6戸当り
6
CONTINUOUS
62
7
100
AcDbCircle
10
1327.186000000000
20
1310.166000000000
30
0.0
40
9.500000000000
0
CIRCLE
5
713
100
AcDbEntity
8
0-6戸当り
6
CONTINUOUS
62
6
100
AcDbCircle
10
1327.186000000000
20
1310.166000000000
30
0.0
40
6.000000000000
0
CIRCLE
5
714
100
AcDbEntity
8
0-6戸当り
6
CONTINUOUS
62
6
100
AcDbCircle
10
1327.186000000000
20
1310.166000000000
30
0.0
40
5.000000000000
0
CIRCLE
5
715
100
AcDbEntity
8
0-6戸当り
6
CONTINUOUS
62
7
100
AcDbCircle
10
1232.186000000000
20
1310.166000000000
30
0.0
40
9.500000000000
0
CIRCLE
5
716
100
AcDbEntity
8
0-6戸当り
6
CONTINUOUS
62
6
100
AcDbCircle
10
1232.186000000000
20
1310.166000000000
30
0.0
40
6.000000000000
0
CIRCLE
5
717
100
AcDbEntity
8
0-6戸当り
6
CONTINUOUS
62
6
100
AcDbCircle
10
1232.186000000000
20
1310.166000000000
30
0.0
40
5.000000000000
0
ARC
5
718
100
AcDbEntity
8
0-6戸当り
6
CONTINUOUS
62
7
100
AcDbCircle
10
2373.837000000000
20
1305.416000000000
30
0.0
40
13.720000000000
100
AcDbArc
50
159.744000000000
51
200.256000000000
0
ARC
5
719
100
AcDbEntity
8
0-6戸当り
6
CONTINUOUS
62
7
100
AcDbCircle
10
2373.837000000000
20
1314.916000000000
30
0.0
40
13.720000000000
100
AcDbArc
50
159.744000000000
51
200.256000000000
0
ARC
5
71a
100
AcDbEntity
8
0-9扉体
6
CONTINUOUS
62
4
100
AcDbCircle
10
2315.118000000000
20
1203.166000000000
30
0.0
40
6.000000000000
100
AcDbArc
50
90.000000000000
51
180.000000000000
0
ARC
5
71b
100
AcDbEntity
8
0-9扉体
6
CONTINUOUS
62
4
100
AcDbCircle
10
2308.618000000000
20
1155.666000000000
30
0.0
40
0.500000000000
100
AcDbArc
50
270.000000000000
51
360.000000000000
0
CIRCLE
5
71c
100
AcDbEntity
8
0-9扉体
6
CONTINUOUS
62
4
100
AcDbCircle
10
2347.118000000000
20
1265.166000000000
30
0.0
40
8.000000000000
0
ARC
5
71d
100
AcDbEntity
8
0-9扉体
6
CONTINUOUS
62
7
100
AcDbCircle
10
2327.118000000000
20
1221.314000000000
30
0.0
40
18.152000000000
100
AcDbArc
50
72.412000000000
51
107.588000000000
0
ARC
5
71e
100
AcDbEntity
8
0-9扉体
6
CONTINUOUS
62
7
100
AcDbCircle
10
2335.345000000000
20
1234.610000000000
30
0.0
40
4.856000000000
100
AcDbArc
50
64.384000000000
51
124.384000000000
0
ARC
5
71f
100
AcDbEntity
8
0-9扉体
6
CONTINUOUS
62
7
100
AcDbCircle
10
2318.891000000000
20
1234.610000000000
30
0.0
40
4.856000000000
100
AcDbArc
50
55.616000000000
51
115.616000000000
0
ARC
5
720
100
AcDbEntity
8
0-9扉体
6
CONTINUOUS
62
7
100
AcDbCircle
10
2327.118000000000
20
1219.318000000000
30
0.0
40
18.152000000000
100
AcDbArc
50
252.412000000000
51
287.588000000000
0
ARC
5
721
100
AcDbEntity
8
0-9扉体
6
CONTINUOUS
62
7
100
AcDbCircle
10
2318.891000000000
20
1206.022000000000
30
0.0
40
4.856000000000
100
AcDbArc
50
244.384000000000
51
304.384000000000
0
ARC
5
722
100
AcDbEntity
8
0-9扉体
6
CONTINUOUS
62
7
100
AcDbCircle
10
2335.345000000000
20
1206.022000000000
30
0.0
40
4.856000000000
100
AcDbArc
50
235.616000000000
51
295.616000000000
0
CIRCLE
5
723
100
AcDbEntity
8
0-9扉体
6
CONTINUOUS
62
4
100
AcDbCircle
10
2347.118000000000
20
1265.166000000000
30
0.0
40
16.000000000000
0
CIRCLE
5
724
100
AcDbEntity
8
0-9扉体
6
CONTINUOUS
62
3
100
AcDbCircle
10
2365.118000000000
20
1201.166000000000
30
0.0
40
4.000000000000
0
ARC
5
725
100
AcDbEntity
8
0-9扉体
6
CONTINUOUS
62
3
100
AcDbCircle
10
2365.118000000000
20
1201.166000000000
30
0.0
40
8.000000000000
100
AcDbArc
50
255.522000000000
51
540.000000000000
0
ARC
5
726
100
AcDbEntity
8
0-9扉体
6
CONTINUOUS
62
3
100
AcDbCircle
10
2355.437000000000
20
1175.166000000000
30
0.0
40
12.419000000000
100
AcDbArc
50
162.412000000000
51
197.588000000000
0
ARC
5
727
100
AcDbEntity
8
0-9扉体
6
CONTINUOUS
62
3
100
AcDbCircle
10
2346.341000000000
20
1169.536000000000
30
0.0
40
3.323000000000
100
AcDbArc
50
145.615000000000
51
205.614000000000
0
ARC
5
728
100
AcDbEntity
8
0-9扉体
6
CONTINUOUS
62
3
100
AcDbCircle
10
2346.341000000000
20
1180.794000000000
30
0.0
40
3.323000000000
100
AcDbArc
50
154.386000000000
51
214.385000000000
0
CIRCLE
5
729
100
AcDbEntity
8
0-9扉体
6
CONTINUOUS
62
3
100
AcDbCircle
10
2365.118000000000
20
849.166000000000
30
0.0
40
4.000000000000
0
ARC
5
72a
100
AcDbEntity
8
0-9扉体
6
CONTINUOUS
62
3
100
AcDbCircle
10
2365.118000000000
20
849.166000000000
30
0.0
40
8.000000000000
100
AcDbArc
50
180.000000000000
51
464.478000000000
0
ARC
5
72b
100
AcDbEntity
8
0-9扉体
6
CONTINUOUS
62
3
100
AcDbCircle
10
2355.437000000000
20
875.166000000000
30
0.0
40
12.419000000000
100
AcDbArc
50
162.412000000000
51
197.588000000000
0
ARC
5
72c
100
AcDbEntity
8
0-9扉体
6
CONTINUOUS
62
3
100
AcDbCircle
10
2346.341000000000
20
880.796000000000
30
0.0
40
3.323000000000
100
AcDbArc
50
154.386000000000
51
214.385000000000
0
ARC
5
72d
100
AcDbEntity
8
0-9扉体
6
CONTINUOUS
62
3
100
AcDbCircle
10
2346.341000000000
20
869.537000000000
30
0.0
40
3.323000000000
100
AcDbArc
50
145.615000000000
51
205.614000000000
0
ARC
5
72e
100
AcDbEntity
8
0-9扉体
6
CONTINUOUS
62
4
100
AcDbCircle
10
2315.118000000000
20
847.166000000000
30
0.0
40
6.000000000000
100
AcDbArc
50
180.000000000000
51
270.000000000000
0
ARC
5
72f
100
AcDbEntity
8
0-9扉体
6
CONTINUOUS
62
4
100
AcDbCircle
10
2308.618000000000
20
894.666000000000
30
0.0
40
0.500000000000
100
AcDbArc
50
0.000000000000
51
90.000000000000
0
POLYLINE
5
730
100
AcDbEntity
  8
0-8寸法
6
CONTINUOUS
62
2
100
AcDb2dPolyline
66
1
10
0
20
0
70
1
40
4.000
41
4.000
0
VERTEX
5
731
100
AcDbEntity
  8
0-8寸法
6
CONTINUOUS
62
2
100
AcDbVertex
100
AcDb2dVertex
10
1036.042
20
928.820
30
0.0
42
1.000
0
VERTEX
5
732
100
AcDbEntity
  8
0-8寸法
6
CONTINUOUS
62
2
100
AcDbVertex
100
AcDb2dVertex
10
1040.042
20
928.820
30
0.0
42
1.000
0
SEQEND
5
733
100
AcDbEntity
  8
0-8寸法
0
POLYLINE
5
734
100
AcDbEntity
  8
0-8寸法
6
CONTINUOUS
62
2
100
AcDb2dPolyline
66
1
10
0
20
0
70
1
40
4.000
41
4.000
0
VERTEX
5
735
100
AcDbEntity
  8
0-8寸法
6
CONTINUOUS
62
2
100
AcDbVertex
100
AcDb2dVertex
10
1120.630
20
855.831
30
0.0
42
1.000
0
VERTEX
5
736
100
AcDbEntity
  8
0-8寸法
6
CONTINUOUS
62
2
100
AcDbVertex
100
AcDb2dVertex
10
1124.630
20
855.831
30
0.0
42
1.000
0
SEQEND
5
737
100
AcDbEntity
  8
0-8寸法
0
POLYLINE
5
738
100
AcDbEntity
  8
0-8寸法
6
CONTINUOUS
62
2
100
AcDb2dPolyline
66
1
10
0
20
0
70
1
40
4.000
41
4.000
0
VERTEX
5
739
100
AcDbEntity
  8
0-8寸法
6
CONTINUOUS
62
2
100
AcDbVertex
100
AcDb2dVertex
10
2410.084
20
872.582
30
0.0
42
1.000
0
VERTEX
5
73a
100
AcDbEntity
  8
0-8寸法
6
CONTINUOUS
62
2
100
AcDbVertex
100
AcDb2dVertex
10
2414.084
20
872.582
30
0.0
42
1.000
0
SEQEND
5
73b
100
AcDbEntity
  8
0-8寸法
0
POLYLINE
5
73c
100
AcDbEntity
  8
0-8寸法
6
CONTINUOUS
62
6
100
AcDb2dPolyline
66
1
10
0
20
0
70
1
40
4.000
41
4.000
0
VERTEX
5
73d
100
AcDbEntity
  8
0-8寸法
6
CONTINUOUS
62
6
100
AcDbVertex
100
AcDb2dVertex
10
1084.795
20
1310.191
30
0.0
42
1.000
0
VERTEX
5
73e
100
AcDbEntity
  8
0-8寸法
6
CONTINUOUS
62
6
100
AcDbVertex
100
AcDb2dVertex
10
1088.795
20
1310.191
30
0.0
42
1.000
0
SEQEND
5
73f
100
AcDbEntity
  8
0-8寸法
0
POLYLINE
5
740
100
AcDbEntity
  8
0-8寸法
6
CONTINUOUS
62
2
100
AcDb2dPolyline
66
1
10
0
20
0
70
1
40
4.000
41
4.000
0
VERTEX
5
741
100
AcDbEntity
  8
0-8寸法
6
CONTINUOUS
62
2
100
AcDbVertex
100
AcDb2dVertex
10
2349.118
20
1075.166
30
0.0
42
1.000
0
VERTEX
5
742
100
AcDbEntity
  8
0-8寸法
6
CONTINUOUS
62
2
100
AcDbVertex
100
AcDb2dVertex
10
2353.118
20
1075.166
30
0.0
42
1.000
0
SEQEND
5
743
100
AcDbEntity
  8
0-8寸法
0
POLYLINE
5
744
100
AcDbEntity
  8
0-8寸法
6
CONTINUOUS
62
2
100
AcDb2dPolyline
66
1
10
0
20
0
70
1
40
4.000
41
4.000
0
VERTEX
5
745
100
AcDbEntity
  8
0-8寸法
6
CONTINUOUS
62
2
100
AcDbVertex
100
AcDb2dVertex
10
2204.118
20
1215.166
30
0.0
42
1.000
0
VERTEX
5
746
100
AcDbEntity
  8
0-8寸法
6
CONTINUOUS
62
2
100
AcDbVertex
100
AcDb2dVertex
10
2208.118
20
1215.166
30
0.0
42
1.000
0
SEQEND
5
747
100
AcDbEntity
  8
0-8寸法
0
POLYLINE
5
748
100
AcDbEntity
  8
0-8寸法
6
CONTINUOUS
62
2
100
AcDb2dPolyline
66
1
10
0
20
0
70
1
40
4.000
41
4.000
0
VERTEX
5
749
100
AcDbEntity
  8
0-8寸法
6
CONTINUOUS
62
2
100
AcDbVertex
100
AcDb2dVertex
10
2345.118
20
1265.166
30
0.0
42
1.000
0
VERTEX
5
74a
100
AcDbEntity
  8
0-8寸法
6
CONTINUOUS
62
2
100
AcDbVertex
100
AcDb2dVertex
10
2349.118
20
1265.166
30
0.0
42
1.000
0
SEQEND
5
74b
100
AcDbEntity
  8
0-8寸法
0
TEXT
5
74c
100
AcDbEntity
8
0-A文字
62
7
370
-3
100
AcDbText
10
1966.559
20
1062.096
30
0.0
40
33.660
1
水圧方向
41
0.963
50
0.000
100
AcDbText
0
TEXT
5
74d
100
AcDbEntity
8
0-8寸法
62
7
370
-3
100
AcDbText
10
1163.840
20
539.213
30
0.0
40
33.660
1
200
41
0.629
50
0.000
100
AcDbText
0
TEXT
5
74e
100
AcDbEntity
8
0-A文字
62
7
370
-3
100
AcDbText
10
1111.725
20
1069.769
30
0.0
40
33.660
1
ｽｷﾝﾌﾟﾚ-ﾄ
41
0.893
50
0.000
100
AcDbText
0
TEXT
5
74f
100
AcDbEntity
8
0-A文字
62
7
370
-3
100
AcDbText
10
1111.707
20
959.769
30
0.0
40
33.660
1
(A5083)
41
0.659
50
0.000
100
AcDbText
0
TEXT
5
750
100
AcDbEntity
8
0-8寸法
62
7
370
-3
100
AcDbText
10
569.886
20
539.213
30
0.0
40
33.660
1
L48x60x6(A5083)
41
0.619
50
0.000
100
AcDbText
0
MTEXT
5
751
100
AcDbEntity
8
0-8寸法
62
7
370
-3
100
AcDbMText
10
1085.216
20
435.473
30
0.0
40
31.790
41
0.000
71
7
72
1
1
\W1.093;扉体幅{\W0.787; 380}
7
STANDARD
11
1.00000
21
0.00000
31
0.0
0
MTEXT
5
752
100
AcDbEntity
8
0-8寸法
62
7
370
-3
100
AcDbMText
10
1107.680
20
585.473
30
0.0
40
31.790
41
0.000
71
7
72
1
1
\W1.093;挿筋{\W0.787;ﾋﾟｯﾁ}
7
STANDARD
11
1.00000
21
0.00000
31
0.0
0
TEXT
5
753
100
AcDbEntity
8
0-8寸法
62
7
370
-3
100
AcDbText
10
1163.840
20
1539.213
30
0.0
40
33.660
1
170
41
0.733
50
0.000
100
AcDbText
0
MTEXT
5
754
100
AcDbEntity
8
0-8寸法
62
7
370
-3
100
AcDbMText
10
2059.743
20
1435.473
30
0.0
40
31.790
41
0.000
71
7
72
1
1
\W1.093;▽{\W0.787;H.W.L.}
7
STANDARD
11
1.00000
21
0.00000
31
0.0
0
MTEXT
5
755
100
AcDbEntity
8
0-8寸法
62
7
370
-3
100
AcDbMText
10
1726.864
20
535.473
30
0.0
40
31.790
41
0.000
71
7
72
1
1
\W1.093;{\W0.787;ｱﾝｶ-   RB-}φ{\W0.787;13(SS400)}
7
STANDARD
11
1.00000
21
0.00000
31
0.0
0
MTEXT
5
756
100
AcDbEntity
8
0-8寸法
62
7
370
-3
100
AcDbMText
10
1726.918
20
375.473
30
0.0
40
31.790
41
0.000
71
7
72
1
1
\W1.093;挿筋とφ{\W0.787;13ｱﾝｶ-}溶接のこと
7
STANDARD
11
1.00000
21
0.00000
31
0.0
0
MTEXT
5
757
100
AcDbEntity
8
0-8寸法
62
7
370
-3
100
AcDbMText
10
1726.864
20
435.473
30
0.0
40
31.790
41
0.000
71
7
72
1
1
\W1.093;（基礎挿筋{\W0.787; D13}～{\W0.787;D16}）
7
STANDARD
11
1.00000
21
0.00000
31
0.0
0
MTEXT
5
758
100
AcDbEntity
8
0-8寸法
62
7
370
-3
100
AcDbMText
10
1726.900
20
635.473
30
0.0
40
31.790
41
0.000
71
7
72
1
1
\W1.093;戸当り{\W0.787; L50x50x6(SUS304)}
7
STANDARD
11
1.00000
21
0.00000
31
0.0
0
TEXT
5
759
100
AcDbEntity
8
0-8寸法
62
7
370
-3
100
AcDbText
10
2446.004
20
989.213
30
0.0
40
33.660
1
50
41
0.626
50
0.000
100
AcDbText
0
TEXT
5
75a
100
AcDbEntity
8
0-8寸法
62
7
370
-3
100
AcDbText
10
2398.754
20
1089.213
30
0.0
40
33.660
1
6t
41
0.574
50
0.000
100
AcDbText
0
TEXT
5
75b
100
AcDbEntity
8
0-8寸法
62
7
370
-3
100
AcDbText
10
2192.071
20
1110.552
30
0.0
40
33.660
1
40
41
0.657
50
90.000
100
AcDbText
0
TEXT
5
75c
100
AcDbEntity
8
0-8寸法
62
7
370
-3
100
AcDbText
10
2192.071
20
1290.552
30
0.0
40
33.660
1
50
41
0.626
50
90.000
100
AcDbText
0
TEXT
5
75d
100
AcDbEntity
8
0-8寸法
62
7
370
-3
100
AcDbText
10
2237.504
20
1089.213
30
0.0
40
33.660
1
48
41
0.583
50
0.000
100
AcDbText
0
TEXT
5
75e
100
AcDbEntity
8
0-8寸法
62
7
370
-3
100
AcDbText
10
2306.004
20
989.213
30
0.0
40
33.660
1
16
41
0.716
50
0.000
100
AcDbText
0
TEXT
5
75f
100
AcDbEntity
8
0-8寸法
62
7
370
-3
100
AcDbText
10
2279.004
20
1539.213
30
0.0
40
33.660
1
26
41
0.542
50
0.000
100
AcDbText
0
MTEXT
5
760
100
AcDbEntity
8
0-8寸法
62
7
370
-3
100
AcDbMText
10
1862.811
20
964.536
30
0.0
40
31.790
41
0.000
71
7
72
1
1
\W1.093;設計水深{\W0.787; 5.30 m}
7
STANDARD
11
0.00000
21
1.00000
31
0.0
0
LINE
5
761
100
AcDbEntity
8
0-5基準線
6
CENTER2
62
7
100
AcDbLine
10
2441.773000000000
20
800.166000000000
30
0.0
11
2554.577000000000
21
800.166000000000
31
0.0
0
LINE
5
762
100
AcDbEntity
8
0-8寸法
6
CONTINUOUS
62
4
100
AcDbLine
10
2823.118000000000
20
725.166000000000
30
0.0
11
2823.118000000000
21
875.166000000000
31
0.0
0
LINE
5
763
100
AcDbEntity
8
0-8寸法
6
CONTINUOUS
62
4
100
AcDbLine
10
2823.118000000000
20
725.166000000000
30
0.0
11
2817.942000000000
21
744.485000000000
31
0.0
0
LINE
5
764
100
AcDbEntity
8
0-8寸法
6
CONTINUOUS
62
4
100
AcDbLine
10
2823.118000000000
20
725.166000000000
30
0.0
11
2828.294000000000
21
744.485000000000
31
0.0
0
LINE
5
765
100
AcDbEntity
8
0-8寸法
6
CONTINUOUS
62
4
100
AcDbLine
10
2823.118000000000
20
875.166000000000
30
0.0
11
2817.942000000000
21
855.847000000000
31
0.0
0
LINE
5
766
100
AcDbEntity
8
0-8寸法
6
CONTINUOUS
62
4
100
AcDbLine
10
2823.118000000000
20
875.166000000000
30
0.0
11
2828.294000000000
21
855.847000000000
31
0.0
0
LINE
5
767
100
AcDbEntity
8
0-8寸法
6
CONTINUOUS
62
4
100
AcDbLine
10
2823.118000000000
20
875.166000000000
30
0.0
11
2823.118000000000
21
1175.166000000000
31
0.0
0
LINE
5
768
100
AcDbEntity
8
0-8寸法
6
CONTINUOUS
62
4
100
AcDbLine
10
2586.166000000000
20
1175.166000000000
30
0.0
11
2833.118000000000
21
1175.166000000000
31
0.0
0
LINE
5
769
100
AcDbEntity
8
0-8寸法
6
CONTINUOUS
62
4
100
AcDbLine
10
2823.118000000000
20
875.166000000000
30
0.0
11
2817.942000000000
21
894.484000000000
31
0.0
0
LINE
5
76a
100
AcDbEntity
8
0-8寸法
6
CONTINUOUS
62
4
100
AcDbLine
10
2823.118000000000
20
875.166000000000
30
0.0
11
2828.294000000000
21
894.484000000000
31
0.0
0
LINE
5
76b
100
AcDbEntity
8
0-8寸法
6
CONTINUOUS
62
4
100
AcDbLine
10
2823.118000000000
20
1175.166000000000
30
0.0
11
2817.942000000000
21
1155.847000000000
31
0.0
0
LINE
5
76c
100
AcDbEntity
8
0-8寸法
6
CONTINUOUS
62
4
100
AcDbLine
10
2823.118000000000
20
1175.166000000000
30
0.0
11
2828.294000000000
21
1155.847000000000
31
0.0
0
LINE
5
76d
100
AcDbEntity
8
0-8寸法
6
CONTINUOUS
62
4
100
AcDbLine
10
2823.118000000000
20
1175.166000000000
30
0.0
11
2823.118000000000
21
1375.166000000000
31
0.0
0
LINE
5
76e
100
AcDbEntity
8
0-8寸法
6
CONTINUOUS
62
4
100
AcDbLine
10
2823.118000000000
20
1175.166000000000
30
0.0
11
2817.942000000000
21
1194.484000000000
31
0.0
0
LINE
5
76f
100
AcDbEntity
8
0-8寸法
6
CONTINUOUS
62
4
100
AcDbLine
10
2823.118000000000
20
1175.166000000000
30
0.0
11
2828.294000000000
21
1194.484000000000
31
0.0
0
LINE
5
770
100
AcDbEntity
8
0-8寸法
6
CONTINUOUS
62
4
100
AcDbLine
10
2823.118000000000
20
1375.166000000000
30
0.0
11
2817.942000000000
21
1355.847000000000
31
0.0
0
LINE
5
771
100
AcDbEntity
8
0-8寸法
6
CONTINUOUS
62
4
100
AcDbLine
10
2823.118000000000
20
1375.166000000000
30
0.0
11
2828.294000000000
21
1355.847000000000
31
0.0
0
LINE
5
772
100
AcDbEntity
8
0-8寸法
6
CONTINUOUS
62
4
100
AcDbLine
10
2513.435000000000
20
1375.166000000000
30
0.0
11
2833.118000000000
21
1375.166000000000
31
0.0
0
LINE
5
773
100
AcDbEntity
8
0-8寸法
6
CONTINUOUS
62
4
100
AcDbLine
10
2513.435000000000
20
725.166000000000
30
0.0
11
2833.118000000000
21
725.166000000000
31
0.0
0
LINE
5
774
100
AcDbEntity
8
0-8寸法
6
CONTINUOUS
62
4
100
AcDbLine
10
2723.118000000000
20
1175.166000000000
30
0.0
11
2717.941000000000
21
1194.484000000000
31
0.0
0
LINE
5
775
100
AcDbEntity
8
0-8寸法
6
CONTINUOUS
62
4
100
AcDbLine
10
2723.118000000000
20
1175.166000000000
30
0.0
11
2728.294000000000
21
1194.484000000000
31
0.0
0
LINE
5
776
100
AcDbEntity
8
0-8寸法
6
CONTINUOUS
62
4
100
AcDbLine
10
2723.118000000000
20
1325.166000000000
30
0.0
11
2717.941000000000
21
1305.847000000000
31
0.0
0
LINE
5
777
100
AcDbEntity
8
0-8寸法
6
CONTINUOUS
62
4
100
AcDbLine
10
2723.118000000000
20
1325.166000000000
30
0.0
11
2728.294000000000
21
1305.847000000000
31
0.0
0
LINE
5
778
100
AcDbEntity
8
0-8寸法
6
CONTINUOUS
62
4
100
AcDbLine
10
2723.118000000000
20
1175.166000000000
30
0.0
11
2723.118000000000
21
1325.166000000000
31
0.0
0
TEXT
5
779
100
AcDbEntity
8
0-8寸法
62
7
370
-3
100
AcDbText
10
2809.071
20
769.320
30
0.0
40
33.660
1
150
41
0.710
50
90.000
100
AcDbText
0
TEXT
5
77a
100
AcDbEntity
8
0-8寸法
62
7
370
-3
100
AcDbText
10
2809.071
20
1244.320
30
0.0
40
33.660
1
200
41
0.629
50
90.000
100
AcDbText
0
TEXT
5
77b
100
AcDbEntity
8
0-8寸法
62
7
370
-3
100
AcDbText
10
2709.071
20
1219.320
30
0.0
40
33.660
1
150
41
0.710
50
90.000
100
AcDbText
0
MTEXT
5
77c
100
AcDbEntity
8
0-8寸法
62
7
370
-3
100
AcDbMText
10
2812.811
20
915.696
30
0.0
40
31.790
41
0.000
71
7
72
1
1
\W1.093;有効高{\W0.787; 300}
7
STANDARD
11
0.00000
21
1.00000
31
0.0
0
LINE
5
77d
100
AcDbEntity
8
0-8寸法
6
CONTINUOUS
62
4
100
AcDbLine
10
2633.118000000000
20
1375.166000000000
30
0.0
11
2508.118000000000
21
1375.166000000000
31
0.0
0
LINE
5
77e
100
AcDbEntity
8
0-8寸法
6
CONTINUOUS
62
4
100
AcDbLine
10
2633.118000000000
20
725.166000000000
30
0.0
11
2508.118000000000
21
725.166000000000
31
0.0
0
LINE
5
77f
100
AcDbEntity
8
0-8寸法
6
CONTINUOUS
62
4
100
AcDbLine
10
2633.118000000000
20
800.166000000000
30
0.0
11
2564.577000000000
21
800.166000000000
31
0.0
0
LINE
5
780
100
AcDbEntity
8
0-8寸法
6
CONTINUOUS
62
4
100
AcDbLine
10
2373.118000000000
20
643.887000000000
30
0.0
11
2373.118000000000
21
515.166000000000
31
0.0
0
LINE
5
781
100
AcDbEntity
8
0-8寸法
6
CONTINUOUS
62
4
100
AcDbLine
10
2373.118000000000
20
525.166000000000
30
0.0
11
2498.118000000000
21
525.166000000000
31
0.0
0
LINE
5
782
100
AcDbEntity
8
0-8寸法
6
CONTINUOUS
62
4
100
AcDbLine
10
2373.118000000000
20
525.166000000000
30
0.0
11
2392.437000000000
21
530.342000000000
31
0.0
0
LINE
5
783
100
AcDbEntity
8
0-8寸法
6
CONTINUOUS
62
4
100
AcDbLine
10
2373.118000000000
20
525.166000000000
30
0.0
11
2392.437000000000
21
519.990000000000
31
0.0
0
LINE
5
784
100
AcDbEntity
8
0-8寸法
6
CONTINUOUS
62
4
100
AcDbLine
10
2498.118000000000
20
525.166000000000
30
0.0
11
2478.799000000000
21
530.342000000000
31
0.0
0
LINE
5
785
100
AcDbEntity
8
0-8寸法
6
CONTINUOUS
62
4
100
AcDbLine
10
2498.118000000000
20
525.166000000000
30
0.0
11
2478.799000000000
21
519.990000000000
31
0.0
0
LINE
5
786
100
AcDbEntity
8
0-8寸法
6
CONTINUOUS
62
4
100
AcDbLine
10
2498.118000000000
20
718.164000000000
30
0.0
11
2498.118000000000
21
515.166000000000
31
0.0
0
TEXT
5
787
100
AcDbEntity
8
0-8寸法
62
7
370
-3
100
AcDbText
10
2404.772
20
539.213
30
0.0
40
33.660
1
125
41
0.633
50
0.000
100
AcDbText
0
LINE
5
788
100
AcDbEntity
8
0-8寸法
6
CONTINUOUS
62
4
100
AcDbLine
10
2623.118000000000
20
875.166000000000
30
0.0
11
2623.118000000000
21
800.166000000000
31
0.0
0
LINE
5
789
100
AcDbEntity
8
0-8寸法
6
CONTINUOUS
62
4
100
AcDbLine
10
2623.118000000000
20
875.166000000000
30
0.0
11
2628.294380902051
21
855.847483474219
31
0.0
0
LINE
5
78a
100
AcDbEntity
8
0-8寸法
6
CONTINUOUS
62
4
100
AcDbLine
10
2623.118000000000
20
875.166000000000
30
0.0
11
2617.941619097950
21
855.847483474219
31
0.0
0
LINE
5
78b
100
AcDbEntity
8
0-8寸法
6
CONTINUOUS
62
4
100
AcDbLine
10
2623.118000000000
20
800.166000000000
30
0.0
11
2617.941619097950
21
819.484516525781
31
0.0
0
LINE
5
78c
100
AcDbEntity
8
0-8寸法
6
CONTINUOUS
62
4
100
AcDbLine
10
2623.118000000000
20
800.166000000000
30
0.0
11
2628.294380902051
21
819.484516525781
31
0.0
0
LINE
5
78d
100
AcDbEntity
8
0-8寸法
6
CONTINUOUS
62
4
100
AcDbLine
10
2633.118000000000
20
875.166000000000
30
0.0
11
2583.118000000000
21
875.166000000000
31
0.0
0
LINE
5
78e
100
AcDbEntity
8
0-8寸法
6
CONTINUOUS
62
4
100
AcDbLine
10
2633.118000000000
20
800.166000000000
30
0.0
11
2564.577000000000
21
800.166000000000
31
0.0
0
TEXT
5
78f
100
AcDbEntity
8
0-8寸法
62
7
370
-3
100
AcDbText
10
2606.978
20
818.016
30
0.0
40
33.660
41
0.586
50
90.000
1
75
72
1
11
2610.718
21
840.516
31
0.0
100
AcDbText
73
1
0
LINE
5
790
100
AcDbEntity
8
0-5基準線
6
CENTER2
62
7
100
AcDbLine
10
2441.773000000000
20
1250.166000000000
30
0.0
11
2554.577000000000
21
1250.166000000000
31
0.0
0
LINE
5
791
100
AcDbEntity
8
0-8寸法
6
CONTINUOUS
62
4
100
AcDbLine
10
2623.118000000000
20
1250.166000000000
30
0.0
11
2623.118000000000
21
1175.166000000000
31
0.0
0
LINE
5
792
100
AcDbEntity
8
0-8寸法
6
CONTINUOUS
62
4
100
AcDbLine
10
2623.118000000000
20
1250.166000000000
30
0.0
11
2628.294380902051
21
1230.847483474219
31
0.0
0
LINE
5
793
100
AcDbEntity
8
0-8寸法
6
CONTINUOUS
62
4
100
AcDbLine
10
2623.118000000000
20
1250.166000000000
30
0.0
11
2617.941619097950
21
1230.847483474219
31
0.0
0
LINE
5
794
100
AcDbEntity
8
0-8寸法
6
CONTINUOUS
62
4
100
AcDbLine
10
2623.118000000000
20
1175.166000000000
30
0.0
11
2617.941619097950
21
1194.484516525781
31
0.0
0
LINE
5
795
100
AcDbEntity
8
0-8寸法
6
CONTINUOUS
62
4
100
AcDbLine
10
2623.118000000000
20
1175.166000000000
30
0.0
11
2628.294380902051
21
1194.484516525781
31
0.0
0
LINE
5
796
100
AcDbEntity
8
0-8寸法
6
CONTINUOUS
62
4
100
AcDbLine
10
2633.118000000000
20
1250.166000000000
30
0.0
11
2564.577000000000
21
1250.166000000000
31
0.0
0
LINE
5
797
100
AcDbEntity
8
0-8寸法
6
CONTINUOUS
62
4
100
AcDbLine
10
2633.118000000000
20
1175.166000000000
30
0.0
11
2583.118000000000
21
1175.166000000000
31
0.0
0
TEXT
5
798
100
AcDbEntity
8
0-8寸法
62
7
370
-3
100
AcDbText
10
2606.978
20
1193.016
30
0.0
40
33.660
41
0.586
50
90.000
1
75
72
1
11
2610.718
21
1215.516
31
0.0
100
AcDbText
73
1
0
LINE
5
799
100
AcDbEntity
8
0-8寸法
6
CONTINUOUS
62
4
100
AcDbLine
10
2386.854000000000
20
1325.166000000000
30
0.0
11
2733.118000000000
21
1325.166000000000
31
0.0
0
LINE
5
79a
100
AcDbEntity
8
0-8寸法
6
CONTINUOUS
62
4
100
AcDbLine
10
1294.686000000000
20
766.166000000000
30
0.0
11
1294.686000000000
21
515.166000000000
31
0.0
0
LINE
5
79b
100
AcDbEntity
8
0-8寸法
6
CONTINUOUS
62
4
100
AcDbLine
10
1094.686000000000
20
766.166000000000
30
0.0
11
1094.686000000000
21
515.166000000000
31
0.0
0
LINE
5
79c
100
AcDbEntity
8
0-8寸法
6
CONTINUOUS
62
4
100
AcDbLine
10
794.686000000000
20
925.166000000000
30
0.0
11
794.686000000000
21
1125.166000000000
31
0.0
0
LINE
5
79d
100
AcDbEntity
8
0-8寸法
6
CONTINUOUS
62
4
100
AcDbLine
10
794.686000000000
20
925.166000000000
30
0.0
11
789.510000000000
21
944.485000000000
31
0.0
0
LINE
5
79e
100
AcDbEntity
8
0-8寸法
6
CONTINUOUS
62
4
100
AcDbLine
10
794.686000000000
20
925.166000000000
30
0.0
11
799.863000000000
21
944.485000000000
31
0.0
0
LINE
5
79f
100
AcDbEntity
8
0-8寸法
6
CONTINUOUS
62
4
100
AcDbLine
10
794.686000000000
20
1125.166000000000
30
0.0
11
789.510000000000
21
1105.848000000000
31
0.0
0
LINE
5
7a0
100
AcDbEntity
8
0-8寸法
6
CONTINUOUS
62
4
100
AcDbLine
10
794.686000000000
20
1125.166000000000
30
0.0
11
799.863000000000
21
1105.848000000000
31
0.0
0
LINE
5
7a1
100
AcDbEntity
8
0-8寸法
6
CONTINUOUS
62
4
100
AcDbLine
10
694.686000000000
20
835.166000000000
30
0.0
11
694.686000000000
21
1215.166000000000
31
0.0
0
LINE
5
7a2
100
AcDbEntity
8
0-8寸法
6
CONTINUOUS
62
4
100
AcDbLine
10
694.686000000000
20
835.166000000000
30
0.0
11
689.510000000000
21
854.484000000000
31
0.0
0
LINE
5
7a3
100
AcDbEntity
8
0-8寸法
6
CONTINUOUS
62
4
100
AcDbLine
10
694.686000000000
20
835.166000000000
30
0.0
11
699.863000000000
21
854.484000000000
31
0.0
0
LINE
5
7a4
100
AcDbEntity
8
0-8寸法
6
CONTINUOUS
62
4
100
AcDbLine
10
694.686000000000
20
1215.166000000000
30
0.0
11
689.510000000000
21
1195.847000000000
31
0.0
0
LINE
5
7a5
100
AcDbEntity
8
0-8寸法
6
CONTINUOUS
62
4
100
AcDbLine
10
694.686000000000
20
1215.166000000000
30
0.0
11
699.863000000000
21
1195.847000000000
31
0.0
0
LINE
5
7a6
100
AcDbEntity
8
0-8寸法
6
CONTINUOUS
62
4
100
AcDbLine
10
986.727000000000
20
1215.166000000000
30
0.0
11
684.686000000000
21
1215.166000000000
31
0.0
0
LINE
5
7a7
100
AcDbEntity
8
0-8寸法
6
CONTINUOUS
62
4
100
AcDbLine
10
986.727000000000
20
835.166000000000
30
0.0
11
684.686000000000
21
835.166000000000
31
0.0
0
TEXT
5
7a8
100
AcDbEntity
8
0-8寸法
62
7
370
-3
100
AcDbText
10
780.639
20
994.320
30
0.0
40
33.660
1
200
41
0.629
50
90.000
100
AcDbText
0
MTEXT
5
7a9
100
AcDbEntity
8
0-8寸法
62
7
370
-3
100
AcDbMText
10
684.379
20
915.696
30
0.0
40
31.790
41
0.000
71
7
72
1
1
\W1.093;扉体高{\W0.787; 380}
7
STANDARD
11
0.00000
21
1.00000
31
0.0
0
MTEXT
5
7aa
100
AcDbEntity
8
0-8寸法
62
7
370
-3
100
AcDbMText
10
844.379
20
938.160
30
0.0
40
31.790
41
0.000
71
7
72
1
1
\W1.093;挿筋{\W0.787;ﾋﾟｯﾁ}
7
STANDARD
11
0.00000
21
1.00000
31
0.0
0
LINE
5
7ab
100
AcDbEntity
8
0-8寸法
6
CONTINUOUS
62
4
100
AcDbLine
10
935.686000000000
20
925.166000000000
30
0.0
11
784.686000000000
21
925.166000000000
31
0.0
0
LINE
5
7ac
100
AcDbEntity
8
0-8寸法
6
CONTINUOUS
62
4
100
AcDbLine
10
935.686000000000
20
1125.166000000000
30
0.0
11
784.686000000000
21
1125.166000000000
31
0.0
0
LINE
5
7ad
100
AcDbEntity
8
0-8寸法
6
CONTINUOUS
62
4
100
AcDbLine
10
2463.167970605527
20
797.029419900059
30
0.0
11
2273.118000000000
21
425.166000000000
31
0.0
0
POLYLINE
5
7ae
100
AcDbEntity
  8
0-8寸法
6
CONTINUOUS
62
2
100
AcDb2dPolyline
66
1
10
0
20
0
70
1
40
4.000
41
4.000
0
VERTEX
5
7af
100
AcDbEntity
  8
0-8寸法
6
CONTINUOUS
62
2
100
AcDbVertex
100
AcDb2dVertex
10
2461.168
20
797.029
30
0.0
42
1.000
0
VERTEX
5
7b0
100
AcDbEntity
  8
0-8寸法
6
CONTINUOUS
62
2
100
AcDbVertex
100
AcDb2dVertex
10
2465.168
20
797.029
30
0.0
42
1.000
0
SEQEND
5
7b1
100
AcDbEntity
  8
0-8寸法
0
TEXT
5
7b2
100
AcDbEntity
8
0-A文字
62
7
370
-3
100
AcDbText
10
1141.286
20
1009.769
30
0.0
40
33.660
41
0.577
50
0.000
1
PL-6t
72
1
11
1195.936
21
1026.129
31
0.0
100
AcDbText
73
2
0
TEXT
5
7b3
100
AcDbEntity
8
0-8寸法
62
7
370
-3
100
AcDbText
10
703.684
20
1739.213
30
0.0
40
33.660
41
0.625
50
0.000
1
PL-6t(SUS304)
72
2
11
994.584
21
1733.073
31
0.0
100
AcDbText
73
1
0
MTEXT
5
7b4
100
AcDbEntity
8
0-8寸法
62
7
370
-3
100
AcDbMText
10
456.233
20
1835.473
30
0.0
40
31.790
41
0.000
71
7
72
1
1
\W1.093;吊り{\W0.787;ﾌﾞﾗｹｯﾄ PL-8t(SUS304)}
7
STANDARD
11
1.00000
21
0.00000
31
0.0
0
MTEXT
5
7b5
100
AcDbEntity
8
0-8寸法
62
7
370
-3
100
AcDbMText
10
460.133
20
1635.473
30
0.0
40
31.790
41
0.000
71
7
72
1
1
\W1.093;{\W0.787;ｱﾝｶ-ﾎﾞﾙﾄ M12(SUS304}相当{\W0.787;)}
7
STANDARD
11
1.00000
21
0.00000
31
0.0
0
MTEXT
5
7b6
100
AcDbEntity
8
0-8寸法
62
7
370
-3
100
AcDbMText
10
456.251
20
1535.473
30
0.0
40
31.790
41
0.000
71
7
72
1
1
\W1.093;補強材{\W0.787;     PL-6t(SS400)}
7
STANDARD
11
1.00000
21
0.00000
31
0.0
0
LINE
5
7b7
100
AcDbEntity
8
0-8寸法
6
CONTINUOUS
62
4
100
AcDbLine
10
442.909655054914
20
1825.166000000000
30
0.0
11
1009.686000000000
21
1825.166000000000
31
0.0
0
LINE
5
7b8
100
AcDbEntity
8
0-8寸法
6
CONTINUOUS
62
4
100
AcDbLine
10
442.909655054914
20
1725.166000000000
30
0.0
11
1009.686000000000
21
1725.166000000000
31
0.0
0
LINE
5
7b9
100
AcDbEntity
8
0-8寸法
6
CONTINUOUS
62
4
100
AcDbLine
10
442.909655054914
20
1625.166000000000
30
0.0
11
1009.686000000000
21
1625.166000000000
31
0.0
0
LINE
5
7ba
100
AcDbEntity
8
0-8寸法
6
CONTINUOUS
62
4
100
AcDbLine
10
442.909655054914
20
1525.166000000000
30
0.0
11
1009.686000000000
21
1525.166000000000
31
0.0
0
LINE
5
7bb
100
AcDbEntity
8
0-8寸法
6
CONTINUOUS
62
4
100
AcDbLine
10
2733.118000000000
20
875.166000000000
30
0.0
11
2433.118000000000
21
875.166000000000
31
0.0
0
TEXT
5
7bc
100
AcDbEntity
8
0-8寸法
62
7
370
-3
100
AcDbText
10
3119.406
20
454.432
30
0.0
40
37.807
41
0.856
50
0.000
1
標準図
72
1
11
3185.001
21
470.000
31
0.0
100
AcDbText
73
2
0
LINE
5
7bd
100
AcDbEntity
8
0-8寸法
6
CONTINUOUS
62
4
100
AcDbLine
10
2568.486442032975
20
825.166000000000
30
0.0
11
2383.118000000000
21
825.166000000000
31
0.0
0
LINE
5
7be
100
AcDbEntity
8
0-3RC
6
CONTINUOUS
62
7
100
AcDbLine
10
2448.118000000000
20
793.666000000000
30
0.0
11
2448.118000000000
21
806.666000000000
31
0.0
0
LINE
5
7bf
100
AcDbEntity
8
0-3RC
6
PHANTOM2
62
7
100
AcDbLine
10
2548.118000000000
20
785.166000000000
30
0.0
11
2548.118000000000
21
815.166000000000
31
0.0
0
LINE
5
7c0
100
AcDbEntity
8
0-3RC
6
CONTINUOUS
62
7
100
AcDbLine
10
2448.118000000000
20
793.666000000000
30
0.0
11
2548.118000000000
21
793.666000000000
31
0.0
0
LINE
5
7c1
100
AcDbEntity
8
0-3RC
6
CONTINUOUS
62
7
100
AcDbLine
10
2448.118000000000
20
806.666000000000
30
0.0
11
2548.118000000000
21
806.666000000000
31
0.0
0
CIRCLE
5
7c2
100
AcDbEntity
8
0-3RC
6
CONTINUOUS
62
7
100
AcDbCircle
10
1419.686000000000
20
1125.166000000000
30
0.0
40
6.500000000000
0
LINE
5
7c3
100
AcDbEntity
8
0-3RC
6
CENTER2
62
7
100
AcDbLine
10
1419.686000000000
20
1113.166000000000
30
0.0
11
1419.686000000000
21
1137.166000000000
31
0.0
0
LINE
5
7c4
100
AcDbEntity
8
0-3RC
6
CENTER2
62
7
100
AcDbLine
10
1431.686000000000
20
1125.166000000000
30
0.0
11
1407.686000000000
21
1125.166000000000
31
0.0
0
CIRCLE
5
7c5
100
AcDbEntity
8
0-3RC
6
CONTINUOUS
62
7
100
AcDbCircle
10
1419.686000000000
20
925.166000000000
30
0.0
40
6.500000000000
0
LINE
5
7c6
100
AcDbEntity
8
0-3RC
6
CENTER2
62
7
100
AcDbLine
10
1419.686000000000
20
913.166000000000
30
0.0
11
1419.686000000000
21
937.166000000000
31
0.0
0
LINE
5
7c7
100
AcDbEntity
8
0-3RC
6
CENTER2
62
7
100
AcDbLine
10
1431.686000000000
20
925.166000000000
30
0.0
11
1407.686000000000
21
925.166000000000
31
0.0
0
CIRCLE
5
7c8
100
AcDbEntity
8
0-3RC
6
CONTINUOUS
62
7
100
AcDbCircle
10
1294.686000000000
20
800.166000000000
30
0.0
40
6.500000000000
0
LINE
5
7c9
100
AcDbEntity
8
0-3RC
6
CENTER2
62
7
100
AcDbLine
10
1294.686000000000
20
788.166000000000
30
0.0
11
1294.686000000000
21
812.166000000000
31
0.0
0
LINE
5
7ca
100
AcDbEntity
8
0-3RC
6
CENTER2
62
7
100
AcDbLine
10
1306.686000000000
20
800.166000000000
30
0.0
11
1282.686000000000
21
800.166000000000
31
0.0
0
CIRCLE
5
7cb
100
AcDbEntity
8
0-3RC
6
CONTINUOUS
62
7
100
AcDbCircle
10
1094.686000000000
20
800.166000000000
30
0.0
40
6.500000000000
0
LINE
5
7cc
100
AcDbEntity
8
0-3RC
6
CENTER2
62
7
100
AcDbLine
10
1094.686000000000
20
788.166000000000
30
0.0
11
1094.686000000000
21
812.166000000000
31
0.0
0
LINE
5
7cd
100
AcDbEntity
8
0-3RC
6
CENTER2
62
7
100
AcDbLine
10
1106.686000000000
20
800.166000000000
30
0.0
11
1082.686000000000
21
800.166000000000
31
0.0
0
CIRCLE
5
7ce
100
AcDbEntity
8
0-3RC
6
CONTINUOUS
62
7
100
AcDbCircle
10
969.686000000000
20
1125.166000000000
30
0.0
40
6.500000000000
0
LINE
5
7cf
100
AcDbEntity
8
0-3RC
6
CENTER2
62
7
100
AcDbLine
10
969.686000000000
20
1113.166000000000
30
0.0
11
969.686000000000
21
1137.166000000000
31
0.0
0
LINE
5
7d0
100
AcDbEntity
8
0-3RC
6
CENTER2
62
7
100
AcDbLine
10
981.686000000000
20
1125.166000000000
30
0.0
11
957.686000000000
21
1125.166000000000
31
0.0
0
CIRCLE
5
7d1
100
AcDbEntity
8
0-3RC
6
CONTINUOUS
62
7
100
AcDbCircle
10
969.686000000000
20
925.166000000000
30
0.0
40
6.500000000000
0
LINE
5
7d2
100
AcDbEntity
8
0-3RC
6
CENTER2
62
7
100
AcDbLine
10
969.686000000000
20
913.166000000000
30
0.0
11
969.686000000000
21
937.166000000000
31
0.0
0
LINE
5
7d3
100
AcDbEntity
8
0-3RC
6
CENTER2
62
7
100
AcDbLine
10
981.686000000000
20
925.166000000000
30
0.0
11
957.686000000000
21
925.166000000000
31
0.0
0
LINE
5
7d4
100
AcDbEntity
8
0-3RC
6
PHANTOM2
62
7
100
AcDbLine
10
2548.118000000000
20
1235.166000000000
30
0.0
11
2548.118000000000
21
1265.166000000000
31
0.0
0
LINE
5
7d5
100
AcDbEntity
8
0-3RC
6
CONTINUOUS
62
7
100
AcDbLine
10
2448.118000000000
20
1243.666000000000
30
0.0
11
2548.118000000000
21
1243.666000000000
31
0.0
0
LINE
5
7d6
100
AcDbEntity
8
0-3RC
6
CONTINUOUS
62
7
100
AcDbLine
10
2448.118000000000
20
1256.666000000000
30
0.0
11
2548.118000000000
21
1256.666000000000
31
0.0
0
LINE
5
7d7
100
AcDbEntity
8
0-3RC
6
CONTINUOUS
62
7
100
AcDbLine
10
2448.118000000000
20
1243.666000000000
30
0.0
11
2448.118000000000
21
1256.666000000000
31
0.0
0
LINE
5
7d8
100
AcDbEntity
8
0-3RC
6
CONTINUOUS
62
7
100
AcDbLine
10
1494.686000000000
20
2226.261059486727
30
0.0
11
1494.686000000000
21
2351.261059486727
31
0.0
0
LINE
5
7d9
100
AcDbEntity
8
0-6戸当り
6
CONTINUOUS
62
3
100
AcDbLine
10
1371.186000000000
20
2259.261059486727
30
0.0
11
1350.686000000000
21
2259.261059486727
31
0.0
0
LINE
5
7da
100
AcDbEntity
8
0-6戸当り
6
CONTINUOUS
62
3
100
AcDbLine
10
1371.186000000000
20
2272.261059486727
30
0.0
11
1350.686000000000
21
2272.261059486727
31
0.0
0
LINE
5
7db
100
AcDbEntity
8
0-6戸当り
6
CONTINUOUS
62
3
100
AcDbLine
10
1377.686000000000
20
2252.761059486727
30
0.0
11
1377.686000000000
21
2232.261059486727
31
0.0
0
LINE
5
7dc
100
AcDbEntity
8
0-6戸当り
6
CONTINUOUS
62
3
100
AcDbLine
10
1390.686000000000
20
2252.761059486727
30
0.0
11
1390.686000000000
21
2232.261059486727
31
0.0
0
LINE
5
7dd
100
AcDbEntity
8
0-5基準線
6
CENTER2
62
7
100
AcDbLine
10
1384.186000000000
20
2252.761059486727
30
0.0
11
1384.186000000000
21
2229.241059486727
31
0.0
0
LINE
5
7de
100
AcDbEntity
8
0-5基準線
6
CENTER2
62
7
100
AcDbLine
10
1371.186000000000
20
2265.761059486727
30
0.0
11
1347.865000000000
21
2265.761059486727
31
0.0
0
LINE
5
7df
100
AcDbEntity
8
0-6戸当り
6
DOT
62
2
100
AcDbLine
10
1090.686000000000
20
2166.261059486727
30
0.0
11
1128.686000000000
21
2166.261059486727
31
0.0
0
LINE
5
7e0
100
AcDbEntity
8
0-6戸当り
6
CONTINUOUS
62
2
100
AcDbLine
10
1090.686000000000
20
2158.262059486728
30
0.0
11
1128.686000000000
21
2158.262059486728
31
0.0
0
LINE
5
7e1
100
AcDbEntity
8
0-3RC
6
DOT
62
2
100
AcDbLine
10
1044.686000000000
20
2226.261059486727
30
0.0
11
1044.686000000000
21
2426.261059486727
31
0.0
0
LINE
5
7e2
100
AcDbEntity
8
0-3RC
6
CONTINUOUS
62
7
100
AcDbLine
10
1344.686000000000
20
2226.261059486727
30
0.0
11
1344.686000000000
21
2426.261059486727
31
0.0
0
LINE
5
7e3
100
AcDbEntity
8
0-5基準線
6
CENTER2
62
7
100
AcDbLine
10
1194.686000000000
20
2426.261059486727
30
0.0
11
1194.686000000000
21
2135.972059486728
31
0.0
0
LINE
5
7e4
100
AcDbEntity
8
0-5基準線
6
CENTER2
62
7
100
AcDbLine
10
1109.686000000000
20
2147.806059486728
30
0.0
11
1109.686000000000
21
2308.883059486728
31
0.0
0
LINE
5
7e5
100
AcDbEntity
8
0-8寸法
6
CONTINUOUS
62
4
100
AcDbLine
10
1479.686000000000
20
2046.802059486728
30
0.0
11
1479.686000000000
21
1846.802059486728
31
0.0
0
LINE
5
7e6
100
AcDbEntity
8
0-3RC
6
CONTINUOUS
62
4
100
AcDbLine
10
1455.377000000000
20
2226.261059486727
30
0.0
11
1494.686000000000
21
2265.570059486728
31
0.0
0
LINE
5
7e7
100
AcDbEntity
8
0-3RC
6
CONTINUOUS
62
4
100
AcDbLine
10
1344.686000000000
20
2327.702059486728
30
0.0
11
1368.245000000000
21
2351.261059486727
31
0.0
0
LINE
5
7e8
100
AcDbEntity
8
0-3RC
6
CONTINUOUS
62
4
100
AcDbLine
10
1309.513000000000
20
2351.261059486727
30
0.0
11
1344.686000000000
21
2316.089059486728
31
0.0
0
LINE
5
7e9
100
AcDbEntity
8
0-3RC
6
DOT
62
4
100
AcDbLine
10
894.686000000000
20
2271.114059486728
30
0.0
11
939.539000000000
21
2226.261059486727
31
0.0
0
LINE
5
7ea
100
AcDbEntity
8
0-6戸当り
6
CONTINUOUS
62
3
100
AcDbLine
10
1394.686000000000
20
2227.761059486727
30
0.0
11
1394.686000000000
21
2226.261059486727
31
0.0
0
LINE
5
7eb
100
AcDbEntity
8
0-6戸当り
6
CONTINUOUS
62
3
100
AcDbLine
10
1350.686000000000
20
2238.761059486727
30
0.0
11
1350.686000000000
21
2271.761059486727
31
0.0
0
LINE
5
7ec
100
AcDbEntity
8
0-6戸当り
6
CONTINUOUS
62
3
100
AcDbLine
10
1357.186000000000
20
2232.261059486727
30
0.0
11
1390.186000000000
21
2232.261059486727
31
0.0
0
LINE
5
7ed
100
AcDbEntity
8
0-6戸当り
6
DOT
62
2
100
AcDbLine
10
1042.686000000000
20
2276.261059486727
30
0.0
11
1194.686000000000
21
2276.261059486727
31
0.0
0
LINE
5
7ee
100
AcDbEntity
8
0-6戸当り
6
DOT
62
3
100
AcDbLine
10
1018.186000000000
20
2259.261059486727
30
0.0
11
1038.686000000000
21
2259.261059486727
31
0.0
0
LINE
5
7ef
100
AcDbEntity
8
0-6戸当り
6
DOT
62
3
100
AcDbLine
10
1018.186000000000
20
2272.261059486727
30
0.0
11
1038.686000000000
21
2272.261059486727
31
0.0
0
LINE
5
7f0
100
AcDbEntity
8
0-6戸当り
6
DOT
62
3
100
AcDbLine
10
1011.686000000000
20
2252.761059486727
30
0.0
11
1011.686000000000
21
2232.261059486727
31
0.0
0
LINE
5
7f1
100
AcDbEntity
8
0-6戸当り
6
DOT
62
3
100
AcDbLine
10
998.686000000000
20
2252.761059486727
30
0.0
11
998.686000000000
21
2232.261059486727
31
0.0
0
LINE
5
7f2
100
AcDbEntity
8
0-5基準線
6
CENTER2
62
7
100
AcDbLine
10
1005.186000000000
20
2252.761059486727
30
0.0
11
1005.186000000000
21
2229.241059486727
31
0.0
0
LINE
5
7f3
100
AcDbEntity
8
0-5基準線
6
CENTER2
62
7
100
AcDbLine
10
1018.186000000000
20
2265.761059486727
30
0.0
11
1041.507000000000
21
2265.761059486727
31
0.0
0
LINE
5
7f4
100
AcDbEntity
8
0-6戸当り
6
DOT
62
3
100
AcDbLine
10
994.686000000000
20
2227.761059486727
30
0.0
11
994.686000000000
21
2226.261059486727
31
0.0
0
LINE
5
7f5
100
AcDbEntity
8
0-6戸当り
6
DOT
62
3
100
AcDbLine
10
1038.686000000000
20
2238.761059486727
30
0.0
11
1038.686000000000
21
2271.761059486727
31
0.0
0
LINE
5
7f6
100
AcDbEntity
8
0-6戸当り
6
DOT
62
3
100
AcDbLine
10
1032.186000000000
20
2232.261059486727
30
0.0
11
999.186000000000
21
2232.261059486727
31
0.0
0
LINE
5
7f7
100
AcDbEntity
8
0-6戸当り
6
CONTINUOUS
62
3
100
AcDbLine
10
1346.186000000000
20
2276.261059486727
30
0.0
11
1194.686000000000
21
2276.261059486727
31
0.0
0
LINE
5
7f8
100
AcDbEntity
8
0-3RC
6
CONTINUOUS
62
4
100
AcDbLine
10
1238.803000000000
20
2351.261059486727
30
0.0
11
1313.803000000000
21
2276.261059486727
31
0.0
0
LINE
5
7f9
100
AcDbEntity
8
0-3RC
6
CONTINUOUS
62
4
100
AcDbLine
10
1350.686000000000
20
2262.991059486727
30
0.0
11
1438.956000000000
21
2351.261059486727
31
0.0
0
LINE
5
7fa
100
AcDbEntity
8
0-3RC
6
CONTINUOUS
62
4
100
AcDbLine
10
1390.667000000000
20
2232.261059486727
30
0.0
11
1494.686000000000
21
2336.281059486728
31
0.0
0
LINE
5
7fb
100
AcDbEntity
8
0-9扉体
6
CONTINUOUS
62
6
100
AcDbLine
10
1153.186000000000
20
2204.261059486727
30
0.0
11
1142.286000000000
21
2204.261059486727
31
0.0
0
LINE
5
7fc
100
AcDbEntity
8
0-3RC
6
CONTINUOUS
62
4
100
AcDbLine
10
1194.686000000000
20
2324.668059486728
30
0.0
11
1243.092000000000
21
2276.261059486727
31
0.0
0
LINE
5
7fd
100
AcDbEntity
8
0-3RC
6
DOT
62
4
100
AcDbLine
10
1168.092000000000
20
2351.261059486727
30
0.0
11
1194.686000000000
21
2324.667059486727
31
0.0
0
LINE
5
7fe
100
AcDbEntity
8
0-3RC
6
DOT
62
4
100
AcDbLine
10
1097.381000000000
20
2351.261059486727
30
0.0
11
1194.686000000000
21
2253.956059486728
31
0.0
0
LINE
5
7ff
100
AcDbEntity
8
0-3RC
6
DOT
62
4
100
AcDbLine
10
1026.671000000000
20
2351.261059486727
30
0.0
11
1151.671000000000
21
2226.261059486727
31
0.0
0
LINE
5
800
100
AcDbEntity
8
0-3RC
6
DOT
62
4
100
AcDbLine
10
955.960000000000
20
2351.261059486727
30
0.0
11
1080.960000000000
21
2226.261059486727
31
0.0
0
LINE
5
801
100
AcDbEntity
8
0-3RC
6
DOT
62
4
100
AcDbLine
10
894.686000000000
20
2341.825059486728
30
0.0
11
1010.249000000000
21
2226.261059486727
31
0.0
0
LINE
5
802
100
AcDbEntity
8
0-3RC
6
CONTINUOUS
62
7
100
AcDbLine
10
1194.686000000000
20
2351.261059486727
30
0.0
11
1494.686000000000
21
2351.261059486727
31
0.0
0
LINE
5
803
100
AcDbEntity
8
0-3RC
6
DOT
62
7
100
AcDbLine
10
894.686000000000
20
2226.261059486727
30
0.0
11
894.686000000000
21
2351.261059486727
31
0.0
0
LINE
5
804
100
AcDbEntity
8
0-6戸当り
6
DOT
62
3
100
AcDbLine
10
1106.686000000000
20
2282.261059486727
30
0.0
11
1112.686000000000
21
2282.261059486727
31
0.0
0
LINE
5
805
100
AcDbEntity
8
0-6戸当り
6
DOT
62
3
100
AcDbLine
10
1106.686000000000
20
2232.261059486727
30
0.0
11
1106.686000000000
21
2282.261059486727
31
0.0
0
LINE
5
806
100
AcDbEntity
8
0-6戸当り
6
DOT
62
3
100
AcDbLine
10
1112.686000000000
20
2232.261059486727
30
0.0
11
1112.686000000000
21
2282.261059486727
31
0.0
0
LINE
5
807
100
AcDbEntity
8
0-3RC
6
CONTINUOUS
62
7
100
AcDbLine
10
794.686000000000
20
2226.261059486727
30
0.0
11
1594.686000000000
21
2226.261059486727
31
0.0
0
LINE
5
808
100
AcDbEntity
8
0-8寸法
6
CONTINUOUS
62
4
100
AcDbLine
10
1479.686000000000
20
2046.802059486728
30
0.0
11
1371.057000000000
21
2210.780059486728
31
0.0
0
LINE
5
809
100
AcDbEntity
8
0-8寸法
6
CONTINUOUS
62
4
100
AcDbLine
10
1479.686000000000
20
2046.802059486728
30
0.0
11
2189.686000000000
21
2046.802059486728
31
0.0
0
LINE
5
80a
100
AcDbEntity
8
0-8寸法
6
CONTINUOUS
62
4
100
AcDbLine
10
1479.686000000000
20
1946.802059486728
30
0.0
11
2189.686000000000
21
1946.802059486728
31
0.0
0
LINE
5
80b
100
AcDbEntity
8
0-8寸法
6
CONTINUOUS
62
4
100
AcDbLine
10
1479.686000000000
20
1846.802059486728
30
0.0
11
2189.686000000000
21
1846.802059486728
31
0.0
0
LINE
5
80c
100
AcDbEntity
8
0-6戸当り
6
DOT
62
6
100
AcDbLine
10
1056.186000000000
20
2251.261059486727
30
0.0
11
1068.186000000000
21
2251.261059486727
31
0.0
0
LINE
5
80d
100
AcDbEntity
8
0-6戸当り
6
DOT
62
6
100
AcDbLine
10
1057.186000000000
20
2242.261059486727
30
0.0
11
1057.186000000000
21
2251.261059486727
31
0.0
0
LINE
5
80e
100
AcDbEntity
8
0-6戸当り
6
DOT
62
6
100
AcDbLine
10
1067.186000000000
20
2242.261059486727
30
0.0
11
1067.186000000000
21
2251.261059486727
31
0.0
0
LINE
5
80f
100
AcDbEntity
8
0-6戸当り
6
DOT
62
7
100
AcDbLine
10
1052.686000000000
20
2242.261059486727
30
0.0
11
1052.686000000000
21
2232.261059486727
31
0.0
0
LINE
5
810
100
AcDbEntity
8
0-6戸当り
6
DOT
62
7
100
AcDbLine
10
1071.686000000000
20
2242.261059486727
30
0.0
11
1071.686000000000
21
2232.261059486727
31
0.0
0
LINE
5
811
100
AcDbEntity
8
0-6戸当り
6
DOT
62
7
100
AcDbLine
10
1071.686000000000
20
2242.261059486727
30
0.0
11
1052.686000000000
21
2242.261059486727
31
0.0
0
LINE
5
812
100
AcDbEntity
8
0-6戸当り
6
DOT
62
2
100
AcDbLine
10
1068.186000000000
20
2242.261059486727
30
0.0
11
1068.186000000000
21
2284.261059486727
31
0.0
0
LINE
5
813
100
AcDbEntity
8
0-6戸当り
6
DOT
62
2
100
AcDbLine
10
1056.186000000000
20
2242.261059486727
30
0.0
11
1056.186000000000
21
2284.261059486727
31
0.0
0
LINE
5
814
100
AcDbEntity
8
0-5基準線
6
CENTER2
62
7
100
AcDbLine
10
1062.186000000000
20
2284.261059486727
30
0.0
11
1062.186000000000
21
2241.413059486727
31
0.0
0
LINE
5
815
100
AcDbEntity
8
0-5基準線
6
CENTER2
62
7
100
AcDbLine
10
1062.186000000000
20
2208.110059486728
30
0.0
11
1062.186000000000
21
2194.994059486728
31
0.0
0
LINE
5
816
100
AcDbEntity
8
0-6戸当り
6
DOT
62
7
100
AcDbLine
10
1062.186000000000
20
2241.413059486727
30
0.0
11
1062.186000000000
21
2232.261059486727
31
0.0
0
LINE
5
817
100
AcDbEntity
8
0-6戸当り
6
DOT
62
2
100
AcDbLine
10
1047.186000000000
20
2226.261059486727
30
0.0
11
1047.186000000000
21
2232.261059486727
31
0.0
0
LINE
5
818
100
AcDbEntity
8
0-6戸当り
6
DOT
62
3
100
AcDbLine
10
1047.186000000000
20
2232.261059486727
30
0.0
11
1344.686000000000
21
2232.261059486727
31
0.0
0
LINE
5
819
100
AcDbEntity
8
0-6戸当り
6
DOT
62
2
100
AcDbLine
10
1172.186000000000
20
2226.261059486727
30
0.0
11
1172.186000000000
21
2232.261059486727
31
0.0
0
LINE
5
81a
100
AcDbEntity
8
0-6戸当り
6
DOT
62
2
100
AcDbLine
10
1163.186000000000
20
2251.261059486727
30
0.0
11
1151.186000000000
21
2251.261059486727
31
0.0
0
LINE
5
81b
100
AcDbEntity
8
0-6戸当り
6
DOT
62
2
100
AcDbLine
10
1162.186000000000
20
2242.261059486727
30
0.0
11
1162.186000000000
21
2251.261059486727
31
0.0
0
LINE
5
81c
100
AcDbEntity
8
0-6戸当り
6
DOT
62
2
100
AcDbLine
10
1152.186000000000
20
2242.261059486727
30
0.0
11
1152.186000000000
21
2251.261059486727
31
0.0
0
LINE
5
81d
100
AcDbEntity
8
0-6戸当り
6
DOT
62
7
100
AcDbLine
10
1166.686000000000
20
2242.261059486727
30
0.0
11
1166.686000000000
21
2232.261059486727
31
0.0
0
LINE
5
81e
100
AcDbEntity
8
0-6戸当り
6
DOT
62
7
100
AcDbLine
10
1147.686000000000
20
2242.261059486727
30
0.0
11
1147.686000000000
21
2232.261059486727
31
0.0
0
LINE
5
81f
100
AcDbEntity
8
0-6戸当り
6
DOT
62
7
100
AcDbLine
10
1147.686000000000
20
2242.261059486727
30
0.0
11
1166.686000000000
21
2242.261059486727
31
0.0
0
LINE
5
820
100
AcDbEntity
8
0-6戸当り
6
DOT
62
2
100
AcDbLine
10
1151.186000000000
20
2242.261059486727
30
0.0
11
1151.186000000000
21
2284.261059486727
31
0.0
0
LINE
5
821
100
AcDbEntity
8
0-6戸当り
6
DOT
62
2
100
AcDbLine
10
1163.186000000000
20
2242.261059486727
30
0.0
11
1163.186000000000
21
2284.261059486727
31
0.0
0
LINE
5
822
100
AcDbEntity
8
0-5基準線
6
CENTER2
62
7
100
AcDbLine
10
1157.186000000000
20
2284.261059486727
30
0.0
11
1157.186000000000
21
2241.413059486727
31
0.0
0
LINE
5
823
100
AcDbEntity
8
0-6戸当り
6
DOT
62
7
100
AcDbLine
10
1157.186000000000
20
2241.413059486727
30
0.0
11
1157.186000000000
21
2232.261059486727
31
0.0
0
LINE
5
824
100
AcDbEntity
8
0-5基準線
6
CENTER2
62
7
100
AcDbLine
10
1074.186000000000
20
2296.261059486727
30
0.0
11
1145.186000000000
21
2296.261059486727
31
0.0
0
LINE
5
825
100
AcDbEntity
8
0-6戸当り
6
DOT
62
2
100
AcDbLine
10
1074.186000000000
20
2302.261059486727
30
0.0
11
1145.186000000000
21
2302.261059486727
31
0.0
0
LINE
5
826
100
AcDbEntity
8
0-6戸当り
6
DOT
62
2
100
AcDbLine
10
1074.186000000000
20
2290.261059486727
30
0.0
11
1145.186000000000
21
2290.261059486727
31
0.0
0
LINE
5
827
100
AcDbEntity
8
0-6戸当り
6
CONTINUOUS
62
4
100
AcDbLine
10
1062.186000000000
20
2223.261059486727
30
0.0
11
1065.186000000000
21
2226.261059486727
31
0.0
0
LINE
5
828
100
AcDbEntity
8
0-6戸当り
6
CONTINUOUS
62
4
100
AcDbLine
10
1062.186000000000
20
2226.261059486727
30
0.0
11
1059.186000000000
21
2223.261059486727
31
0.0
0
LINE
5
829
100
AcDbEntity
8
0-6戸当り
6
CONTINUOUS
62
6
100
AcDbLine
10
1056.186000000000
20
2202.261059486727
30
0.0
11
1056.186000000000
21
2213.261059486727
31
0.0
0
LINE
5
82a
100
AcDbEntity
8
0-6戸当り
6
CONTINUOUS
62
6
100
AcDbLine
10
1057.186000000000
20
2202.261059486727
30
0.0
11
1057.186000000000
21
2213.261059486727
31
0.0
0
LINE
5
82b
100
AcDbEntity
8
0-6戸当り
6
CONTINUOUS
62
6
100
AcDbLine
10
1067.186000000000
20
2202.261059486727
30
0.0
11
1067.186000000000
21
2213.261059486727
31
0.0
0
LINE
5
82c
100
AcDbEntity
8
0-6戸当り
6
CONTINUOUS
62
6
100
AcDbLine
10
1068.186000000000
20
2202.261059486727
30
0.0
11
1068.186000000000
21
2213.261059486727
31
0.0
0
LINE
5
82d
100
AcDbEntity
8
0-6戸当り
6
CONTINUOUS
62
7
100
AcDbLine
10
1071.686000000000
20
2213.261059486727
30
0.0
11
1071.686000000000
21
2223.261059486727
31
0.0
0
LINE
5
82e
100
AcDbEntity
8
0-6戸当り
6
CONTINUOUS
62
7
100
AcDbLine
10
1052.686000000000
20
2213.261059486727
30
0.0
11
1052.686000000000
21
2223.261059486727
31
0.0
0
LINE
5
82f
100
AcDbEntity
8
0-6戸当り
6
CONTINUOUS
62
7
100
AcDbLine
10
1052.686000000000
20
2213.261059486727
30
0.0
11
1071.686000000000
21
2213.261059486727
31
0.0
0
LINE
5
830
100
AcDbEntity
8
0-6戸当り
6
CONTINUOUS
62
7
100
AcDbLine
10
1062.186000000000
20
2214.110059486728
30
0.0
11
1062.186000000000
21
2223.261059486727
31
0.0
0
LINE
5
831
100
AcDbEntity
8
0-6戸当り
6
CONTINUOUS
62
4
100
AcDbLine
10
1051.436000000000
20
2223.261059486727
30
0.0
11
1051.436000000000
21
2226.261059486727
31
0.0
0
LINE
5
832
100
AcDbEntity
8
0-6戸当り
6
CONTINUOUS
62
4
100
AcDbLine
10
1072.936000000000
20
2223.261059486727
30
0.0
11
1051.436000000000
21
2223.261059486727
31
0.0
0
LINE
5
833
100
AcDbEntity
8
0-6戸当り
6
CONTINUOUS
62
4
100
AcDbLine
10
1072.936000000000
20
2223.261059486727
30
0.0
11
1072.936000000000
21
2226.261059486727
31
0.0
0
LINE
5
834
100
AcDbEntity
8
0-5基準線
6
CENTER2
62
7
100
AcDbLine
10
1062.186000000000
20
2232.261059486727
30
0.0
11
1062.186000000000
21
2226.261059486727
31
0.0
0
LINE
5
835
100
AcDbEntity
8
0-6戸当り
6
CONTINUOUS
62
6
100
AcDbLine
10
1056.186000000000
20
2202.261059486727
30
0.0
11
1068.186000000000
21
2202.261059486727
31
0.0
0
LINE
5
836
100
AcDbEntity
8
0-6戸当り
6
CONTINUOUS
62
6
100
AcDbLine
10
1163.186000000000
20
2202.261059486727
30
0.0
11
1151.186000000000
21
2202.261059486727
31
0.0
0
LINE
5
837
100
AcDbEntity
8
0-6戸当り
6
CONTINUOUS
62
4
100
AcDbLine
10
1157.186000000000
20
2223.261059486727
30
0.0
11
1154.186000000000
21
2226.261059486727
31
0.0
0
LINE
5
838
100
AcDbEntity
8
0-6戸当り
6
CONTINUOUS
62
4
100
AcDbLine
10
1157.186000000000
20
2226.261059486727
30
0.0
11
1160.186000000000
21
2223.261059486727
31
0.0
0
LINE
5
839
100
AcDbEntity
8
0-6戸当り
6
CONTINUOUS
62
6
100
AcDbLine
10
1163.186000000000
20
2202.261059486727
30
0.0
11
1163.186000000000
21
2213.261059486727
31
0.0
0
LINE
5
83a
100
AcDbEntity
8
0-6戸当り
6
CONTINUOUS
62
6
100
AcDbLine
10
1162.186000000000
20
2202.261059486727
30
0.0
11
1162.186000000000
21
2213.261059486727
31
0.0
0
LINE
5
83b
100
AcDbEntity
8
0-6戸当り
6
CONTINUOUS
62
6
100
AcDbLine
10
1152.186000000000
20
2202.261059486727
30
0.0
11
1152.186000000000
21
2213.261059486727
31
0.0
0
LINE
5
83c
100
AcDbEntity
8
0-6戸当り
6
CONTINUOUS
62
6
100
AcDbLine
10
1151.186000000000
20
2202.261059486727
30
0.0
11
1151.186000000000
21
2213.261059486727
31
0.0
0
LINE
5
83d
100
AcDbEntity
8
0-6戸当り
6
CONTINUOUS
62
7
100
AcDbLine
10
1147.686000000000
20
2213.261059486727
30
0.0
11
1147.686000000000
21
2223.261059486727
31
0.0
0
LINE
5
83e
100
AcDbEntity
8
0-6戸当り
6
CONTINUOUS
62
7
100
AcDbLine
10
1166.686000000000
20
2213.261059486727
30
0.0
11
1166.686000000000
21
2223.261059486727
31
0.0
0
LINE
5
83f
100
AcDbEntity
8
0-6戸当り
6
CONTINUOUS
62
7
100
AcDbLine
10
1166.686000000000
20
2213.261059486727
30
0.0
11
1147.686000000000
21
2213.261059486727
31
0.0
0
LINE
5
840
100
AcDbEntity
8
0-6戸当り
6
CONTINUOUS
62
7
100
AcDbLine
10
1157.186000000000
20
2214.110059486728
30
0.0
11
1157.186000000000
21
2223.261059486727
31
0.0
0
LINE
5
841
100
AcDbEntity
8
0-6戸当り
6
CONTINUOUS
62
4
100
AcDbLine
10
1146.436000000000
20
2223.261059486727
30
0.0
11
1146.436000000000
21
2226.261059486727
31
0.0
0
LINE
5
842
100
AcDbEntity
8
0-5基準線
6
CENTER2
62
7
100
AcDbLine
10
1157.186000000000
20
2214.110059486728
30
0.0
11
1157.186000000000
21
2200.994059486728
31
0.0
0
LINE
5
843
100
AcDbEntity
8
0-5基準線
6
CENTER2
62
7
100
AcDbLine
10
1157.186000000000
20
2232.261059486727
30
0.0
11
1157.186000000000
21
2226.261059486727
31
0.0
0
LINE
5
844
100
AcDbEntity
8
0-6戸当り
6
CONTINUOUS
62
4
100
AcDbLine
10
1167.936000000000
20
2223.261059486727
30
0.0
11
1167.936000000000
21
2226.261059486727
31
0.0
0
LINE
5
845
100
AcDbEntity
8
0-6戸当り
6
CONTINUOUS
62
4
100
AcDbLine
10
1146.436000000000
20
2223.261059486727
30
0.0
11
1167.936000000000
21
2223.261059486727
31
0.0
0
LINE
5
846
100
AcDbEntity
8
0-6戸当り
6
CONTINUOUS
62
2
100
AcDbLine
10
1090.686000000000
20
2158.262059486728
30
0.0
11
1090.686000000000
21
2226.261059486727
31
0.0
0
LINE
5
847
100
AcDbEntity
8
0-6戸当り
6
CONTINUOUS
62
2
100
AcDbLine
10
1128.686000000000
20
2158.262059486728
30
0.0
11
1128.686000000000
21
2226.261059486727
31
0.0
0
LINE
5
848
100
AcDbEntity
8
0-9扉体
6
CONTINUOUS
62
4
100
AcDbLine
10
1378.686000000000
20
2168.261059486727
30
0.0
11
1378.686000000000
21
2204.261059486727
31
0.0
0
LINE
5
849
100
AcDbEntity
8
0-9扉体
6
CONTINUOUS
62
4
100
AcDbLine
10
1325.186000000000
20
2162.261059486727
30
0.0
11
1372.686000000000
21
2162.261059486727
31
0.0
0
POLYLINE
5
84a
100
AcDbEntity
8
0-9扉体
6
CONTINUOUS
62
  4
100
AcDb2dPolyline
66
1
10
0.0
20
0.0
30
0.0
70
0
0
VERTEX
5
84b
100
AcDbEntity
8
0-9扉体
6
CONTINUOUS
62
  4
100
AcDbVertex
100
AcDb2dVertex
10
1004.686000000000
20
2156.261059486727
30
0.0
0
VERTEX
5
84c
100
AcDbEntity
8
0-9扉体
6
CONTINUOUS
62
  4
100
AcDbVertex
100
AcDb2dVertex
10
1384.686000000000
20
2156.261059486727
30
0.0
0
VERTEX
5
84d
100
AcDbEntity
8
0-9扉体
6
CONTINUOUS
62
  4
100
AcDbVertex
100
AcDb2dVertex
10
1384.686000000000
20
2204.261059486727
30
0.0
0
SEQEND
5
84e
100
AcDbEntity
8
0-9扉体
0
LINE
5
84f
100
AcDbEntity
8
0-5基準線
6
CENTER2
62
7
100
AcDbLine
10
1344.686000000000
20
2186.858059486728
30
0.0
11
1344.686000000000
21
2225.786059486728
31
0.0
0
LINE
5
850
100
AcDbEntity
8
0-9扉体
6
CONTINUOUS
62
4
100
AcDbLine
10
1389.686000000000
20
2204.261059486727
30
0.0
11
1389.686000000000
21
2210.261059486727
31
0.0
0
LINE
5
851
100
AcDbEntity
8
0-9扉体
6
CONTINUOUS
62
4
100
AcDbLine
10
1324.686000000000
20
2161.761059486727
30
0.0
11
1324.686000000000
21
2156.261059486727
31
0.0
0
LINE
5
852
100
AcDbEntity
8
0-9扉体
6
CONTINUOUS
62
6
100
AcDbLine
10
1039.686000000000
20
2161.261059486727
30
0.0
11
1039.686000000000
21
2199.261059486727
31
0.0
0
LINE
5
853
100
AcDbEntity
8
0-9扉体
6
CONTINUOUS
62
7
100
AcDbLine
10
1069.186000000000
20
2185.746059486728
30
0.0
11
1059.686000000000
21
2191.231059486728
31
0.0
0
LINE
5
854
100
AcDbEntity
8
0-9扉体
6
CONTINUOUS
62
7
100
AcDbLine
10
1069.186000000000
20
2185.746059486728
30
0.0
11
1069.186000000000
21
2174.777059486728
31
0.0
0
LINE
5
855
100
AcDbEntity
8
0-9扉体
6
CONTINUOUS
62
7
100
AcDbLine
10
1059.686000000000
20
2169.292059486727
30
0.0
11
1069.186000000000
21
2174.777059486728
31
0.0
0
POLYLINE
5
856
100
AcDbEntity
8
0-9扉体
6
CONTINUOUS
62
  7
100
AcDb2dPolyline
66
1
10
0.0
20
0.0
30
0.0
70
0
0
VERTEX
5
857
100
AcDbEntity
8
0-9扉体
6
CONTINUOUS
62
  7
100
AcDbVertex
100
AcDb2dVertex
10
1059.686000000000
20
2169.292059486727
30
0.0
0
VERTEX
5
858
100
AcDbEntity
8
0-9扉体
6
CONTINUOUS
62
  7
100
AcDbVertex
100
AcDb2dVertex
10
1050.186000000000
20
2174.777059486728
30
0.0
0
VERTEX
5
859
100
AcDbEntity
8
0-9扉体
6
CONTINUOUS
62
  7
100
AcDbVertex
100
AcDb2dVertex
10
1050.186000000000
20
2185.746059486728
30
0.0
0
VERTEX
5
85a
100
AcDbEntity
8
0-9扉体
6
CONTINUOUS
62
  7
100
AcDbVertex
100
AcDb2dVertex
10
1059.686000000000
20
2191.231059486728
30
0.0
0
SEQEND
5
85b
100
AcDbEntity
8
0-9扉体
0
LINE
5
85c
100
AcDbEntity
8
0-5基準線
6
CENTER2
62
7
100
AcDbLine
10
1059.686000000000
20
2194.261059486727
30
0.0
11
1059.686000000000
21
2166.261059486727
31
0.0
0
LINE
5
85d
100
AcDbEntity
8
0-5基準線
6
CENTER2
62
7
100
AcDbLine
10
1073.686000000000
20
2180.261059486727
30
0.0
11
1045.686000000000
21
2180.261059486727
31
0.0
0
LINE
5
85e
100
AcDbEntity
8
0-9扉体
6
CONTINUOUS
62
6
100
AcDbLine
10
1077.086000000000
20
2216.261059486727
30
0.0
11
1077.086000000000
21
2184.261059486727
31
0.0
0
LINE
5
85f
100
AcDbEntity
8
0-9扉体
6
CONTINUOUS
62
6
100
AcDbLine
10
1066.186000000000
20
2192.261059486727
30
0.0
11
1077.086000000000
21
2192.261059486727
31
0.0
0
LINE
5
860
100
AcDbEntity
8
0-9扉体
6
CONTINUOUS
62
6
100
AcDbLine
10
1088.686000000000
20
2192.261059486727
30
0.0
11
1090.686000000000
21
2192.261059486727
31
0.0
0
LINE
5
861
100
AcDbEntity
8
0-9扉体
6
CONTINUOUS
62
6
100
AcDbLine
10
1088.686000000000
20
2208.261059486727
30
0.0
11
1090.686000000000
21
2208.261059486727
31
0.0
0
LINE
5
862
100
AcDbEntity
8
0-5基準線
6
CENTER2
62
7
100
AcDbLine
10
1062.686000000000
20
2200.261059486727
30
0.0
11
1156.686000000000
21
2200.261059486727
31
0.0
0
LINE
5
863
100
AcDbEntity
8
0-9扉体
6
CONTINUOUS
62
6
100
AcDbLine
10
1142.286000000000
20
2216.261059486727
30
0.0
11
1142.286000000000
21
2184.261059486727
31
0.0
0
LINE
5
864
100
AcDbEntity
8
0-9扉体
6
CONTINUOUS
62
6
100
AcDbLine
10
1142.286000000000
20
2216.261059486727
30
0.0
11
1139.686000000000
21
2216.261059486727
31
0.0
0
LINE
5
865
100
AcDbEntity
8
0-9扉体
6
CONTINUOUS
62
6
100
AcDbLine
10
1142.286000000000
20
2184.261059486727
30
0.0
11
1139.686000000000
21
2184.261059486727
31
0.0
0
LINE
5
866
100
AcDbEntity
8
0-9扉体
6
CONTINUOUS
62
6
100
AcDbLine
10
1153.186000000000
20
2192.261059486727
30
0.0
11
1142.286000000000
21
2192.261059486727
31
0.0
0
LINE
5
867
100
AcDbEntity
8
0-9扉体
6
CONTINUOUS
62
6
100
AcDbLine
10
1130.686000000000
20
2192.261059486727
30
0.0
11
1128.686000000000
21
2192.261059486727
31
0.0
0
LINE
5
868
100
AcDbEntity
8
0-9扉体
6
CONTINUOUS
62
6
100
AcDbLine
10
1130.686000000000
20
2208.261059486727
30
0.0
11
1128.686000000000
21
2208.261059486727
31
0.0
0
LINE
5
869
100
AcDbEntity
8
0-9扉体
6
CONTINUOUS
62
6
100
AcDbLine
10
1077.086000000000
20
2216.261059486727
30
0.0
11
1079.686000000000
21
2216.261059486727
31
0.0
0
LINE
5
86a
100
AcDbEntity
8
0-9扉体
6
CONTINUOUS
62
6
100
AcDbLine
10
1077.086000000000
20
2184.261059486727
30
0.0
11
1079.686000000000
21
2184.261059486727
31
0.0
0
LINE
5
86b
100
AcDbEntity
8
0-9扉体
6
CONTINUOUS
62
4
100
AcDbLine
10
1004.686000000000
20
2156.261059486727
30
0.0
11
1004.686000000000
21
2204.261059486727
31
0.0
0
LINE
5
86c
100
AcDbEntity
8
0-9扉体
6
CONTINUOUS
62
4
100
AcDbLine
10
999.686000000000
20
2204.261059486727
30
0.0
11
999.686000000000
21
2210.261059486727
31
0.0
0
LINE
5
86d
100
AcDbEntity
8
0-9扉体
6
CONTINUOUS
62
6
100
AcDbLine
10
1066.186000000000
20
2208.261059486727
30
0.0
11
1077.086000000000
21
2208.261059486727
31
0.0
0
LINE
5
86e
100
AcDbEntity
8
0-9扉体
6
CONTINUOUS
62
6
100
AcDbLine
10
1066.186000000000
20
2208.261059486727
30
0.0
11
1066.186000000000
21
2192.261059486727
31
0.0
0
LINE
5
86f
100
AcDbEntity
8
0-9扉体
6
CONTINUOUS
62
6
100
AcDbLine
10
1153.186000000000
20
2208.261059486727
30
0.0
11
1153.186000000000
21
2192.261059486727
31
0.0
0
LINE
5
870
100
AcDbEntity
8
0-9扉体
6
CONTINUOUS
62
7
100
AcDbLine
10
1150.186000000000
20
2185.746059486728
30
0.0
11
1159.686000000000
21
2191.231059486728
31
0.0
0
LINE
5
871
100
AcDbEntity
8
0-9扉体
6
CONTINUOUS
62
7
100
AcDbLine
10
1150.186000000000
20
2185.746059486728
30
0.0
11
1150.186000000000
21
2174.777059486728
31
0.0
0
LINE
5
872
100
AcDbEntity
8
0-9扉体
6
CONTINUOUS
62
7
100
AcDbLine
10
1159.686000000000
20
2169.292059486727
30
0.0
11
1150.186000000000
21
2174.777059486728
31
0.0
0
POLYLINE
5
873
100
AcDbEntity
8
0-9扉体
6
CONTINUOUS
62
  7
100
AcDb2dPolyline
66
1
10
0.0
20
0.0
30
0.0
70
0
0
VERTEX
5
874
100
AcDbEntity
8
0-9扉体
6
CONTINUOUS
62
  7
100
AcDbVertex
100
AcDb2dVertex
10
1159.686000000000
20
2169.292059486727
30
0.0
0
VERTEX
5
875
100
AcDbEntity
8
0-9扉体
6
CONTINUOUS
62
  7
100
AcDbVertex
100
AcDb2dVertex
10
1169.186000000000
20
2174.777059486728
30
0.0
0
VERTEX
5
876
100
AcDbEntity
8
0-9扉体
6
CONTINUOUS
62
  7
100
AcDbVertex
100
AcDb2dVertex
10
1169.186000000000
20
2185.746059486728
30
0.0
0
VERTEX
5
877
100
AcDbEntity
8
0-9扉体
6
CONTINUOUS
62
  7
100
AcDbVertex
100
AcDb2dVertex
10
1159.686000000000
20
2191.231059486728
30
0.0
0
SEQEND
5
878
100
AcDbEntity
8
0-9扉体
0
LINE
5
879
100
AcDbEntity
8
0-5基準線
6
CENTER2
62
7
100
AcDbLine
10
1159.686000000000
20
2194.261059486727
30
0.0
11
1159.686000000000
21
2166.261059486727
31
0.0
0
LINE
5
87a
100
AcDbEntity
8
0-5基準線
6
CENTER2
62
7
100
AcDbLine
10
1145.686000000000
20
2180.261059486727
30
0.0
11
1173.686000000000
21
2180.261059486727
31
0.0
0
LINE
5
87b
100
AcDbEntity
8
0-9扉体
6
CONTINUOUS
62
6
100
AcDbLine
10
1039.686000000000
20
2161.261059486727
30
0.0
11
1179.686000000000
21
2161.261059486727
31
0.0
0
LINE
5
87c
100
AcDbEntity
8
0-9扉体
6
CONTINUOUS
62
6
100
AcDbLine
10
1179.686000000000
20
2199.261059486727
30
0.0
11
1153.186000000000
21
2199.261059486727
31
0.0
0
LINE
5
87d
100
AcDbEntity
8
0-9扉体
6
CONTINUOUS
62
6
100
AcDbLine
10
1179.686000000000
20
2161.261059486727
30
0.0
11
1179.686000000000
21
2199.261059486727
31
0.0
0
LINE
5
87e
100
AcDbEntity
8
0-9扉体
6
CONTINUOUS
62
6
100
AcDbLine
10
1039.686000000000
20
2199.261059486727
30
0.0
11
1066.186000000000
21
2199.261059486727
31
0.0
0
LINE
5
87f
100
AcDbEntity
8
0-9扉体
6
CONTINUOUS
62
3
100
AcDbLine
10
1079.686000000000
20
2180.261059486727
30
0.0
11
1088.686000000000
21
2180.261059486727
31
0.0
0
LINE
5
880
100
AcDbEntity
8
0-9扉体
6
CONTINUOUS
62
6
100
AcDbLine
10
1079.686000000000
20
2161.261059486727
30
0.0
11
1079.686000000000
21
2220.261059486727
31
0.0
0
LINE
5
881
100
AcDbEntity
8
0-9扉体
6
CONTINUOUS
62
3
100
AcDbLine
10
1079.686000000000
20
2220.261059486727
30
0.0
11
1088.686000000000
21
2220.261059486727
31
0.0
0
LINE
5
882
100
AcDbEntity
8
0-9扉体
6
CONTINUOUS
62
6
100
AcDbLine
10
1088.686000000000
20
2161.261059486727
30
0.0
11
1088.686000000000
21
2220.261059486727
31
0.0
0
LINE
5
883
100
AcDbEntity
8
0-9扉体
6
CONTINUOUS
62
3
100
AcDbLine
10
1139.686000000000
20
2180.261059486727
30
0.0
11
1130.686000000000
21
2180.261059486727
31
0.0
0
LINE
5
884
100
AcDbEntity
8
0-9扉体
6
CONTINUOUS
62
6
100
AcDbLine
10
1139.686000000000
20
2161.261059486727
30
0.0
11
1139.686000000000
21
2220.261059486727
31
0.0
0
LINE
5
885
100
AcDbEntity
8
0-9扉体
6
CONTINUOUS
62
3
100
AcDbLine
10
1139.686000000000
20
2220.261059486727
30
0.0
11
1130.686000000000
21
2220.261059486727
31
0.0
0
LINE
5
886
100
AcDbEntity
8
0-9扉体
6
CONTINUOUS
62
6
100
AcDbLine
10
1130.686000000000
20
2161.261059486727
30
0.0
11
1130.686000000000
21
2220.261059486727
31
0.0
0
LINE
5
887
100
AcDbEntity
8
0-9扉体
6
CONTINUOUS
62
4
100
AcDbLine
10
999.686000000000
20
2210.261059486727
30
0.0
11
1051.436000000000
21
2210.261059486727
31
0.0
0
LINE
5
888
100
AcDbEntity
8
0-9扉体
6
CONTINUOUS
62
4
100
AcDbLine
10
999.686000000000
20
2204.261059486727
30
0.0
11
1051.436000000000
21
2204.261059486727
31
0.0
0
LINE
5
889
100
AcDbEntity
8
0-9扉体
6
CONTINUOUS
62
3
100
AcDbLine
10
1371.886000000000
20
2222.077059486728
30
0.0
11
1368.124000000000
21
2225.840059486728
31
0.0
0
LINE
5
88a
100
AcDbEntity
8
0-9扉体
6
CONTINUOUS
62
3
100
AcDbLine
10
1378.265000000000
20
2215.699059486728
30
0.0
11
1374.502000000000
21
2219.462059486727
31
0.0
0
LINE
5
88b
100
AcDbEntity
8
0-9扉体
6
CONTINUOUS
62
3
100
AcDbLine
10
1367.023000000000
20
2219.869059486728
30
0.0
11
1364.096000000000
21
2222.797059486727
31
0.0
0
LINE
5
88c
100
AcDbEntity
8
0-9扉体
6
CONTINUOUS
62
3
100
AcDbLine
10
1375.221000000000
20
2211.671059486728
30
0.0
11
1372.294000000000
21
2214.599059486728
31
0.0
0
LINE
5
88d
100
AcDbEntity
8
0-9扉体
6
CONTINUOUS
62
3
100
AcDbLine
10
1369.560000000000
20
2210.261059486727
30
0.0
11
1362.780000000000
21
2217.042059486727
31
0.0
0
LINE
5
88e
100
AcDbEntity
8
0-9扉体
6
CONTINUOUS
62
3
100
AcDbLine
10
1362.489000000000
20
2210.261059486727
30
0.0
11
1356.489000000000
21
2216.261059486727
31
0.0
0
LINE
5
88f
100
AcDbEntity
8
0-9扉体
6
CONTINUOUS
62
3
100
AcDbLine
10
1355.418000000000
20
2210.261059486727
30
0.0
11
1349.418000000000
21
2216.261059486727
31
0.0
0
LINE
5
890
100
AcDbEntity
8
0-9扉体
6
CONTINUOUS
62
3
100
AcDbLine
10
1334.205000000000
20
2210.261059486727
30
0.0
11
1328.205000000000
21
2216.261059486727
31
0.0
0
LINE
5
891
100
AcDbEntity
8
0-9扉体
6
CONTINUOUS
62
3
100
AcDbLine
10
1370.686000000000
20
2210.261059486727
30
0.0
11
1327.686000000000
21
2210.261059486727
31
0.0
0
LINE
5
892
100
AcDbEntity
8
0-9扉体
6
CONTINUOUS
62
3
100
AcDbLine
10
1348.686000000000
20
2216.261059486727
30
0.0
11
1348.686000000000
21
2210.261059486727
31
0.0
0
LINE
5
893
100
AcDbEntity
8
0-9扉体
6
CONTINUOUS
62
3
100
AcDbLine
10
1340.686000000000
20
2216.261059486727
30
0.0
11
1340.686000000000
21
2210.261059486727
31
0.0
0
LINE
5
894
100
AcDbEntity
8
0-9扉体
6
DOT
62
3
100
AcDbLine
10
1340.686000000000
20
2218.262059486728
30
0.0
11
1336.686000000000
21
2222.262059486728
31
0.0
0
LINE
5
895
100
AcDbEntity
8
0-9扉体
6
DOT
62
3
100
AcDbLine
10
1348.686000000000
20
2218.262059486728
30
0.0
11
1352.686000000000
21
2222.262059486728
31
0.0
0
LINE
5
896
100
AcDbEntity
8
0-9扉体
6
DOT
62
3
100
AcDbLine
10
1340.686000000000
20
2218.262059486728
30
0.0
11
1348.686000000000
21
2218.262059486728
31
0.0
0
LINE
5
897
100
AcDbEntity
8
0-9扉体
6
CONTINUOUS
62
3
100
AcDbLine
10
1360.686000000000
20
2216.261059486727
30
0.0
11
1360.686000000000
21
2222.262059486728
31
0.0
0
LINE
5
898
100
AcDbEntity
8
0-9扉体
6
CONTINUOUS
62
3
100
AcDbLine
10
1328.686000000000
20
2222.262059486728
30
0.0
11
1360.686000000000
21
2222.262059486728
31
0.0
0
LINE
5
899
100
AcDbEntity
8
0-9扉体
6
CONTINUOUS
62
3
100
AcDbLine
10
1328.686000000000
20
2216.261059486727
30
0.0
11
1328.686000000000
21
2222.262059486728
31
0.0
0
LINE
5
89a
100
AcDbEntity
8
0-9扉体
6
DOT
62
3
100
AcDbLine
10
1348.686000000000
20
2204.261059486727
30
0.0
11
1348.686000000000
21
2218.262059486728
31
0.0
0
LINE
5
89b
100
AcDbEntity
8
0-9扉体
6
DOT
62
3
100
AcDbLine
10
1340.686000000000
20
2204.261059486727
30
0.0
11
1340.686000000000
21
2218.262059486728
31
0.0
0
LINE
5
89c
100
AcDbEntity
8
0-9扉体
6
CONTINUOUS
62
3
100
AcDbLine
10
1335.686000000000
20
2202.662059486727
30
0.0
11
1335.686000000000
21
2204.261059486727
31
0.0
0
LINE
5
89d
100
AcDbEntity
8
0-9扉体
6
CONTINUOUS
62
3
100
AcDbLine
10
1353.686000000000
20
2202.662059486727
30
0.0
11
1353.686000000000
21
2204.261059486727
31
0.0
0
LINE
5
89e
100
AcDbEntity
8
0-9扉体
6
CONTINUOUS
62
3
100
AcDbLine
10
1340.686000000000
20
2194.261059486727
30
0.0
11
1348.686000000000
21
2194.261059486727
31
0.0
0
LINE
5
89f
100
AcDbEntity
8
0-9扉体
6
CONTINUOUS
62
3
100
AcDbLine
10
1353.686000000000
20
2202.662059486727
30
0.0
11
1335.686000000000
21
2202.662059486727
31
0.0
0
LINE
5
8a0
100
AcDbEntity
8
0-9扉体
6
CONTINUOUS
62
3
100
AcDbLine
10
1338.186000000000
20
2196.161059486728
30
0.0
11
1337.181000000000
21
2196.743059486727
31
0.0
0
LINE
5
8a1
100
AcDbEntity
8
0-9扉体
6
CONTINUOUS
62
3
100
AcDbLine
10
1351.186000000000
20
2196.161059486728
30
0.0
11
1352.191000000000
21
2196.743059486727
31
0.0
0
LINE
5
8a2
100
AcDbEntity
8
0-9扉体
6
CONTINUOUS
62
3
100
AcDbLine
10
1338.186000000000
20
2196.161059486728
30
0.0
11
1351.186000000000
21
2196.161059486728
31
0.0
0
LINE
5
8a3
100
AcDbEntity
8
0-9扉体
6
CONTINUOUS
62
3
100
AcDbLine
10
1352.191000000000
20
2202.662059486727
30
0.0
11
1352.191000000000
21
2196.743059486727
31
0.0
0
LINE
5
8a4
100
AcDbEntity
8
0-9扉体
6
CONTINUOUS
62
3
100
AcDbLine
10
1337.181000000000
20
2202.662059486727
30
0.0
11
1337.181000000000
21
2196.743059486727
31
0.0
0
LINE
5
8a5
100
AcDbEntity
8
0-9扉体
6
CONTINUOUS
62
3
100
AcDbLine
10
1348.686000000000
20
2196.161059486728
30
0.0
11
1348.686000000000
21
2194.261059486727
31
0.0
0
LINE
5
8a6
100
AcDbEntity
8
0-9扉体
6
CONTINUOUS
62
3
100
AcDbLine
10
1340.686000000000
20
2196.161059486728
30
0.0
11
1340.686000000000
21
2194.261059486727
31
0.0
0
LINE
5
8a7
100
AcDbEntity
8
0-9扉体
6
CONTINUOUS
62
3
100
AcDbLine
10
1340.933000000000
20
2202.662059486727
30
0.0
11
1340.933000000000
21
2196.742059486728
31
0.0
0
LINE
5
8a8
100
AcDbEntity
8
0-9扉体
6
CONTINUOUS
62
3
100
AcDbLine
10
1348.439000000000
20
2202.662059486727
30
0.0
11
1348.439000000000
21
2196.743059486727
31
0.0
0
LINE
5
8a9
100
AcDbEntity
8
0-9扉体
6
CONTINUOUS
62
3
100
AcDbLine
10
1347.686000000000
20
2196.161059486728
30
0.0
11
1347.686000000000
21
2194.261059486727
31
0.0
0
LINE
5
8aa
100
AcDbEntity
8
0-9扉体
6
CONTINUOUS
62
3
100
AcDbLine
10
1341.686000000000
20
2196.161059486728
30
0.0
11
1341.686000000000
21
2194.261059486727
31
0.0
0
LINE
5
8ab
100
AcDbEntity
8
0-9扉体
6
CONTINUOUS
62
3
100
AcDbLine
10
1335.686000000000
20
2204.261059486727
30
0.0
11
1353.686000000000
21
2204.261059486727
31
0.0
0
LINE
5
8ac
100
AcDbEntity
8
0-9扉体
6
CONTINUOUS
62
3
100
AcDbLine
10
1327.686000000000
20
2216.261059486727
30
0.0
11
1327.686000000000
21
2210.261059486727
31
0.0
0
LINE
5
8ad
100
AcDbEntity
8
0-9扉体
6
CONTINUOUS
62
3
100
AcDbLine
10
1362.940000000000
20
2216.261059486727
30
0.0
11
1327.686000000000
21
2216.261059486727
31
0.0
0
LINE
5
8ae
100
AcDbEntity
8
0-9扉体
6
CONTINUOUS
62
3
100
AcDbLine
10
1340.686000000000
20
2210.851059486728
30
0.0
11
1335.276000000000
21
2216.261059486727
31
0.0
0
LINE
5
8af
100
AcDbEntity
8
0-9扉体
6
CONTINUOUS
62
3
100
AcDbLine
10
1041.811000000000
20
2210.261059486727
30
0.0
11
1051.436000000000
21
2219.886059486727
31
0.0
0
LINE
5
8b0
100
AcDbEntity
8
0-9扉体
6
CONTINUOUS
62
3
100
AcDbLine
10
1034.740000000000
20
2210.261059486727
30
0.0
11
1050.740000000000
21
2226.261059486727
31
0.0
0
LINE
5
8b1
100
AcDbEntity
8
0-9扉体
6
CONTINUOUS
62
3
100
AcDbLine
10
1169.090000000000
20
2210.261059486727
30
0.0
11
1185.090000000000
21
2226.261059486727
31
0.0
0
LINE
5
8b2
100
AcDbEntity
8
0-9扉体
6
CONTINUOUS
62
3
100
AcDbLine
10
1167.936000000000
20
2216.178059486728
30
0.0
11
1178.019000000000
21
2226.261059486727
31
0.0
0
LINE
5
8b3
100
AcDbEntity
8
0-9扉体
6
CONTINUOUS
62
4
100
AcDbLine
10
1166.493000000000
20
2210.261059486727
30
0.0
11
1389.686000000000
21
2210.261059486727
31
0.0
0
LINE
5
8b4
100
AcDbEntity
8
0-9扉体
6
CONTINUOUS
62
4
100
AcDbLine
10
1166.493000000000
20
2204.261059486727
30
0.0
11
1389.686000000000
21
2204.261059486727
31
0.0
0
ARC
5
8b5
100
AcDbEntity
8
0-5基準線
6
CENTER2
62
7
100
AcDbCircle
10
1371.186000000000
20
2252.761059486727
30
0.0
40
13.000000000000
100
AcDbArc
50
0.000000000000
51
90.000000000000
0
ARC
5
8b6
100
AcDbEntity
8
0-6戸当り
6
CONTINUOUS
62
3
100
AcDbCircle
10
1371.186000000000
20
2252.761059486727
30
0.0
40
6.500000000000
100
AcDbArc
50
0.000000000000
51
90.000000000000
0
ARC
5
8b7
100
AcDbEntity
8
0-6戸当り
6
CONTINUOUS
62
3
100
AcDbCircle
10
1371.186000000000
20
2252.761059486727
30
0.0
40
19.500000000000
100
AcDbArc
50
0.000000000000
51
90.000000000000
0
ARC
5
8b8
100
AcDbEntity
8
0-6戸当り
6
CONTINUOUS
62
3
100
AcDbCircle
10
1346.186000000000
20
2271.761059486727
30
0.0
40
4.500000000000
100
AcDbArc
50
0.000000000000
51
90.000000000000
0
ARC
5
8b9
100
AcDbEntity
8
0-6戸当り
6
CONTINUOUS
62
3
100
AcDbCircle
10
1390.186000000000
20
2227.761059486727
30
0.0
40
4.500000000000
100
AcDbArc
50
0.000000000000
51
90.000000000000
0
ARC
5
8ba
100
AcDbEntity
8
0-6戸当り
6
CONTINUOUS
62
3
100
AcDbCircle
10
1357.186000000000
20
2238.761059486727
30
0.0
40
6.500000000000
100
AcDbArc
50
180.000000000000
51
270.000000000000
0
ARC
5
8bb
100
AcDbEntity
8
0-5基準線
6
CENTER2
62
7
100
AcDbCircle
10
1018.186000000000
20
2252.761059486727
30
0.0
40
13.000000000000
100
AcDbArc
50
90.000000000000
51
180.000000000000
0
ARC
5
8bc
100
AcDbEntity
8
0-6戸当り
6
DOT
62
3
100
AcDbCircle
10
1018.186000000000
20
2252.761059486727
30
0.0
40
6.500000000000
100
AcDbArc
50
90.000000000000
51
180.000000000000
0
ARC
5
8bd
100
AcDbEntity
8
0-6戸当り
6
DOT
62
3
100
AcDbCircle
10
1018.186000000000
20
2252.761059486727
30
0.0
40
19.500000000000
100
AcDbArc
50
90.000000000000
51
180.000000000000
0
ARC
5
8be
100
AcDbEntity
8
0-6戸当り
6
DOT
62
3
100
AcDbCircle
10
1043.186000000000
20
2271.761059486727
30
0.0
40
4.500000000000
100
AcDbArc
50
90.000000000000
51
180.000000000000
0
ARC
5
8bf
100
AcDbEntity
8
0-6戸当り
6
DOT
62
3
100
AcDbCircle
10
999.186000000000
20
2227.761059486727
30
0.0
40
4.500000000000
100
AcDbArc
50
90.000000000000
51
180.000000000000
0
ARC
5
8c0
100
AcDbEntity
8
0-6戸当り
6
DOT
62
3
100
AcDbCircle
10
1032.186000000000
20
2238.761059486727
30
0.0
40
6.500000000000
100
AcDbArc
50
270.000000000000
51
360.000000000000
0
ARC
5
8c1
100
AcDbEntity
8
0-6戸当り
6
DOT
62
7
100
AcDbCircle
10
1057.436000000000
20
2228.542059486727
30
0.0
40
13.720000000000
100
AcDbArc
50
69.744000000000
51
110.256000000000
0
ARC
5
8c2
100
AcDbEntity
8
0-6戸当り
6
DOT
62
7
100
AcDbCircle
10
1066.936000000000
20
2228.542059486727
30
0.0
40
13.720000000000
100
AcDbArc
50
69.744000000000
51
110.256000000000
0
ARC
5
8c3
100
AcDbEntity
8
0-5基準線
6
CENTER2
62
7
100
AcDbCircle
10
1074.186000000000
20
2284.261059486727
30
0.0
40
12.000000000000
100
AcDbArc
50
90.000000000000
51
180.000000000000
0
ARC
5
8c4
100
AcDbEntity
8
0-6戸当り
6
DOT
62
2
100
AcDbCircle
10
1074.186000000000
20
2284.261059486727
30
0.0
40
6.000000000000
100
AcDbArc
50
90.000000000000
51
180.000000000000
0
ARC
5
8c5
100
AcDbEntity
8
0-6戸当り
6
DOT
62
2
100
AcDbCircle
10
1074.186000000000
20
2284.261059486727
30
0.0
40
18.000000000000
100
AcDbArc
50
90.000000000000
51
180.000000000000
0
ARC
5
8c6
100
AcDbEntity
8
0-6戸当り
6
DOT
62
7
100
AcDbCircle
10
1161.936000000000
20
2228.542059486727
30
0.0
40
13.720000000000
100
AcDbArc
50
69.744000000000
51
110.256000000000
0
ARC
5
8c7
100
AcDbEntity
8
0-6戸当り
6
DOT
62
7
100
AcDbCircle
10
1152.436000000000
20
2228.542059486727
30
0.0
40
13.720000000000
100
AcDbArc
50
69.744000000000
51
110.256000000000
0
ARC
5
8c8
100
AcDbEntity
8
0-5基準線
6
CENTER2
62
7
100
AcDbCircle
10
1145.186000000000
20
2284.261059486727
30
0.0
40
12.000000000000
100
AcDbArc
50
0.000000000000
51
90.000000000000
0
ARC
5
8c9
100
AcDbEntity
8
0-6戸当り
6
DOT
62
2
100
AcDbCircle
10
1145.186000000000
20
2284.261059486727
30
0.0
40
6.000000000000
100
AcDbArc
50
0.000000000000
51
90.000000000000
0
ARC
5
8ca
100
AcDbEntity
8
0-6戸当り
6
DOT
62
2
100
AcDbCircle
10
1145.186000000000
20
2284.261059486727
30
0.0
40
18.000000000000
100
AcDbArc
50
0.000000000000
51
90.000000000000
0
ARC
5
8cb
100
AcDbEntity
8
0-6戸当り
6
CONTINUOUS
62
7
100
AcDbCircle
10
1066.936000000000
20
2226.981059486728
30
0.0
40
13.720000000000
100
AcDbArc
50
249.744000000000
51
290.256000000000
0
ARC
5
8cc
100
AcDbEntity
8
0-6戸当り
6
CONTINUOUS
62
7
100
AcDbCircle
10
1057.436000000000
20
2226.981059486728
30
0.0
40
13.720000000000
100
AcDbArc
50
249.744000000000
51
290.256000000000
0
ARC
5
8cd
100
AcDbEntity
8
0-6戸当り
6
CONTINUOUS
62
7
100
AcDbCircle
10
1152.436000000000
20
2226.981059486728
30
0.0
40
13.720000000000
100
AcDbArc
50
249.744000000000
51
290.256000000000
0
ARC
5
8ce
100
AcDbEntity
8
0-6戸当り
6
CONTINUOUS
62
7
100
AcDbCircle
10
1161.936000000000
20
2226.981059486728
30
0.0
40
13.720000000000
100
AcDbArc
50
249.744000000000
51
290.256000000000
0
ARC
5
8cf
100
AcDbEntity
8
0-9扉体
6
CONTINUOUS
62
4
100
AcDbCircle
10
1372.686000000000
20
2168.261059486727
30
0.0
40
6.000000000000
100
AcDbArc
50
270.000000000000
51
360.000000000000
0
ARC
5
8d0
100
AcDbEntity
8
0-9扉体
6
CONTINUOUS
62
4
100
AcDbCircle
10
1325.186000000000
20
2161.761059486727
30
0.0
40
0.500000000000
100
AcDbArc
50
90.000000000000
51
180.000000000000
0
CIRCLE
5
8d1
100
AcDbEntity
8
0-9扉体
6
CONTINUOUS
62
7
100
AcDbCircle
10
1059.686000000000
20
2180.261059486727
30
0.0
40
9.500000000000
0
CIRCLE
5
8d2
100
AcDbEntity
8
0-9扉体
6
CONTINUOUS
62
6
100
AcDbCircle
10
1059.686000000000
20
2180.261059486727
30
0.0
40
6.000000000000
0
CIRCLE
5
8d3
100
AcDbEntity
8
0-9扉体
6
CONTINUOUS
62
6
100
AcDbCircle
10
1059.686000000000
20
2180.261059486727
30
0.0
40
5.000000000000
0
CIRCLE
5
8d4
100
AcDbEntity
8
0-9扉体
6
CONTINUOUS
62
2
100
AcDbCircle
10
1059.686000000000
20
2180.261059486727
30
0.0
40
13.000000000000
0
CIRCLE
5
8d5
100
AcDbEntity
8
0-9扉体
6
CONTINUOUS
62
7
100
AcDbCircle
10
1159.686000000000
20
2180.261059486727
30
0.0
40
9.500000000000
0
CIRCLE
5
8d6
100
AcDbEntity
8
0-9扉体
6
CONTINUOUS
62
6
100
AcDbCircle
10
1159.686000000000
20
2180.261059486727
30
0.0
40
6.000000000000
0
CIRCLE
5
8d7
100
AcDbEntity
8
0-9扉体
6
CONTINUOUS
62
6
100
AcDbCircle
10
1159.686000000000
20
2180.261059486727
30
0.0
40
5.000000000000
0
CIRCLE
5
8d8
100
AcDbEntity
8
0-9扉体
6
CONTINUOUS
62
2
100
AcDbCircle
10
1159.686000000000
20
2180.261059486727
30
0.0
40
13.000000000000
0
CIRCLE
5
8d9
100
AcDbEntity
8
0-9扉体
6
CONTINUOUS
62
3
100
AcDbCircle
10
1370.686000000000
20
2218.261059486727
30
0.0
40
4.000000000000
0
ARC
5
8da
100
AcDbEntity
8
0-9扉体
6
CONTINUOUS
62
3
100
AcDbCircle
10
1370.686000000000
20
2218.261059486727
30
0.0
40
8.000000000000
100
AcDbArc
50
270.000000000000
51
554.478000000000
0
ARC
5
8db
100
AcDbEntity
8
0-9扉体
6
CONTINUOUS
62
3
100
AcDbCircle
10
1344.686000000000
20
2208.580059486728
30
0.0
40
12.419000000000
100
AcDbArc
50
252.412000000000
51
287.588000000000
0
ARC
5
8dc
100
AcDbEntity
8
0-9扉体
6
CONTINUOUS
62
3
100
AcDbCircle
10
1339.057000000000
20
2199.484059486727
30
0.0
40
3.323000000000
100
AcDbArc
50
244.386000000000
51
304.385000000000
0
ARC
5
8dd
100
AcDbEntity
8
0-9扉体
6
CONTINUOUS
62
3
100
AcDbCircle
10
1350.315000000000
20
2199.484059486727
30
0.0
40
3.323000000000
100
AcDbArc
50
235.615000000000
51
295.614000000000
0
ARC
5
8de
100
AcDbEntity
8
0-9扉体
6
CONTINUOUS
62
3
100
AcDbCircle
10
1018.686000000000
20
2218.261059486727
30
0.0
40
8.000000000000
100
AcDbArc
50
91.467000000000
51
270.000000000000
0
POLYLINE
5
8df
100
AcDbEntity
  8
0-8寸法
6
CONTINUOUS
62
2
100
AcDb2dPolyline
66
1
10
0
20
0
70
1
40
4.000
41
4.000
0
VERTEX
5
8e0
100
AcDbEntity
  8
0-8寸法
6
CONTINUOUS
62
2
100
AcDbVertex
100
AcDb2dVertex
10
1369.057
20
2214.780
30
0.0
42
1.000
0
VERTEX
5
8e1
100
AcDbEntity
  8
0-8寸法
6
CONTINUOUS
62
2
100
AcDbVertex
100
AcDb2dVertex
10
1373.057
20
2214.780
30
0.0
42
1.000
0
SEQEND
5
8e2
100
AcDbEntity
  8
0-8寸法
0
MTEXT
5
8e3
100
AcDbEntity
8
0-8寸法
62
7
370
-3
100
AcDbMText
10
1496.916
20
2057.109
30
0.0
40
31.790
41
0.000
71
7
72
1
1
\W1.093;水密ゴム{\W0.787; }Ｐ型{\W0.787; }φ{\W0.787;16x51x7(CRｺﾞﾑ)}
7
STANDARD
11
1.00000
21
0.00000
31
0.0
0
LINE
5
8e4
100
AcDbEntity
8
0-5基準線
6
CENTER2
62
7
100
AcDbLine
10
1419.686000000000
20
2294.916059486728
30
0.0
11
1419.686000000000
21
2407.720059486728
31
0.0
0
LINE
5
8e5
100
AcDbEntity
8
0-8寸法
6
CONTINUOUS
62
4
100
AcDbLine
10
1744.686000000000
20
2226.261059486727
30
0.0
11
1744.686000000000
21
2351.261059486727
31
0.0
0
LINE
5
8e6
100
AcDbEntity
8
0-8寸法
6
CONTINUOUS
62
4
100
AcDbLine
10
1608.106000000000
20
2226.261059486727
30
0.0
11
1754.686000000000
21
2226.261059486727
31
0.0
0
LINE
5
8e7
100
AcDbEntity
8
0-8寸法
6
CONTINUOUS
62
4
100
AcDbLine
10
1744.686000000000
20
2226.261059486727
30
0.0
11
1739.510000000000
21
2245.580059486728
31
0.0
0
LINE
5
8e8
100
AcDbEntity
8
0-8寸法
6
CONTINUOUS
62
4
100
AcDbLine
10
1744.686000000000
20
2226.261059486727
30
0.0
11
1749.863000000000
21
2245.580059486728
31
0.0
0
LINE
5
8e9
100
AcDbEntity
8
0-8寸法
6
CONTINUOUS
62
4
100
AcDbLine
10
1744.686000000000
20
2351.261059486727
30
0.0
11
1739.510000000000
21
2331.943059486728
31
0.0
0
LINE
5
8ea
100
AcDbEntity
8
0-8寸法
6
CONTINUOUS
62
4
100
AcDbLine
10
1744.686000000000
20
2351.261059486727
30
0.0
11
1749.863000000000
21
2331.943059486728
31
0.0
0
LINE
5
8eb
100
AcDbEntity
8
0-8寸法
6
CONTINUOUS
62
4
100
AcDbLine
10
1505.439000000000
20
2351.261059486727
30
0.0
11
1754.686000000000
21
2351.261059486727
31
0.0
0
TEXT
5
8ec
100
AcDbEntity
8
0-8寸法
62
7
370
-3
100
AcDbText
10
1730.639
20
2257.915
30
0.0
40
33.660
1
125
41
0.633
50
90.000
100
AcDbText
0
LINE
5
8ed
100
AcDbEntity
8
0-5基準線
6
CENTER2
62
7
100
AcDbLine
10
1294.686000000000
20
2294.916059486728
30
0.0
11
1294.686000000000
21
2407.720059486728
31
0.0
0
LINE
5
8ee
100
AcDbEntity
8
0-5基準線
6
CENTER2
62
7
100
AcDbLine
10
1094.686000000000
20
2294.916059486728
30
0.0
11
1094.686000000000
21
2407.720059486728
31
0.0
0
LINE
5
8ef
100
AcDbEntity
8
0-5基準線
6
CENTER2
62
7
100
AcDbLine
10
969.686000000000
20
2294.916059486728
30
0.0
11
969.686000000000
21
2407.720059486728
31
0.0
0
LINE
5
8f0
100
AcDbEntity
8
0-3RC
6
DOT
62
7
100
AcDbLine
10
1101.186000000000
20
2351.261059486727
30
0.0
11
1194.686000000000
21
2351.261059486727
31
0.0
0
LINE
5
8f1
100
AcDbEntity
8
0-3RC
6
DOT
62
7
100
AcDbLine
10
894.686000000000
20
2351.261059486727
30
0.0
11
963.186000000000
21
2351.261059486727
31
0.0
0
LINE
5
8f2
100
AcDbEntity
8
0-3RC
6
DOT
62
7
100
AcDbLine
10
976.186000000000
20
2351.261059486727
30
0.0
11
1088.186000000000
21
2351.261059486727
31
0.0
0
MTEXT
5
8f3
100
AcDbEntity
8
0-8寸法
62
7
370
-3
100
AcDbMText
10
1496.970
20
1957.110
30
0.0
40
31.790
41
0.000
71
7
72
1
1
\W1.093;ゴム押え{\W0.787; PL-6t(SUS304)}　
7
STANDARD
11
1.00000
21
0.00000
31
0.0
0
MTEXT
5
8f4
100
AcDbEntity
8
0-8寸法
62
7
370
-3
100
AcDbMText
10
1496.934
20
1857.109
30
0.0
40
31.790
41
0.000
71
7
72
1
1
\W1.093;皿{\W0.787;BT&NT  M8(SUS304}相当{\W0.787;)}
7
STANDARD
11
1.00000
21
0.00000
31
0.0
0
LINE
5
8f5
100
AcDbEntity
8
0-3RC
6
CONTINUOUS
62
7
100
AcDbLine
10
1426.186000000000
20
2301.261059486727
30
0.0
11
1413.186000000000
21
2301.261059486727
31
0.0
0
LINE
5
8f6
100
AcDbEntity
8
0-3RC
6
PHANTOM2
62
7
100
AcDbLine
10
1434.686000000000
20
2401.261059486727
30
0.0
11
1404.686000000000
21
2401.261059486727
31
0.0
0
LINE
5
8f7
100
AcDbEntity
8
0-3RC
6
CONTINUOUS
62
7
100
AcDbLine
10
1426.186000000000
20
2301.261059486727
30
0.0
11
1426.186000000000
21
2401.261059486727
31
0.0
0
LINE
5
8f8
100
AcDbEntity
8
0-3RC
6
CONTINUOUS
62
7
100
AcDbLine
10
1413.186000000000
20
2301.261059486727
30
0.0
11
1413.186000000000
21
2401.261059486727
31
0.0
0
LINE
5
8f9
100
AcDbEntity
8
0-3RC
6
CONTINUOUS
62
7
100
AcDbLine
10
1301.186000000000
20
2301.261059486727
30
0.0
11
1288.186000000000
21
2301.261059486727
31
0.0
0
LINE
5
8fa
100
AcDbEntity
8
0-3RC
6
PHANTOM2
62
7
100
AcDbLine
10
1309.686000000000
20
2401.261059486727
30
0.0
11
1279.686000000000
21
2401.261059486727
31
0.0
0
LINE
5
8fb
100
AcDbEntity
8
0-3RC
6
CONTINUOUS
62
7
100
AcDbLine
10
1301.186000000000
20
2301.261059486727
30
0.0
11
1301.186000000000
21
2401.261059486727
31
0.0
0
LINE
5
8fc
100
AcDbEntity
8
0-3RC
6
CONTINUOUS
62
7
100
AcDbLine
10
1288.186000000000
20
2301.261059486727
30
0.0
11
1288.186000000000
21
2401.261059486727
31
0.0
0
LINE
5
8fd
100
AcDbEntity
8
0-3RC
6
DOT
62
7
100
AcDbLine
10
1109.686000000000
20
2401.261059486727
30
0.0
11
1079.686000000000
21
2401.261059486727
31
0.0
0
LINE
5
8fe
100
AcDbEntity
8
0-3RC
6
DOT
62
7
100
AcDbLine
10
976.186000000000
20
2301.261059486727
30
0.0
11
963.186000000000
21
2301.261059486727
31
0.0
0
LINE
5
8ff
100
AcDbEntity
8
0-3RC
6
DOT
62
7
100
AcDbLine
10
984.686000000000
20
2401.261059486727
30
0.0
11
954.686000000000
21
2401.261059486727
31
0.0
0
LINE
5
900
100
AcDbEntity
8
0-3RC
6
DOT
62
7
100
AcDbLine
10
976.186000000000
20
2301.261059486727
30
0.0
11
976.186000000000
21
2401.261059486727
31
0.0
0
LINE
5
901
100
AcDbEntity
8
0-3RC
6
DOT
62
7
100
AcDbLine
10
963.186000000000
20
2301.261059486727
30
0.0
11
963.186000000000
21
2401.261059486727
31
0.0
0
LINE
5
902
100
AcDbEntity
8
0-3RC
6
DOT
62
7
100
AcDbLine
10
1088.186000000000
20
2302.261059486727
30
0.0
11
1088.186000000000
21
2401.261059486727
31
0.0
0
LINE
5
903
100
AcDbEntity
8
0-3RC
6
DOT
62
7
100
AcDbLine
10
1101.186000000000
20
2302.261059486727
30
0.0
11
1101.186000000000
21
2401.261059486727
31
0.0
0
LINE
5
904
100
AcDbEntity
8
0-3RC
6
DOT
62
7
100
AcDbLine
10
1088.186000000000
20
2302.261059486727
30
0.0
11
1101.186000000000
21
2302.261059486727
31
0.0
0
LINE
5
905
100
AcDbEntity
8
0-9扉体
6
CONTINUOUS
62
3
100
AcDbLine
10
2349.618000000000
20
1289.166000000000
30
0.0
11
2329.618000000000
21
1289.166000000000
31
0.0
0
LINE
5
906
100
AcDbEntity
8
0-9扉体
6
CONTINUOUS
62
3
100
AcDbLine
10
2364.618000000000
20
1274.166000000000
30
0.0
11
2364.618000000000
21
1242.666000000000
31
0.0
0
ARC
5
907
100
AcDbEntity
8
0-9扉体
6
CONTINUOUS
62
3
100
AcDbCircle
10
2349.618000000000
20
1274.166000000000
30
0.0
40
15.000000000000
100
AcDbArc
50
0.000000000000
51
90.000000000000
0
LINE
5
908
100
AcDbEntity
8
0-A文字
6
CONTINUOUS
62
4
100
AcDbLine
10
3055.001000000000
20
970.000000000000
30
0.0
11
3984.053000000000
21
970.000000000000
31
0.0
0
LINE
5
909
100
AcDbEntity
8
0-A文字
6
CONTINUOUS
62
4
100
AcDbLine
10
3055.001000000000
20
910.000000000000
30
0.0
11
3984.053000000000
21
910.000000000000
31
0.0
0
LINE
5
90a
100
AcDbEntity
8
0-A文字
6
CONTINUOUS
62
4
100
AcDbLine
10
3055.001000000000
20
850.000000000000
30
0.0
11
3984.053000000000
21
850.000000000000
31
0.0
0
LINE
5
90b
100
AcDbEntity
8
0-A文字
6
CONTINUOUS
62
4
100
AcDbLine
10
3055.001000000000
20
790.000000000000
30
0.0
11
3984.053000000000
21
790.000000000000
31
0.0
0
LINE
5
90c
100
AcDbEntity
8
0-A文字
6
CONTINUOUS
62
4
100
AcDbLine
10
3055.001000000000
20
730.000000000000
30
0.0
11
3984.053000000000
21
730.000000000000
31
0.0
0
TEXT
5
90d
100
AcDbEntity
8
0-A文字
62
7
370
-3
100
AcDbText
10
3071.802
20
979.253
30
0.0
40
29.405
1
注記　１．塗装　ＡＬ部は下地処理後、ポリウレタン樹脂
41
0.856
50
0.000
100
AcDbText
0
LINE
5
90e
100
AcDbEntity
8
0-A文字
6
CONTINUOUS
62
4
100
AcDbLine
10
3055.001000000000
20
670.000000000000
30
0.0
11
3984.053000000000
21
670.000000000000
31
0.0
0
TEXT
5
90f
100
AcDbEntity
8
0-A文字
62
7
370
-3
100
AcDbText
10
3071.802
20
803.365
30
0.0
40
29.405
1
　　　　　但し、ＳＵＳ３０４部は酸洗いと致します。
41
0.856
50
0.000
100
AcDbText
0
TEXT
5
910
100
AcDbEntity
8
0-A文字
62
7
370
-3
100
AcDbText
10
3071.802
20
683.365
30
0.0
40
29.405
1
　　　　　埋め戻しを示します。
41
0.856
50
0.000
100
AcDbText
0
TEXT
5
911
100
AcDbEntity
8
0-A文字
62
7
370
-3
100
AcDbText
10
3071.802
20
743.365
30
0.0
40
29.405
1
　　　２．　　　　部は箱抜き後、２次コンクリ－ト
41
0.856
50
0.000
100
AcDbText
0
TEXT
5
912
100
AcDbEntity
8
0-A文字
62
7
370
-3
100
AcDbText
10
3071.802
20
863.365
30
0.0
40
29.405
1
　　　　　と致します。
41
0.856
50
0.000
100
AcDbText
0
POLYLINE
5
913
100
AcDbEntity
8
0-A文字
6
CONTINUOUS
62
  4
100
AcDb2dPolyline
66
1
10
0.0
20
0.0
30
0.0
70
0
0
VERTEX
5
914
100
AcDbEntity
8
0-A文字
6
CONTINUOUS
62
  4
100
AcDbVertex
100
AcDb2dVertex
10
3255.554482821849
20
739.988659782539
30
0.0
0
VERTEX
5
915
100
AcDbEntity
8
0-A文字
6
CONTINUOUS
62
  4
100
AcDbVertex
100
AcDb2dVertex
10
3255.554482821849
20
769.988659782539
30
0.0
0
VERTEX
5
916
100
AcDbEntity
8
0-A文字
6
CONTINUOUS
62
  4
100
AcDbVertex
100
AcDb2dVertex
10
3375.553482821849
20
769.988659782539
30
0.0
0
VERTEX
5
917
100
AcDbEntity
8
0-A文字
6
CONTINUOUS
62
  4
100
AcDbVertex
100
AcDb2dVertex
10
3375.553482821849
20
739.988659782539
30
0.0
0
VERTEX
5
918
100
AcDbEntity
8
0-A文字
6
CONTINUOUS
62
  4
100
AcDbVertex
100
AcDb2dVertex
10
3255.554482821849
20
739.988659782539
30
0.0
0
SEQEND
5
919
100
AcDbEntity
8
0-A文字
0
LINE
5
91a
100
AcDbEntity
8
0-A文字
6
CONTINUOUS
62
4
100
AcDbLine
10
3366.321482821849
20
739.988659782539
30
0.0
11
3375.553482821849
21
749.220659782539
31
0.0
0
LINE
5
91b
100
AcDbEntity
8
0-A文字
6
CONTINUOUS
62
4
100
AcDbLine
10
3345.107482821849
20
739.988659782539
30
0.0
11
3375.108482821849
21
769.988659782539
31
0.0
0
LINE
5
91c
100
AcDbEntity
8
0-A文字
6
CONTINUOUS
62
4
100
AcDbLine
10
3323.894482821849
20
739.988659782539
30
0.0
11
3353.894482821849
21
769.988659782539
31
0.0
0
LINE
5
91d
100
AcDbEntity
8
0-A文字
6
CONTINUOUS
62
4
100
AcDbLine
10
3302.681482821849
20
739.988659782539
30
0.0
11
3332.681482821849
21
769.988659782539
31
0.0
0
LINE
5
91e
100
AcDbEntity
8
0-A文字
6
CONTINUOUS
62
4
100
AcDbLine
10
3281.468482821849
20
739.988659782539
30
0.0
11
3311.468482821849
21
769.988659782539
31
0.0
0
LINE
5
91f
100
AcDbEntity
8
0-A文字
6
CONTINUOUS
62
4
100
AcDbLine
10
3260.254482821849
20
739.988659782539
30
0.0
11
3290.255482821849
21
769.988659782539
31
0.0
0
LINE
5
920
100
AcDbEntity
8
0-A文字
6
CONTINUOUS
62
4
100
AcDbLine
10
3255.554482821849
20
756.500659782539
30
0.0
11
3269.041482821849
21
769.988659782539
31
0.0
0
LINE
5
921
100
AcDbEntity
8
F-F_J_ADD
6
HIDDEN
62
109
100
AcDbLine
10
3762.501500000000
20
530.000000000000
30
0.0
11
3762.501500000000
21
340.000000000000
31
0.0
0
LINE
5
922
100
AcDbEntity
8
F-F_J_ADD
6
HIDDEN
62
109
100
AcDbLine
10
3475.002000000000
20
502.857142857143
30
0.0
11
4050.001000000000
21
502.857142857143
31
0.0
0
LINE
5
923
100
AcDbEntity
8
F-F_J_ADD
6
HIDDEN
62
109
100
AcDbLine
10
3475.002000000000
20
475.714285714286
30
0.0
11
4050.001000000000
21
475.714285714286
31
0.0
0
LINE
5
924
100
AcDbEntity
8
F-F_J_ADD
6
HIDDEN
62
109
100
AcDbLine
10
3475.002000000000
20
448.571428571429
30
0.0
11
4050.001000000000
21
448.571428571429
31
0.0
0
LINE
5
925
100
AcDbEntity
8
F-F_J_ADD
6
HIDDEN
62
109
100
AcDbLine
10
3475.002000000000
20
421.428571428572
30
0.0
11
4050.001000000000
21
421.428571428572
31
0.0
0
LINE
5
926
100
AcDbEntity
8
F-F_J_ADD
6
HIDDEN
62
109
100
AcDbLine
10
3475.002000000000
20
394.285714285715
30
0.0
11
4050.001000000000
21
394.285714285715
31
0.0
0
LINE
5
927
100
AcDbEntity
8
F-F_J_ADD
6
HIDDEN
62
109
100
AcDbLine
10
3475.002000000000
20
367.142857142858
30
0.0
11
4050.001000000000
21
367.142857142858
31
0.0
0
MTEXT
5
928
100
AcDbEntity
8
0-7図枠
62
7
370
-3
100
AcDbMText
10
3765.352
20
399.186
30
0.0
40
31.790
41
0.000
71
5
72
1
1
\W1.093;{\W0.787;ｱﾙﾐ}合金製{\W0.787;ﾌﾗｯﾌﾟｹﾞ-ﾄ}
7
STANDARD
11
1.00000
21
0.00000
31
0.0
0
LINE
5
929
100
AcDbEntity
8
0-7図枠
6
CONTINUOUS
62
3
100
AcDbLine
10
3562.501500000000
20
480.000000000000
30
0.0
11
3962.501500000000
21
480.000000000000
31
0.0
0
MTEXT
5
92a
100
AcDbEntity
8
0-7図枠
62
7
370
-3
100
AcDbMText
10
3596.602
20
485.257
30
0.0
40
31.790
41
0.000
71
7
72
1
1
\W1.093;型式　{\W0.787;MFR-A0303}
7
STANDARD
11
1.00000
21
0.00000
31
0.0
0
TEXT
5
92b
100
AcDbEntity
8
0-7図枠
62
7
370
-3
100
AcDbText
10
3596.602
20
434.711
30
0.0
40
33.660
1
300 Bo x 300 Ho
41
0.688
50
0.000
100
AcDbText
0
LINE
5
92c
100
AcDbEntity
8
0-8寸法
6
CONTINUOUS
62
4
100
AcDbLine
10
1044.686000000000
20
2556.262059486728
30
0.0
11
1344.686000000000
21
2556.262059486728
31
0.0
0
LINE
5
92d
100
AcDbEntity
8
0-8寸法
6
CONTINUOUS
62
4
100
AcDbLine
10
1044.686000000000
20
2436.374059486728
30
0.0
11
1044.686000000000
21
2566.262059486728
31
0.0
0
LINE
5
92e
100
AcDbEntity
8
0-8寸法
6
CONTINUOUS
62
4
100
AcDbLine
10
1344.686000000000
20
2436.374059486728
30
0.0
11
1344.686000000000
21
2566.262059486728
31
0.0
0
LINE
5
92f
100
AcDbEntity
8
0-8寸法
6
CONTINUOUS
62
4
100
AcDbLine
10
1044.686000000000
20
2556.262059486728
30
0.0
11
1064.005000000000
21
2561.438059486728
31
0.0
0
LINE
5
930
100
AcDbEntity
8
0-8寸法
6
CONTINUOUS
62
4
100
AcDbLine
10
1044.686000000000
20
2556.262059486728
30
0.0
11
1064.005000000000
21
2551.085059486728
31
0.0
0
LINE
5
931
100
AcDbEntity
8
0-8寸法
6
CONTINUOUS
62
4
100
AcDbLine
10
1344.686000000000
20
2556.262059486728
30
0.0
11
1325.368000000000
21
2561.438059486728
31
0.0
0
LINE
5
932
100
AcDbEntity
8
0-8寸法
6
CONTINUOUS
62
4
100
AcDbLine
10
1344.686000000000
20
2556.262059486728
30
0.0
11
1325.368000000000
21
2551.085059486728
31
0.0
0
LINE
5
933
100
AcDbEntity
8
0-8寸法
6
CONTINUOUS
62
4
100
AcDbLine
10
1344.686000000000
20
2556.262059486728
30
0.0
11
1494.686000000000
21
2556.262059486728
31
0.0
0
LINE
5
934
100
AcDbEntity
8
0-8寸法
6
CONTINUOUS
62
4
100
AcDbLine
10
1344.686000000000
20
2556.262059486728
30
0.0
11
1364.005000000000
21
2561.438059486728
31
0.0
0
LINE
5
935
100
AcDbEntity
8
0-8寸法
6
CONTINUOUS
62
4
100
AcDbLine
10
1344.686000000000
20
2556.262059486728
30
0.0
11
1364.005000000000
21
2551.085059486728
31
0.0
0
LINE
5
936
100
AcDbEntity
8
0-8寸法
6
CONTINUOUS
62
4
100
AcDbLine
10
1494.686000000000
20
2556.262059486728
30
0.0
11
1475.368000000000
21
2561.438059486728
31
0.0
0
LINE
5
937
100
AcDbEntity
8
0-8寸法
6
CONTINUOUS
62
4
100
AcDbLine
10
1494.686000000000
20
2556.262059486728
30
0.0
11
1475.368000000000
21
2551.085059486728
31
0.0
0
LINE
5
938
100
AcDbEntity
8
0-8寸法
6
CONTINUOUS
62
4
100
AcDbLine
10
1494.686000000000
20
2360.755059486728
30
0.0
11
1494.686000000000
21
2566.262059486728
31
0.0
0
TEXT
5
939
100
AcDbEntity
8
0-8寸法
62
7
370
-3
100
AcDbText
10
1388.840
20
2570.309
30
0.0
40
33.660
1
150
41
0.710
50
0.000
100
AcDbText
0
MTEXT
5
93a
100
AcDbEntity
8
0-8寸法
62
7
370
-3
100
AcDbMText
10
1085.216
20
2566.569
30
0.0
40
31.790
41
0.000
71
7
72
1
1
\W1.093;有効幅{\W0.787; 300}
7
STANDARD
11
1.00000
21
0.00000
31
0.0
0
LINE
5
93b
100
AcDbEntity
8
0-1_J_POINT
6
CONTINUOUS
62
4
100
AcDbLine
10
1494.686000000000
20
2415.558312867093
30
0.0
11
1494.686000000000
21
2361.261059486727
31
0.0
0
LINE
5
93c
100
AcDbEntity
8
0-8寸法
6
CONTINUOUS
62
4
100
AcDbLine
10
1344.686000000000
20
2490.558312867093
30
0.0
11
1344.686000000000
21
2286.261059486727
31
0.0
0
LINE
5
93d
100
AcDbEntity
8
0-8寸法
6
CONTINUOUS
62
4
100
AcDbLine
10
1044.686000000000
20
2556.262059486728
30
0.0
11
894.686000000000
21
2556.262059486728
31
0.0
0
LINE
5
93e
100
AcDbEntity
8
0-8寸法
6
CONTINUOUS
62
4
100
AcDbLine
10
1044.686000000000
20
2556.262059486728
30
0.0
11
1025.367483474219
21
2551.085678584677
31
0.0
0
LINE
5
93f
100
AcDbEntity
8
0-8寸法
6
CONTINUOUS
62
4
100
AcDbLine
10
1044.686000000000
20
2556.262059486728
30
0.0
11
1025.367483474219
21
2561.438440388778
31
0.0
0
LINE
5
940
100
AcDbEntity
8
0-8寸法
6
CONTINUOUS
62
4
100
AcDbLine
10
894.686000000000
20
2556.262059486728
30
0.0
11
914.004516525781
21
2551.085678584677
31
0.0
0
LINE
5
941
100
AcDbEntity
8
0-8寸法
6
CONTINUOUS
62
4
100
AcDbLine
10
894.686000000000
20
2556.262059486728
30
0.0
11
914.004516525781
21
2561.438440388778
31
0.0
0
LINE
5
942
100
AcDbEntity
8
0-8寸法
6
CONTINUOUS
62
4
100
AcDbLine
10
1044.686000000000
20
2566.262059486728
30
0.0
11
1044.686000000000
21
2436.261059486727
31
0.0
0
LINE
5
943
100
AcDbEntity
8
0-8寸法
6
CONTINUOUS
62
4
100
AcDbLine
10
894.686000000000
20
2566.262059486728
30
0.0
11
894.686000000000
21
2361.261059486727
31
0.0
0
TEXT
5
944
100
AcDbEntity
8
0-8寸法
62
7
370
-3
100
AcDbText
10
938.786
20
2569.850
30
0.0
40
33.660
41
0.710
50
0.000
1
150
72
1
11
972.536
21
2566.110
31
0.0
100
AcDbText
73
1
0
LINE
5
945
100
AcDbEntity
8
0-8寸法
6
CONTINUOUS
62
4
100
AcDbLine
10
1419.686000000000
20
2486.262059486728
30
0.0
11
1344.686000000000
21
2486.262059486728
31
0.0
0
LINE
5
946
100
AcDbEntity
8
0-8寸法
6
CONTINUOUS
62
4
100
AcDbLine
10
1419.686000000000
20
2486.262059486728
30
0.0
11
1400.367483474219
21
2481.085678584677
31
0.0
0
LINE
5
947
100
AcDbEntity
8
0-8寸法
6
CONTINUOUS
62
4
100
AcDbLine
10
1419.686000000000
20
2486.262059486728
30
0.0
11
1400.367483474219
21
2491.438440388778
31
0.0
0
LINE
5
948
100
AcDbEntity
8
0-8寸法
6
CONTINUOUS
62
4
100
AcDbLine
10
1344.686000000000
20
2486.262059486728
30
0.0
11
1364.004516525781
21
2481.085678584677
31
0.0
0
LINE
5
949
100
AcDbEntity
8
0-8寸法
6
CONTINUOUS
62
4
100
AcDbLine
10
1344.686000000000
20
2486.262059486728
30
0.0
11
1364.004516525781
21
2491.438440388778
31
0.0
0
LINE
5
94a
100
AcDbEntity
8
0-8寸法
6
CONTINUOUS
62
4
100
AcDbLine
10
1419.686000000000
20
2496.262059486728
30
0.0
11
1419.686000000000
21
2411.261059486727
31
0.0
0
LINE
5
94b
100
AcDbEntity
8
0-8寸法
6
CONTINUOUS
62
4
100
AcDbLine
10
1344.686000000000
20
2496.262059486728
30
0.0
11
1344.686000000000
21
2361.261059486727
31
0.0
0
TEXT
5
94c
100
AcDbEntity
8
0-8寸法
62
7
370
-3
100
AcDbText
10
1362.536
20
2502.402
30
0.0
40
33.660
41
0.586
50
0.000
1
75
72
1
11
1385.036
21
2498.662
31
0.0
100
AcDbText
73
1
0
LINE
5
94d
100
AcDbEntity
8
0-8寸法
6
CONTINUOUS
62
4
100
AcDbLine
10
1344.686000000000
20
2426.262059486728
30
0.0
11
1344.686000000000
21
2286.261059486727
31
0.0
0
TEXT
5
94e
100
AcDbEntity
8
0-7図枠
62
7
370
-3
100
AcDbText
10
3235.674
20
259.432
30
0.0
40
37.807
1
R5.12.1
41
0.714
50
0.000
100
AcDbText
0
TEXT
5
94f
100
AcDbEntity
8
0-7図枠
62
7
370
-3
100
AcDbText
10
3321.599
20
2373.641
30
0.0
40
33.660
41
0.856
50
0.000
1
設　計　条　件
72
1
11
3459.999
21
2387.501
31
0.0
100
AcDbText
73
2
0
TEXT
5
950
100
AcDbEntity
8
0-7図枠
62
7
370
-3
100
AcDbText
10
3066.599
20
2306.141
30
0.0
40
33.660
41
0.856
50
0.000
1
通水断面
72
1
11
3144.999
21
2320.001
31
0.0
100
AcDbText
73
2
0
TEXT
5
951
100
AcDbEntity
8
0-7図枠
62
7
370
-3
100
AcDbText
10
3066.599
20
2246.141
30
0.0
40
33.660
41
0.856
50
0.000
1
扉体寸法
72
1
11
3144.999
21
2260.001
31
0.0
100
AcDbText
73
2
0
TEXT
5
952
100
AcDbEntity
8
0-7図枠
62
7
370
-3
100
AcDbText
10
3066.599
20
2186.141
30
0.0
40
33.660
41
0.856
50
0.000
1
設計水深
72
1
11
3144.999
21
2200.001
31
0.0
100
AcDbText
73
2
0
MTEXT
5
953
100
AcDbEntity
8
0-7図枠
62
7
370
-3
100
AcDbMText
10
3394.099
20
2322.401
30
0.0
40
31.790
41
0.000
71
5
72
1
1
\W0.972;有効幅{\W0.700;   0.30 m}
7
STANDARD
11
1.00000
21
0.00000
31
0.0
0
MTEXT
5
954
100
AcDbEntity
8
0-7図枠
62
7
370
-3
100
AcDbMText
10
3395.125
20
2264.325
30
0.0
40
31.790
41
0.000
71
5
72
1
1
\W0.972;扉体幅{\W0.700;   0.38 m}
7
STANDARD
11
1.00000
21
0.00000
31
0.0
0
MTEXT
5
955
100
AcDbEntity
8
0-7図枠
62
7
370
-3
100
AcDbMText
10
3394.099
20
2202.401
30
0.0
40
31.790
41
0.000
71
5
72
1
1
\W0.972;前水深{\W0.700;   5.30 m}
7
STANDARD
11
1.00000
21
0.00000
31
0.0
0
MTEXT
5
956
100
AcDbEntity
8
0-7図枠
62
7
370
-3
100
AcDbMText
10
3709.099
20
2322.401
30
0.0
40
31.790
41
0.000
71
5
72
1
1
\W0.972;有効高　{\W0.700; 0.30 m}
7
STANDARD
11
1.00000
21
0.00000
31
0.0
0
MTEXT
5
957
100
AcDbEntity
8
0-7図枠
62
7
370
-3
100
AcDbMText
10
3709.099
20
2262.401
30
0.0
40
31.790
41
0.000
71
5
72
1
1
\W0.972;扉体高{\W0.700;   0.38 m}
7
STANDARD
11
1.00000
21
0.00000
31
0.0
0
MTEXT
5
958
100
AcDbEntity
8
0-7図枠
62
7
370
-3
100
AcDbMText
10
3709.099
20
2202.401
30
0.0
40
31.790
41
0.000
71
5
72
1
1
\W0.972;後水深{\W0.700;   0.00 m}
7
STANDARD
11
1.00000
21
0.00000
31
0.0
0
TEXT
5
959
100
AcDbEntity
8
0-A文字
62
7
370
-3
100
AcDbText
10
3071.802
20
923.365
30
0.0
40
29.405
1
　　　　　塗装とし、色調はグレー（マンセル値Ｎ７）
41
0.856
50
0.000
100
AcDbText
0
MTEXT
5
95a
100
AcDbEntity
8
0-8寸法
62
7
370
-3
100
AcDbMText
10
2525.184
20
1535.473
30
0.0
40
31.790
41
0.000
71
7
72
1
1
\W1.093;六角{\W0.787;BT}＆{\W0.787;NT M12(SUS304}相当{\W0.787;)}
7
STANDARD
11
1.00000
21
0.00000
31
0.0
0
MTEXT
5
95b
100
AcDbEntity
8
0-8寸法
62
7
370
-3
100
AcDbMText
10
2527.805
20
1640.629
30
0.0
40
31.790
41
0.000
71
7
72
1
1
\W1.093;吊り金具{\W0.787;   PL-9t(SUS304) }
7
STANDARD
11
1.00000
21
0.00000
31
0.0
0
LINE
5
95c
100
AcDbEntity
8
0-8寸法
6
CONTINUOUS
62
4
100
AcDbLine
10
2508.026000000000
20
1525.166000000000
30
0.0
11
3109.329146025006
21
1525.166000000000
31
0.0
0
LINE
5
95d
100
AcDbEntity
8
0-8寸法
6
CONTINUOUS
62
4
100
AcDbLine
10
2508.026000000000
20
1625.166000000000
30
0.0
11
3109.329146025006
21
1625.166000000000
31
0.0
0
LINE
5
95e
100
AcDbEntity
8
0-8寸法
6
CONTINUOUS
62
4
100
AcDbLine
10
2508.026000000000
20
1625.166000000000
30
0.0
11
2508.026000000000
21
1525.166000000000
31
0.0
0
ENDSEC
 0
SECTION
  2
OBJECTS
 0
DICTIONARY
  5
C
100
AcDbDictionary
  3
ACAD_GROUP
350
D
  3
ACAD_MLINESTYLE
350
E
 0
DICTIONARY
  5
D
102
{ACAD_REACTORS
102
}
100
AcDbDictionary
 0
DICTIONARY
  5
E
102
{ACAD_REACTORS
102
}
100
AcDbDictionary
  3
STANDARD
350
13
0
MLINESTYLE
  5
13
102
{ACAD_REACTORS
102
}
100
AcDbMlineStyle
  2
STANDARD
 70
    0
3

62
256
51
90.0
52
90.0
71
0
0
ACDBPLACEHOLDER
  5
14
102
{ACAD_REACTORS
102
}
0
ENDSEC
0
EOF
