0
SECTION
2
HEADER
9
$ACADVER
1
AC1015
9
$ACADMAINTVER
 70
6
9
$DWGCODEPAGE
3
ANSI_932
9
$EXTMIN
10
0.000
20
0.000
30
0.0
9
$EXTMAX
10
4200.000
20
2970.000
30
0.0
9
$LIMMIN
10
0.000
20
0.000
9
$LIMMAX
10
4200.000
20
2970.000
9
$DIMSCALE
40
10.000000
9
$LTSCALE
40
10.000
9
$PDMODE
70
0
9
$PDSIZE
40
40.0
9
$HANDSEED
5
61f7b
9
$UNITMODE
70
0
9
$VISRETAIN
70
0
9
$PLINEGEN
70
0
9
$PSLTSCALE
70
1
9
$TREEDEPTH
70
3020
9
$CMLSTYLE
2
STANDARD
9
$CMLJUST
70
0
9
$CMLSCALE
40
1.0
9
$PROXYGRAPHICS
70
1
9
$MEASUREMENT
70
0
9
$CELWEIGHT
370
-1
9
$ENDCAPS
280
0
9
$JOINSTYLE
280
0
9
$LWDISPLAY
290
0
9
$INSUNITS
70
0
9
$HYPERLINKBASE
1

9
$STYLESHEET
1

9
$XEDIT
290
1
9
$CEPSNTYPE
380
0
9
$PSTYLEMODE
290
1
9
$FINGERPRINTGUID
2
{5F082321-0195-11D3-BDFB-0060B0CD5109}
9
$VERSIONGUID
2
{12943756-294D-11D3-98C2-0060B087942D}
9
$EXTNAMES
290
1
9
$PSVPSCALE
40
0.0
9
$OLESTARTUP
290
0
0
ENDSEC
0
SECTION
  2
CLASSES
0
ENDSEC
0
SECTION
2
TABLES
0
TABLE
2
VPORT
5
190
100
AcDbSymbolTable
70
2
0
VPORT
5
191
100
AcDbSymbolTableRecord
100
AcDbViewportTableRecord
2
*ACTIVE
70
0
10
0.0
20
0.0
11
1.0
21
1.0
12
2100.000
22
1485.000
13
0.0
23
0.0
14
1.0
24
1.0
15
0.0
25
0.0
16
0.0
26
0.0
36
1.0
17
0.0
27
0.0
37
0.0
40
3043.478
41
2.0
42
50.0
43
0.0
44
0.0
50
0.0
51
0.0
71
0
72
1000
73
1
74
1
75
0
76
0
77
0
78
0
0
ENDTAB
0
TABLE
2
LTYPE
5
1f4
100
AcDbSymbolTable
70
9
0
LTYPE
5
1f5
100
AcDbSymbolTableRecord
100
AcDbLinetypeTableRecord
2
BYBLOCK
70
 64
3

72
 65
73
  0
40
0.0
0
LTYPE
5
1f6
100
AcDbSymbolTableRecord
100
AcDbLinetypeTableRecord
2
BYLAYER
70
 64
3

72
 65
73
  0
40
0.0
0
LTYPE
5
1f7
100
AcDbSymbolTableRecord
100
AcDbLinetypeTableRecord
2
CONTINUOUS
70
64
3
SolidLine
72
65
73
0
40
0.0
0
LTYPE
5
1f8
100
AcDbSymbolTableRecord
100
AcDbLinetypeTableRecord
2
DOT
70
64
3
--  --  --  --  --  --  --  --     
72
65
73
2
40
3.000
49
1.000
74
0
49
-2.000
74
0
0
LTYPE
5
1f9
100
AcDbSymbolTableRecord
100
AcDbLinetypeTableRecord
2
DASHED
70
64
3
----    ----    ----    ----    
72
65
73
2
40
5.000
49
2.000
74
0
49
-3.000
74
0
0
LTYPE
5
1fa
100
AcDbSymbolTableRecord
100
AcDbLinetypeTableRecord
2
DASHED2
70
64
3
------  ------  ------  ------ 
72
65
73
2
40
10.000
49
4.000
74
0
49
-6.000
74
0
0
LTYPE
5
1fb
100
AcDbSymbolTableRecord
100
AcDbLinetypeTableRecord
2
CENTER
70
64
3
----- - ----- - ----- - ----- - 
72
65
73
4
40
10.000
49
6.000
74
0
49
-3.000
74
0
49
1.000
74
0
49
-3.000
74
0
0
LTYPE
5
1fc
100
AcDbSymbolTableRecord
100
AcDbLinetypeTableRecord
2
CENTER2
70
64
3
----------  --  ----------  -- 
72
65
73
4
40
17.000
49
12.000
74
0
49
-5.000
74
0
49
2.000
74
0
49
-5.000
74
0
0
LTYPE
5
1fd
100
AcDbSymbolTableRecord
100
AcDbLinetypeTableRecord
2
PHANTOM
70
64
3
--- - - --- - - --- - - --- - -
72
65
73
6
40
13.000
49
5.000
74
0
49
-3.000
74
0
49
1.000
74
0
49
-3.000
74
0
49
1.000
74
0
49
-3.000
74
0
0
LTYPE
5
1fe
100
AcDbSymbolTableRecord
100
AcDbLinetypeTableRecord
2
PHANTOM2
70
64
3
--------  -  -  --------  -  -
72
65
73
6
40
20.000
49
6.000
74
0
49
-5.000
74
0
49
2.000
74
0
49
-5.000
74
0
49
2.000
74
0
49
-5.000
74
0
0
LTYPE
5
1ff
100
AcDbSymbolTableRecord
100
AcDbLinetypeTableRecord
2
HIDDEN
70
64
3
-   -   -   -   -   -   -   -   
72
65
73
2
40
3.000
49
0.500
74
0
49
-2.500
74
0
0
ENDTAB
0
TABLE
2
STYLE
5
200
100
AcDbSymbolTable
70
1
0
STYLE
5
201
100
AcDbSymbolTableRecord
100
AcDbTextStyleTableRecord
2
STANDARD
70
0
40
0.0
41
1.0
50
0.0
71
0
42
0.0
3
txt.shx
4
extfont.shx
0
STYLE
5
202
100
AcDbSymbolTableRecord
100
AcDbTextStyleTableRecord
2
TATEGAKI
70
4
40
0.0
41
1.0
50
0.0
71
0
42
0.0
3
txt.shx
4
extfont.shx
0
STYLE
5
203
100
AcDbSymbolTableRecord
100
AcDbTextStyleTableRecord
2
DIM
70
0
40
0.0
41
0.75
50
0.0
71
0
42
0.0
3
txt.shx
4
extfont.shx
0
STYLE
5
204
100
AcDbSymbolTableRecord
100
AcDbTextStyleTableRecord
2
_Gothic_
70
0
40
1.0
41
1.0
50
0.0
71
0
42
10.0
3

4

1001
ACAD
1000
MS Gothic
1071
32817
0
STYLE
5
205
100
AcDbSymbolTableRecord
100
AcDbTextStyleTableRecord
2
_TateGothic_
70
4
40
0.0
41
1.0
50
0.0
71
0
42
0.0
3
@MS Gothic
4

0
ENDTAB
0
TABLE
2
VIEW
5
206
100
AcDbSymbolTable
70
0
0
ENDTAB
0
TABLE
2
UCS
5
207
100
AcDbSymbolTable
70
0
0
ENDTAB
0
TABLE
2
APPID
5
208
100
AcDbSymbolTable
70
1
0
APPID
5
209
100
AcDbSymbolTableRecord
100
AcDbRegAppTableRecord
2
ACAD
70
0
0
ENDTAB
0
TABLE
2
DIMSTYLE
5
403
330
0
100
AcDbSymbolTable
70
1
100
AcDbDimStyleTable
71
0
0
DIMSTYLE
105
404
330
402
100
AcDbSymbolTableRecord
100
AcDbDimStyleTableRecord
2
JAC_DIM
70
0
41
20.000
42
0.000
44
0.0
73
0
74
0
77
1
78
8
79
2
140
0.000
170
0
171
2
172
0
173
0
174
0
175
0
176
0
177
0
178
0
270
2
271
0
272
0
273
2
274
2
340
201
275
0
280
0
281
0
282
0
283
0
284
0
285
0
286
0
287
3
288
0
0
ENDTAB
0
TABLE
2
BLOCK_RECORD
5
405
100
AcDbSymbolTable
70
0
0
BLOCK_RECORD
5
406
100
AcDbSymbolTableRecord
100
AcDbBlockTableRecord
2
*MODEL_SPACE
0
BLOCK_RECORD
5
407
100
AcDbSymbolTableRecord
100
AcDbBlockTableRecord
2
*PAPER_SPACE
0
BLOCK_RECORD
5
408
100
AcDbSymbolTableRecord
100
AcDbBlockTableRecord
2
_JACCONVERT_
0
ENDTAB
0
TABLE
2
LAYER
5
409
100
AcDbSymbolTable
70
10
0
LAYER
5
40a
100
AcDbSymbolTableRecord
100
AcDbLayerTableRecord
2
0
70
0
62
7
6
CONTINUOUS
370
-3
390
14
0
LAYER
5
40b
100
AcDbSymbolTableRecord
100
AcDbLayerTableRecord
2
0-1_J_POINT
70
0
62
7
6
CONTINUOUS
370
-3
390
14
0
LAYER
5
40c
100
AcDbSymbolTableRecord
100
AcDbLayerTableRecord
2
0-3RC
70
0
62
7
6
CONTINUOUS
370
-3
390
14
0
LAYER
5
40d
100
AcDbSymbolTableRecord
100
AcDbLayerTableRecord
2
0-4陰線
70
0
62
7
6
CONTINUOUS
370
-3
390
14
0
LAYER
5
40e
100
AcDbSymbolTableRecord
100
AcDbLayerTableRecord
2
0-5基準線
70
0
62
7
6
CONTINUOUS
370
-3
390
14
0
LAYER
5
40f
100
AcDbSymbolTableRecord
100
AcDbLayerTableRecord
2
0-6戸当り
70
0
62
7
6
CONTINUOUS
370
-3
390
14
0
LAYER
5
410
100
AcDbSymbolTableRecord
100
AcDbLayerTableRecord
2
0-7図枠
70
0
62
7
6
CONTINUOUS
370
-3
390
14
0
LAYER
5
411
100
AcDbSymbolTableRecord
100
AcDbLayerTableRecord
2
0-8寸法
70
0
62
7
6
CONTINUOUS
370
-3
390
14
0
LAYER
5
412
100
AcDbSymbolTableRecord
100
AcDbLayerTableRecord
2
0-9扉体
70
0
62
7
6
CONTINUOUS
370
-3
390
14
0
LAYER
5
413
100
AcDbSymbolTableRecord
100
AcDbLayerTableRecord
2
0-A文字
70
0
62
7
6
CONTINUOUS
370
-3
390
14
0
LAYER
5
414
100
AcDbSymbolTableRecord
100
AcDbLayerTableRecord
2
F-F_J_ADD
70
0
62
-7
6
CONTINUOUS
290
0
370
-3
390
14
0
ENDTAB
0
ENDSEC
0
SECTION
2
BLOCKS
0
BLOCK
5
415
100
AcDbEntity
67
1
8
0
100
AcDbBlockBegin
2
*MODEL_SPACE
70
0
10
0.0
20
0.0
30
0.0
3
*MODEL_SPACE
1

0
ENDBLK
5
416
100
AcDbEntity
8
0
100
AcDbBlockEnd
0
BLOCK
5
417
100
AcDbEntity
67
1
8
0
100
AcDbBlockBegin
2
*PAPER_SPACE
70
0
10
0.0
20
0.0
30
0.0
3
*PAPER_SPACE
1

0
ENDBLK
5
418
100
AcDbEntity
67
1
8
0
100
AcDbBlockEnd
0
BLOCK
5
419
100
AcDbEntity
8
0
100
AcDbBlockBegin
2
_JACCONVERT_
70
2
10
0.0
20
0.0
30
0.0
3
_JACCONVERT_
1
_JACCONVERT_
0
ATTDEF
5
41a
100
AcDbEntity
8
0
62
0
100
AcDbText
10
0.0
20
0.0
30
0.0
40
1.0
1
User:33307E08109409567083093083089083760830E50960850900C608B4808D6408F6408F4F08E
100
AcDbAttributeDefinition
3

2
USER
70
8
0
ATTDEF
5
41b
100
AcDbEntity
8
0
62
0
100
AcDbText
10
0.0
20
2.0
30
0.0
40
1.0
1
Date:24/01/30 10:45
100
AcDbAttributeDefinition
3

2
REVDATE
70
8
0
ATTDEF
5
41c
100
AcDbEntity
8
0
62
0
100
AcDbText
10
0.0
20
4.0
30
0.0
40
1.0
1
File:_MFR-A035035.dxf
100
AcDbAttributeDefinition
3

2
FNAME
70
8
0
ATTDEF
5
41d
100
AcDbEntity
8
0
62
0
100
AcDbText
10
0.0
20
6.0
30
0.0
40
1.0
1
JacConvert Version3.13p copyright (c) 2001-2021 K.Nakahara
100
AcDbAttributeDefinition
3

2
VER
70
8
0
ENDBLK
5
41e
100
AcDbEntity
67
1
8
0
100
AcDbBlockEnd
0
ENDSEC
0
SECTION
2
ENTITIES
0
TEXT
5
41f
100
AcDbEntity
8
0-7図枠
62
7
370
-3
100
AcDbText
10
3119.406
20
454.432
30
0.0
40
37.807
41
0.856
50
0.000
1
標準図
72
1
11
3185.001
21
470.000
31
0.0
100
AcDbText
73
2
0
TEXT
5
420
100
AcDbEntity
8
0-7図枠
62
7
370
-3
100
AcDbText
10
3992.073
20
166.442
30
0.0
40
29.405
41
0.461
50
0.000
1
2
72
1
11
3999.411
21
178.550
31
0.0
100
AcDbText
73
2
0
LINE
5
421
100
AcDbEntity
8
0-7図枠
6
CONTINUOUS
62
3
100
AcDbLine
10
3562.501500000000
20
480.000000000000
30
0.0
11
3962.501500000000
21
480.000000000000
31
0.0
0
LINE
5
422
100
AcDbEntity
8
F-F_J_ADD
6
HIDDEN
62
109
100
AcDbLine
10
3475.002000000000
20
367.142857142858
30
0.0
11
4050.001000000000
21
367.142857142858
31
0.0
0
LINE
5
423
100
AcDbEntity
8
F-F_J_ADD
6
HIDDEN
62
109
100
AcDbLine
10
3475.002000000000
20
394.285714285715
30
0.0
11
4050.001000000000
21
394.285714285715
31
0.0
0
LINE
5
424
100
AcDbEntity
8
F-F_J_ADD
6
HIDDEN
62
109
100
AcDbLine
10
3475.002000000000
20
421.428571428572
30
0.0
11
4050.001000000000
21
421.428571428572
31
0.0
0
LINE
5
425
100
AcDbEntity
8
F-F_J_ADD
6
HIDDEN
62
109
100
AcDbLine
10
3475.002000000000
20
448.571428571429
30
0.0
11
4050.001000000000
21
448.571428571429
31
0.0
0
LINE
5
426
100
AcDbEntity
8
F-F_J_ADD
6
HIDDEN
62
109
100
AcDbLine
10
3475.002000000000
20
475.714285714286
30
0.0
11
4050.001000000000
21
475.714285714286
31
0.0
0
LINE
5
427
100
AcDbEntity
8
F-F_J_ADD
6
HIDDEN
62
109
100
AcDbLine
10
3475.002000000000
20
502.857142857143
30
0.0
11
4050.001000000000
21
502.857142857143
31
0.0
0
LINE
5
428
100
AcDbEntity
8
F-F_J_ADD
6
HIDDEN
62
109
100
AcDbLine
10
3762.501500000000
20
530.000000000000
30
0.0
11
3762.501500000000
21
340.000000000000
31
0.0
0
TEXT
5
429
100
AcDbEntity
8
0-7図枠
62
7
370
-3
100
AcDbText
10
2998.956
20
170.639
30
0.0
40
37.807
1
三重重工業株式会社
41
0.856
50
0.000
100
AcDbText
0
TEXT
5
42a
100
AcDbEntity
8
0-7図枠
62
7
370
-3
100
AcDbText
10
3444.328
20
221.487
30
0.0
40
26.465
1
図番
41
0.856
50
0.000
  7
TATEGAKI
100
AcDbText
0
LINE
5
42b
100
AcDbEntity
8
F-F_J_ADD
6
HIDDEN
62
109
100
AcDbLine
10
3970.000500000001
20
340.000000000000
30
0.0
11
3970.000500000001
21
230.000000000000
31
0.0
0
LINE
5
42c
100
AcDbEntity
8
F-F_J_ADD
6
HIDDEN
62
109
100
AcDbLine
10
3865.000500000001
20
230.000000000000
30
0.0
11
3865.000500000001
21
340.000000000000
31
0.0
0
LINE
5
42d
100
AcDbEntity
8
F-F_J_ADD
6
HIDDEN
62
109
100
AcDbLine
10
3762.500500000001
20
340.000000000000
30
0.0
11
3762.500500000001
21
230.000000000000
31
0.0
0
LINE
5
42e
100
AcDbEntity
8
F-F_J_ADD
6
HIDDEN
62
109
100
AcDbLine
10
3660.001000000000
20
340.000000000000
30
0.0
11
3660.001000000000
21
230.000000000000
31
0.0
0
LINE
5
42f
100
AcDbEntity
8
F-F_J_ADD
6
HIDDEN
62
109
100
AcDbLine
10
3555.001500000000
20
230.000000000000
30
0.0
11
3555.001500000000
21
340.000000000000
31
0.0
0
LINE
5
430
100
AcDbEntity
8
F-F_J_ADD
6
HIDDEN
62
109
100
AcDbLine
10
3712.501000000000
20
140.000000000000
30
0.0
11
3712.501000000000
21
230.000000000000
31
0.0
0
LINE
5
431
100
AcDbEntity
8
F-F_J_ADD
6
HIDDEN
62
109
100
AcDbLine
10
4050.000500000000
20
185.000000000000
30
0.0
11
2900.000500000000
21
185.000000000000
31
0.0
0
LINE
5
432
100
AcDbEntity
8
F-F_J_ADD
6
HIDDEN
62
109
100
AcDbLine
10
3415.000500000001
20
285.000000000000
30
0.0
11
4050.000500000000
21
285.000000000000
31
0.0
0
LINE
5
433
100
AcDbEntity
8
F-F_J_ADD
6
HIDDEN
62
109
100
AcDbLine
10
3475.001500000000
20
435.000000000000
30
0.0
11
3415.000500000001
21
435.000000000000
31
0.0
0
LINE
5
434
100
AcDbEntity
8
F-F_J_ADD
6
HIDDEN
62
109
100
AcDbLine
10
3445.001000000000
20
530.000000000000
30
0.0
11
3445.001000000000
21
140.000000000000
31
0.0
0
LINE
5
435
100
AcDbEntity
8
F-F_J_ADD
6
HIDDEN
62
109
100
AcDbLine
10
3182.501500000000
20
230.000000000000
30
0.0
11
3182.501500000000
21
410.000000000000
31
0.0
0
LINE
5
436
100
AcDbEntity
8
F-F_J_ADD
6
HIDDEN
62
109
100
AcDbLine
10
3415.000500000001
20
275.000000000000
30
0.0
11
2900.000500000000
21
275.000000000000
31
0.0
0
LINE
5
437
100
AcDbEntity
8
F-F_J_ADD
6
HIDDEN
62
109
100
AcDbLine
10
2900.000500000000
20
470.000000000000
30
0.0
11
3415.000500000001
21
470.000000000000
31
0.0
0
LINE
5
438
100
AcDbEntity
8
F-F_J_ADD
6
HIDDEN
62
109
100
AcDbLine
10
3415.000500000001
20
365.000000000000
30
0.0
11
2900.000500000000
21
365.000000000000
31
0.0
0
LINE
5
439
100
AcDbEntity
8
F-F_J_ADD
6
HIDDEN
62
109
100
AcDbLine
10
3312.501000000000
20
230.000000000000
30
0.0
11
3312.501000000000
21
410.000000000000
31
0.0
0
LINE
5
43a
100
AcDbEntity
8
F-F_J_ADD
6
HIDDEN
62
109
100
AcDbLine
10
3055.001000000000
20
230.000000000000
30
0.0
11
3055.001000000000
21
410.000000000000
31
0.0
0
LINE
5
43b
100
AcDbEntity
8
F-F_J_ADD
6
HIDDEN
62
109
100
AcDbLine
10
3185.000500000000
20
410.000000000000
30
0.0
11
3185.000500000000
21
530.000000000000
31
0.0
0
LINE
5
43c
100
AcDbEntity
8
F-F_J_ADD
6
HIDDEN
62
109
100
AcDbLine
10
2927.500500000000
20
230.000000000000
30
0.0
11
2927.500500000000
21
530.000000000000
31
0.0
0
LINE
5
43d
100
AcDbEntity
8
F-F_J_ADD
6
HIDDEN
62
109
100
AcDbLine
10
2900.001000000000
20
470.000000000000
30
0.0
11
2955.000000000000
21
470.000000000000
31
0.0
0
LINE
5
43e
100
AcDbEntity
8
F-F_J_ADD
6
HIDDEN
62
109
100
AcDbLine
10
2927.500500000000
20
530.000000000000
30
0.0
11
2927.500500000000
21
410.000000000000
31
0.0
0
TEXT
5
43f
100
AcDbEntity
8
0-7図枠
62
7
370
-3
100
AcDbText
10
3011.870
20
259.432
30
0.0
40
37.807
41
0.684
50
0.000
1
1/10
72
1
11
3055.001
21
275.000
31
0.0
100
AcDbText
73
2
0
TEXT
5
440
100
AcDbEntity
8
0-7図枠
62
7
370
-3
100
AcDbText
10
3926.870
20
269.432
30
0.0
40
37.807
41
0.856
50
0.000
1
平川
72
1
11
3970.001
21
285.000
31
0.0
100
AcDbText
73
2
0
TEXT
5
441
100
AcDbEntity
8
0-7図枠
62
7
370
-3
100
AcDbText
10
3719.370
20
269.432
30
0.0
40
37.807
41
0.856
50
0.000
1
井福
72
1
11
3762.501
21
285.000
31
0.0
100
AcDbText
73
2
0
TEXT
5
442
100
AcDbEntity
8
0-7図枠
62
7
370
-3
100
AcDbText
10
3511.871
20
269.432
30
0.0
40
37.807
41
0.856
50
0.000
1
熊崎
72
1
11
3555.002
21
285.000
31
0.0
100
AcDbText
73
2
0
TEXT
5
443
100
AcDbEntity
8
0-7図枠
62
7
370
-3
100
AcDbText
10
3181.829
20
311.487
30
0.0
40
26.465
1
日付
41
0.856
50
0.000
  7
TATEGAKI
100
AcDbText
0
TEXT
5
444
100
AcDbEntity
8
0-7図枠
62
7
370
-3
100
AcDbText
10
2926.828
20
311.487
30
0.0
40
26.465
1
尺度
41
0.856
50
0.000
  7
TATEGAKI
100
AcDbText
0
TEXT
5
445
100
AcDbEntity
8
0-7図枠
62
7
370
-3
100
AcDbText
10
3864.328
20
321.487
30
0.0
40
26.465
1
担当
41
0.856
50
0.000
  7
TATEGAKI
100
AcDbText
0
TEXT
5
446
100
AcDbEntity
8
0-7図枠
62
7
370
-3
100
AcDbText
10
3659.328
20
321.487
30
0.0
40
26.465
1
検図
41
0.856
50
0.000
  7
TATEGAKI
100
AcDbText
0
TEXT
5
447
100
AcDbEntity
8
0-7図枠
62
7
370
-3
100
AcDbText
10
3444.328
20
321.487
30
0.0
40
26.465
1
承認
41
0.856
50
0.000
  7
TATEGAKI
100
AcDbText
0
TEXT
5
448
100
AcDbEntity
8
0-7図枠
62
7
370
-3
100
AcDbText
10
3000.638
20
349.432
30
0.0
40
37.807
41
0.530
50
0.000
1
A5083
72
1
11
3055.001
21
365.000
31
0.0
100
AcDbText
73
2
0
MTEXT
5
449
100
AcDbEntity
8
0-7図枠
62
7
370
-3
100
AcDbMText
10
3765.352
20
399.186
30
0.0
40
31.790
41
0.000
71
5
72
1
1
\W1.093;{\W0.787;ｱﾙﾐ}合金製{\W0.787;ﾌﾗｯﾌﾟｹﾞ-ﾄ}
7
STANDARD
11
1.00000
21
0.00000
31
0.0
0
TEXT
5
44a
100
AcDbEntity
8
0-7図枠
62
7
370
-3
100
AcDbText
10
3181.829
20
401.487
30
0.0
40
26.465
1
数量
41
0.856
50
0.000
  7
TATEGAKI
100
AcDbText
0
TEXT
5
44b
100
AcDbEntity
8
0-7図枠
62
7
370
-3
100
AcDbText
10
2926.828
20
401.487
30
0.0
40
26.465
1
材質
41
0.856
50
0.000
  7
TATEGAKI
100
AcDbText
0
TEXT
5
44c
100
AcDbEntity
8
0-7図枠
62
7
370
-3
100
AcDbText
10
3444.328
20
488.959
30
0.0
40
26.465
1
名　称
41
0.856
50
0.000
  7
TATEGAKI
100
AcDbText
0
TEXT
5
44d
100
AcDbEntity
8
0-7図枠
62
7
370
-3
100
AcDbText
10
2926.828
20
506.487
30
0.0
40
26.465
1
客先
41
0.856
50
0.000
  7
TATEGAKI
100
AcDbText
0
ELLIPSE
  5
44e
100
AcDbEntity
8
0-7図枠
6
CONTINUOUS
62
3
100
AcDbEllipse
10
2944.994000000000
20
179.029000000000
30
0.0
11
25.000000000000
21
0.000000000000
31
0.0
210
0.0
220
0.0
230
1.0
40
0.800000000000
41
0.270792616483
42
6.145261525885
0
ARC
5
44f
100
AcDbEntity
8
0-7図枠
6
CONTINUOUS
62
3
100
AcDbCircle
10
2949.316000000000
20
176.533000000000
30
0.0
40
10.000000000000
100
AcDbArc
50
60.000000000000
51
105.000000000000
0
ARC
5
450
100
AcDbEntity
8
0-7図枠
6
CONTINUOUS
62
3
100
AcDbCircle
10
2939.071000000000
20
173.788000000000
30
0.0
40
10.000000000000
100
AcDbArc
50
60.000000000000
51
105.000000000000
0
ARC
5
451
100
AcDbEntity
8
0-7図枠
6
CONTINUOUS
62
3
100
AcDbCircle
10
2928.826000000000
20
171.043000000000
30
0.0
40
10.000000000000
100
AcDbArc
50
60.000000000000
51
105.000000000000
0
LINE
5
452
100
AcDbEntity
8
0-7図枠
6
CONTINUOUS
62
3
100
AcDbLine
10
2946.728000000000
20
186.192000000000
30
0.0
11
2939.183000000000
21
184.171000000000
31
0.0
0
LINE
5
453
100
AcDbEntity
8
0-7図枠
6
CONTINUOUS
62
3
100
AcDbLine
10
2936.483000000000
20
183.447000000000
30
0.0
11
2928.710000000000
21
181.364000000000
31
0.0
0
LINE
5
454
100
AcDbEntity
8
0-7図枠
6
CONTINUOUS
62
3
100
AcDbLine
10
2954.317000000000
20
185.193000000000
30
0.0
11
2969.756000000000
21
176.279000000000
31
0.0
0
LINE
5
455
100
AcDbEntity
8
0-7図枠
6
CONTINUOUS
62
3
100
AcDbLine
10
2944.072000000000
20
182.448000000000
30
0.0
11
2966.839000000000
21
169.303000000000
31
0.0
0
LINE
5
456
100
AcDbEntity
8
0-7図枠
6
CONTINUOUS
62
3
100
AcDbLine
10
2933.826000000000
20
179.703000000000
30
0.0
11
2961.278000000000
21
163.854000000000
31
0.0
0
LINE
5
457
100
AcDbEntity
8
0-7図枠
6
CONTINUOUS
62
3
100
AcDbLine
10
2926.238000000000
20
180.702000000000
30
0.0
11
2919.994000000000
21
179.029000000000
31
0.0
0
LINE
5
458
100
AcDbEntity
8
0-7図枠
6
CONTINUOUS
62
3
100
AcDbLine
10
2943.899000000000
20
185.434000000000
30
0.0
11
2968.127000000000
21
171.446000000000
31
0.0
0
LINE
5
459
100
AcDbEntity
8
0-7図枠
6
CONTINUOUS
62
3
100
AcDbLine
10
2933.654000000001
20
182.689000000000
30
0.0
11
2963.414000000000
21
165.507000000000
31
0.0
0
LINE
5
45a
100
AcDbEntity
8
0-7図枠
6
CONTINUOUS
62
3
100
AcDbLine
10
2923.409000000000
20
179.944000000000
30
0.0
11
2956.058000000000
21
161.094000000000
31
0.0
0
POLYLINE
5
45b
100
AcDbEntity
8
0-7図枠
6
CONTINUOUS
62
  3
100
AcDb2dPolyline
66
1
10
0.0
20
0.0
30
0.0
70
0
0
VERTEX
5
45c
100
AcDbEntity
8
0-7図枠
6
CONTINUOUS
62
  3
100
AcDbVertex
100
AcDb2dVertex
10
3965.001000000000
20
155.000000000000
30
0.0
0
VERTEX
5
45d
100
AcDbEntity
8
0-7図枠
6
CONTINUOUS
62
  3
100
AcDbVertex
100
AcDb2dVertex
10
4035.001000000000
20
155.000000000000
30
0.0
0
VERTEX
5
45e
100
AcDbEntity
8
0-7図枠
6
CONTINUOUS
62
  3
100
AcDbVertex
100
AcDb2dVertex
10
4000.001000000000
20
215.622000000000
30
0.0
0
SEQEND
5
45f
100
AcDbEntity
8
0-7図枠
0
LINE
5
460
100
AcDbEntity
8
0-7図枠
6
CONTINUOUS
62
3
100
AcDbLine
10
3965.001000000000
20
155.000000000000
30
0.0
11
4000.001000000000
21
215.622000000000
31
0.0
0
LINE
5
461
100
AcDbEntity
8
0-7図枠
6
CONTINUOUS
62
3
100
AcDbLine
10
3155.001000000000
20
410.000000000000
30
0.0
11
3155.001000000000
21
230.000000000000
31
0.0
0
LINE
5
462
100
AcDbEntity
8
0-7図枠
6
CONTINUOUS
62
3
100
AcDbLine
10
3210.001000000000
20
410.000000000000
30
0.0
11
3210.001000000000
21
230.000000000000
31
0.0
0
LINE
5
463
100
AcDbEntity
8
0-7図枠
6
CONTINUOUS
62
3
100
AcDbLine
10
2955.000000000000
20
530.000000000000
30
0.0
11
2955.000000000000
21
230.000000000000
31
0.0
0
LINE
5
464
100
AcDbEntity
8
0-7図枠
6
CONTINUOUS
62
3
100
AcDbLine
10
2900.001000000000
20
410.000000000000
30
0.0
11
3415.001000000000
21
410.000000000000
31
0.0
0
LINE
5
465
100
AcDbEntity
8
0-7図枠
6
CONTINUOUS
62
3
100
AcDbLine
10
2900.001000000000
20
320.000000000000
30
0.0
11
3415.001000000000
21
320.000000000000
31
0.0
0
LINE
5
466
100
AcDbEntity
8
0-7図枠
6
CONTINUOUS
62
3
100
AcDbLine
10
3415.001000000000
20
340.000000000000
30
0.0
11
4050.001000000000
21
340.000000000000
31
0.0
0
LINE
5
467
100
AcDbEntity
8
0-7図枠
6
CONTINUOUS
62
3
100
AcDbLine
10
3890.001000000000
20
340.000000000000
30
0.0
11
3890.001000000000
21
230.000000000000
31
0.0
0
LINE
5
468
100
AcDbEntity
8
0-7図枠
6
CONTINUOUS
62
3
100
AcDbLine
10
3840.001000000000
20
340.000000000000
30
0.0
11
3840.001000000000
21
230.000000000000
31
0.0
0
LINE
5
469
100
AcDbEntity
8
0-7図枠
6
CONTINUOUS
62
3
100
AcDbLine
10
3685.001000000000
20
340.000000000000
30
0.0
11
3685.001000000000
21
230.000000000000
31
0.0
0
LINE
5
46a
100
AcDbEntity
8
0-7図枠
6
CONTINUOUS
62
3
100
AcDbLine
10
3635.001000000000
20
340.000000000000
30
0.0
11
3635.001000000000
21
230.000000000000
31
0.0
0
LINE
5
46b
100
AcDbEntity
8
0-7図枠
6
CONTINUOUS
62
3
100
AcDbLine
10
3950.001000000000
20
230.000000000000
30
0.0
11
3950.001000000000
21
140.000000000000
31
0.0
0
LINE
5
46c
100
AcDbEntity
8
0-7図枠
6
CONTINUOUS
62
3
100
AcDbLine
10
3415.001000000000
20
530.000000000000
30
0.0
11
3415.001000000000
21
140.000000000000
31
0.0
0
LINE
5
46d
100
AcDbEntity
8
0-7図枠
6
CONTINUOUS
62
3
100
AcDbLine
10
3475.001000000000
20
530.000000000000
30
0.0
11
3475.001000000000
21
140.000000000000
31
0.0
0
LINE
5
46e
100
AcDbEntity
8
0-7図枠
6
CONTINUOUS
62
3
100
AcDbLine
10
2900.001000000000
20
230.000000000000
30
0.0
11
4050.001000000000
21
230.000000000000
31
0.0
0
LINE
5
46f
100
AcDbEntity
8
0-7図枠
6
CONTINUOUS
62
3
100
AcDbLine
10
2900.001000000000
20
530.000000000000
30
0.0
11
4050.001000000000
21
530.000000000000
31
0.0
0
ELLIPSE
  5
470
100
AcDbEntity
8
0-7図枠
6
CONTINUOUS
62
3
100
AcDbEllipse
10
2944.994000000000
20
179.029000000000
30
0.0
11
30.000000000000
21
0.000000000000
31
0.0
210
0.0
220
0.0
230
1.0
40
0.833300000000
41
0.000000000000
42
6.283185307180
0
ELLIPSE
  5
471
100
AcDbEntity
8
0-7図枠
6
CONTINUOUS
62
3
100
AcDbEllipse
10
2944.994000000000
20
179.029000000000
30
0.0
11
30.000000000000
21
0.000000000000
31
0.0
210
0.0
220
0.0
230
1.0
40
0.833300000000
41
0.000000000000
42
6.283185307180
0
LINE
5
472
100
AcDbEntity
8
0-7図枠
6
CONTINUOUS
62
3
100
AcDbLine
10
2900.001000000000
20
530.000000000000
30
0.0
11
2900.001000000000
21
140.000000000000
31
0.0
0
LINE
5
473
100
AcDbEntity
8
0-6戸当り
6
DOT
62
6
100
AcDbLine
10
2326.675000000000
20
1310.135000000000
30
0.0
11
2363.141629547096
21
1310.135000000000
31
0.0
0
LINE
5
474
100
AcDbEntity
8
0-7図枠
6
CONTINUOUS
62
4
100
AcDbLine
10
3023.667000000000
20
2580.214000000000
30
0.0
11
3833.665000000000
21
2580.214000000000
31
0.0
0
LINE
5
475
100
AcDbEntity
8
0-7図枠
6
CONTINUOUS
62
4
100
AcDbLine
10
3023.667000000000
20
2505.214000000000
30
0.0
11
3833.665000000000
21
2505.214000000000
31
0.0
0
LINE
5
476
100
AcDbEntity
8
0-7図枠
6
CONTINUOUS
62
4
100
AcDbLine
10
3023.667000000000
20
2445.214000000000
30
0.0
11
3833.665000000000
21
2445.214000000000
31
0.0
0
LINE
5
477
100
AcDbEntity
8
0-7図枠
6
CONTINUOUS
62
4
100
AcDbLine
10
3023.667000000000
20
2385.214000000000
30
0.0
11
3833.665000000000
21
2385.214000000000
31
0.0
0
LINE
5
478
100
AcDbEntity
8
0-7図枠
6
CONTINUOUS
62
4
100
AcDbLine
10
3023.667000000000
20
2325.214000000000
30
0.0
11
3833.665000000000
21
2325.214000000000
31
0.0
0
LINE
5
479
100
AcDbEntity
8
0-7図枠
6
CONTINUOUS
62
4
100
AcDbLine
10
3023.667000000000
20
2580.214000000000
30
0.0
11
3023.667000000000
21
2325.214000000000
31
0.0
0
LINE
5
47a
100
AcDbEntity
8
0-7図枠
6
CONTINUOUS
62
4
100
AcDbLine
10
3833.665000000000
20
2580.214000000000
30
0.0
11
3833.665000000000
21
2325.214000000000
31
0.0
0
LINE
5
47b
100
AcDbEntity
8
0-7図枠
6
CONTINUOUS
62
4
100
AcDbLine
10
3203.666000000000
20
2505.214000000000
30
0.0
11
3203.666000000000
21
2325.214000000000
31
0.0
0
LINE
5
47c
100
AcDbEntity
8
0-7図枠
6
CONTINUOUS
62
4
100
AcDbLine
10
3518.666000000000
20
2505.214000000000
30
0.0
11
3518.666000000000
21
2325.214000000000
31
0.0
0
POLYLINE
5
47d
100
AcDbEntity
8
0-7図枠
6
CONTINUOUS
62
  3
100
AcDb2dPolyline
66
1
10
0.0
20
0.0
30
0.0
70
0
0
VERTEX
5
47e
100
AcDbEntity
8
0-7図枠
6
CONTINUOUS
62
  3
100
AcDbVertex
100
AcDb2dVertex
10
4050.001000000000
20
2840.000000000000
30
0.0
0
VERTEX
5
47f
100
AcDbEntity
8
0-7図枠
6
CONTINUOUS
62
  3
100
AcDbVertex
100
AcDb2dVertex
10
4050.001000000000
20
140.000000000000
30
0.0
0
VERTEX
5
480
100
AcDbEntity
8
0-7図枠
6
CONTINUOUS
62
  3
100
AcDbVertex
100
AcDb2dVertex
10
200.000000000000
20
140.000000000000
30
0.0
0
SEQEND
5
481
100
AcDbEntity
8
0-7図枠
0
POLYLINE
5
482
100
AcDbEntity
8
0-7図枠
6
CONTINUOUS
62
  3
100
AcDb2dPolyline
66
1
10
0.0
20
0.0
30
0.0
70
0
0
VERTEX
5
483
100
AcDbEntity
8
0-7図枠
6
CONTINUOUS
62
  3
100
AcDbVertex
100
AcDb2dVertex
10
4050.001000000000
20
2840.000000000000
30
0.0
0
VERTEX
5
484
100
AcDbEntity
8
0-7図枠
6
CONTINUOUS
62
  3
100
AcDbVertex
100
AcDb2dVertex
10
200.000000000000
20
2840.000000000000
30
0.0
0
VERTEX
5
485
100
AcDbEntity
8
0-7図枠
6
CONTINUOUS
62
  3
100
AcDbVertex
100
AcDb2dVertex
10
200.000000000000
20
140.000000000000
30
0.0
0
SEQEND
5
486
100
AcDbEntity
8
0-7図枠
0
POLYLINE
5
487
100
AcDbEntity
8
0-7図枠
6
CONTINUOUS
62
  7
100
AcDb2dPolyline
66
1
10
0.0
20
0.0
30
0.0
70
0
0
VERTEX
5
488
100
AcDbEntity
8
0-7図枠
6
CONTINUOUS
62
  7
100
AcDbVertex
100
AcDb2dVertex
10
3090.001000000000
20
2770.000000000000
30
0.0
0
VERTEX
5
489
100
AcDbEntity
8
0-7図枠
6
CONTINUOUS
62
  7
100
AcDbVertex
100
AcDb2dVertex
10
3200.001000000000
20
2770.000000000000
30
0.0
0
VERTEX
5
48a
100
AcDbEntity
8
0-7図枠
6
CONTINUOUS
62
  7
100
AcDbVertex
100
AcDb2dVertex
10
3200.001000000000
20
2840.000000000000
30
0.0
0
VERTEX
5
48b
100
AcDbEntity
8
0-7図枠
6
CONTINUOUS
62
  7
100
AcDbVertex
100
AcDb2dVertex
10
3090.001000000000
20
2840.000000000000
30
0.0
0
VERTEX
5
48c
100
AcDbEntity
8
0-7図枠
6
CONTINUOUS
62
  7
100
AcDbVertex
100
AcDb2dVertex
10
3090.001000000000
20
2770.000000000000
30
0.0
0
SEQEND
5
48d
100
AcDbEntity
8
0-7図枠
0
POLYLINE
5
48e
100
AcDbEntity
8
0-7図枠
6
CONTINUOUS
62
  7
100
AcDb2dPolyline
66
1
10
0.0
20
0.0
30
0.0
70
0
0
VERTEX
5
48f
100
AcDbEntity
8
0-7図枠
6
CONTINUOUS
62
  7
100
AcDbVertex
100
AcDb2dVertex
10
3200.001000000000
20
2770.000000000000
30
0.0
0
VERTEX
5
490
100
AcDbEntity
8
0-7図枠
6
CONTINUOUS
62
  7
100
AcDbVertex
100
AcDb2dVertex
10
3650.001000000000
20
2770.000000000000
30
0.0
0
VERTEX
5
491
100
AcDbEntity
8
0-7図枠
6
CONTINUOUS
62
  7
100
AcDbVertex
100
AcDb2dVertex
10
3650.001000000000
20
2840.000000000000
30
0.0
0
VERTEX
5
492
100
AcDbEntity
8
0-7図枠
6
CONTINUOUS
62
  7
100
AcDbVertex
100
AcDb2dVertex
10
3200.001000000000
20
2840.000000000000
30
0.0
0
VERTEX
5
493
100
AcDbEntity
8
0-7図枠
6
CONTINUOUS
62
  7
100
AcDbVertex
100
AcDb2dVertex
10
3200.001000000000
20
2770.000000000000
30
0.0
0
SEQEND
5
494
100
AcDbEntity
8
0-7図枠
0
POLYLINE
5
495
100
AcDbEntity
8
0-7図枠
6
CONTINUOUS
62
  7
100
AcDb2dPolyline
66
1
10
0.0
20
0.0
30
0.0
70
0
0
VERTEX
5
496
100
AcDbEntity
8
0-7図枠
6
CONTINUOUS
62
  7
100
AcDbVertex
100
AcDb2dVertex
10
3650.001000000000
20
2770.000000000000
30
0.0
0
VERTEX
5
497
100
AcDbEntity
8
0-7図枠
6
CONTINUOUS
62
  7
100
AcDbVertex
100
AcDb2dVertex
10
3850.001000000000
20
2770.000000000000
30
0.0
0
VERTEX
5
498
100
AcDbEntity
8
0-7図枠
6
CONTINUOUS
62
  7
100
AcDbVertex
100
AcDb2dVertex
10
3850.001000000000
20
2840.000000000000
30
0.0
0
VERTEX
5
499
100
AcDbEntity
8
0-7図枠
6
CONTINUOUS
62
  7
100
AcDbVertex
100
AcDb2dVertex
10
3650.001000000000
20
2840.000000000000
30
0.0
0
VERTEX
5
49a
100
AcDbEntity
8
0-7図枠
6
CONTINUOUS
62
  7
100
AcDbVertex
100
AcDb2dVertex
10
3650.001000000000
20
2770.000000000000
30
0.0
0
SEQEND
5
49b
100
AcDbEntity
8
0-7図枠
0
POLYLINE
5
49c
100
AcDbEntity
8
0-7図枠
6
CONTINUOUS
62
  7
100
AcDb2dPolyline
66
1
10
0.0
20
0.0
30
0.0
70
0
0
VERTEX
5
49d
100
AcDbEntity
8
0-7図枠
6
CONTINUOUS
62
  7
100
AcDbVertex
100
AcDb2dVertex
10
3850.001000000000
20
2770.000000000000
30
0.0
0
VERTEX
5
49e
100
AcDbEntity
8
0-7図枠
6
CONTINUOUS
62
  7
100
AcDbVertex
100
AcDb2dVertex
10
4050.001000000000
20
2770.000000000000
30
0.0
0
VERTEX
5
49f
100
AcDbEntity
8
0-7図枠
6
CONTINUOUS
62
  7
100
AcDbVertex
100
AcDb2dVertex
10
4050.001000000000
20
2840.000000000000
30
0.0
0
VERTEX
5
4a0
100
AcDbEntity
8
0-7図枠
6
CONTINUOUS
62
  7
100
AcDbVertex
100
AcDb2dVertex
10
3850.001000000000
20
2840.000000000000
30
0.0
0
VERTEX
5
4a1
100
AcDbEntity
8
0-7図枠
6
CONTINUOUS
62
  7
100
AcDbVertex
100
AcDb2dVertex
10
3850.001000000000
20
2770.000000000000
30
0.0
0
SEQEND
5
4a2
100
AcDbEntity
8
0-7図枠
0
TEXT
5
4a3
100
AcDbEntity
8
0-7図枠
62
7
370
-3
100
AcDbText
10
3104.298
20
2787.439
30
0.0
40
37.807
1
記号
41
0.856
50
0.000
100
AcDbText
0
TEXT
5
4a4
100
AcDbEntity
8
0-7図枠
62
7
370
-3
100
AcDbText
10
3294.298
20
2787.439
30
0.0
40
37.807
1
修　　　　正
41
0.856
50
0.000
100
AcDbText
0
TEXT
5
4a5
100
AcDbEntity
8
0-7図枠
62
7
370
-3
100
AcDbText
10
3686.798
20
2787.439
30
0.0
40
37.807
1
日　付
41
0.856
50
0.000
100
AcDbText
0
TEXT
5
4a6
100
AcDbEntity
8
0-7図枠
62
7
370
-3
100
AcDbText
10
3886.798
20
2787.439
30
0.0
40
37.807
1
担　当
41
0.856
50
0.000
100
AcDbText
0
MTEXT
5
4a7
100
AcDbEntity
8
0-8寸法
62
7
370
-3
100
AcDbMText
10
1725.475
20
360.442
30
0.0
40
31.790
41
0.000
71
7
72
1
1
\W1.093;挿筋とφ{\W0.787;13ｱﾝｶ-}溶接のこと
7
STANDARD
11
1.00000
21
0.00000
31
0.0
0
LINE
5
4a8
100
AcDbEntity
8
0-3RC
6
DOT
62
7
100
AcDbLine
10
949.743000000000
20
2439.595000000000
30
0.0
11
1061.743000000000
21
2439.595000000000
31
0.0
0
LINE
5
4a9
100
AcDbEntity
8
0-3RC
6
DOT
62
7
100
AcDbLine
10
1074.743000000000
20
2439.595000000000
30
0.0
11
1193.243000000000
21
2439.595000000000
31
0.0
0
ARC
5
4aa
100
AcDbEntity
8
0-6戸当り
6
CONTINUOUS
62
7
100
AcDbCircle
10
2376.827000000000
20
1345.135000000000
30
0.0
40
18.152000000000
100
AcDbArc
50
162.412000000000
51
197.588000000000
0
ARC
5
4ab
100
AcDbEntity
8
0-6戸当り
6
CONTINUOUS
62
7
100
AcDbCircle
10
2376.827000000000
20
1345.135000000000
30
0.0
40
18.152000000000
100
AcDbArc
50
162.412000000000
51
197.588000000000
0
POLYLINE
5
4ac
100
AcDbEntity
  8
0-8寸法
6
CONTINUOUS
62
4
100
AcDb2dPolyline
66
1
10
0
20
0
70
1
40
4.000
41
4.000
0
VERTEX
5
4ad
100
AcDbEntity
  8
0-8寸法
6
CONTINUOUS
62
4
100
AcDbVertex
100
AcDb2dVertex
10
1104.411
20
843.381
30
0.0
42
1.000
0
VERTEX
5
4ae
100
AcDbEntity
  8
0-8寸法
6
CONTINUOUS
62
4
100
AcDbVertex
100
AcDb2dVertex
10
1108.411
20
843.381
30
0.0
42
1.000
0
SEQEND
5
4af
100
AcDbEntity
  8
0-8寸法
0
POLYLINE
5
4b0
100
AcDbEntity
  8
0-8寸法
6
CONTINUOUS
62
4
100
AcDb2dPolyline
66
1
10
0
20
0
70
1
40
4.000
41
4.000
0
VERTEX
5
4b1
100
AcDbEntity
  8
0-8寸法
6
CONTINUOUS
62
4
100
AcDbVertex
100
AcDb2dVertex
10
1104.411
20
843.381
30
0.0
42
1.000
0
VERTEX
5
4b2
100
AcDbEntity
  8
0-8寸法
6
CONTINUOUS
62
4
100
AcDbVertex
100
AcDb2dVertex
10
1108.411
20
843.381
30
0.0
42
1.000
0
SEQEND
5
4b3
100
AcDbEntity
  8
0-8寸法
0
LINE
5
4b4
100
AcDbEntity
8
0-6戸当り
6
CONTINUOUS
62
6
100
AcDbLine
10
2346.675000000000
20
1351.135000000000
30
0.0
11
2346.675000000000
21
1339.135000000000
31
0.0
0
LINE
5
4b5
100
AcDbEntity
8
0-3RC
6
CONTINUOUS
62
7
100
AcDbLine
10
2371.675000000000
20
1210.135000000000
30
0.0
11
2571.675000000000
21
1210.135000000000
31
0.0
0
LINE
5
4b6
100
AcDbEntity
8
0-3RC
6
CONTINUOUS
62
7
100
AcDbLine
10
2371.675000000000
20
860.135000000000
30
0.0
11
2571.675000000000
21
860.135000000000
31
0.0
0
LINE
5
4b7
100
AcDbEntity
8
0-6戸当り
6
CONTINUOUS
62
4
100
AcDbLine
10
2368.675000000000
20
1334.385000000000
30
0.0
11
2371.675000000000
21
1334.385000000000
31
0.0
0
LINE
5
4b8
100
AcDbEntity
8
0-6戸当り
6
CONTINUOUS
62
4
100
AcDbLine
10
2368.675000000000
20
1355.885000000000
30
0.0
11
2371.675000000000
21
1355.885000000000
31
0.0
0
LINE
5
4b9
100
AcDbEntity
8
0-6戸当り
6
CONTINUOUS
62
7
100
AcDbLine
10
2358.675000000000
20
1335.635000000000
30
0.0
11
2358.675000000000
21
1354.635000000000
31
0.0
0
LINE
5
4ba
100
AcDbEntity
8
0-6戸当り
6
CONTINUOUS
62
7
100
AcDbLine
10
2358.675000000000
20
1335.635000000000
30
0.0
11
2359.524000000000
21
1334.166000000000
31
0.0
0
LINE
5
4bb
100
AcDbEntity
8
0-6戸当り
6
CONTINUOUS
62
7
100
AcDbLine
10
2358.675000000000
20
1354.635000000000
30
0.0
11
2359.524000000000
21
1356.105000000000
31
0.0
0
LINE
5
4bc
100
AcDbEntity
8
0-6戸当り
6
CONTINUOUS
62
7
100
AcDbLine
10
2368.675000000000
20
1334.166000000000
30
0.0
11
2359.524000000000
21
1334.166000000000
31
0.0
0
LINE
5
4bd
100
AcDbEntity
8
0-6戸当り
6
CONTINUOUS
62
7
100
AcDbLine
10
2368.675000000000
20
1356.105000000000
30
0.0
11
2359.524000000000
21
1356.105000000000
31
0.0
0
LINE
5
4be
100
AcDbEntity
8
0-6戸当り
6
CONTINUOUS
62
4
100
AcDbLine
10
2368.675000000000
20
1334.166000000000
30
0.0
11
2368.675000000000
21
1356.105000000000
31
0.0
0
LINE
5
4bf
100
AcDbEntity
8
0-6戸当り
6
CONTINUOUS
62
7
100
AcDbLine
10
2368.675000000000
20
1339.650000000000
30
0.0
11
2359.524000000000
21
1339.650000000000
31
0.0
0
LINE
5
4c0
100
AcDbEntity
8
0-6戸当り
6
CONTINUOUS
62
7
100
AcDbLine
10
2368.675000000000
20
1350.620000000000
30
0.0
11
2359.524000000000
21
1350.620000000000
31
0.0
0
LINE
5
4c1
100
AcDbEntity
8
0-6戸当り
6
CONTINUOUS
62
4
100
AcDbLine
10
2368.675000000000
20
1345.135000000000
30
0.0
11
2371.675000000000
21
1342.135000000000
31
0.0
0
LINE
5
4c2
100
AcDbEntity
8
0-6戸当り
6
CONTINUOUS
62
4
100
AcDbLine
10
2371.675000000000
20
1345.135000000000
30
0.0
11
2368.675000000000
21
1348.135000000000
31
0.0
0
LINE
5
4c3
100
AcDbEntity
8
0-6戸当り
6
CONTINUOUS
62
6
100
AcDbLine
10
2346.675000000000
20
1351.135000000000
30
0.0
11
2358.675000000000
21
1351.135000000000
31
0.0
0
LINE
5
4c4
100
AcDbEntity
8
0-6戸当り
6
CONTINUOUS
62
6
100
AcDbLine
10
2346.675000000000
20
1350.135000000000
30
0.0
11
2358.675000000000
21
1350.135000000000
31
0.0
0
LINE
5
4c5
100
AcDbEntity
8
0-6戸当り
6
CONTINUOUS
62
6
100
AcDbLine
10
2346.675000000000
20
1340.135000000000
30
0.0
11
2358.675000000000
21
1340.135000000000
31
0.0
0
LINE
5
4c6
100
AcDbEntity
8
0-6戸当り
6
CONTINUOUS
62
6
100
AcDbLine
10
2346.675000000000
20
1339.135000000000
30
0.0
11
2358.675000000000
21
1339.135000000000
31
0.0
0
LINE
5
4c7
100
AcDbEntity
8
0-5基準線
6
CENTER2
62
7
100
AcDbLine
10
2440.675000000000
20
1355.135000000000
30
0.0
11
2440.675000000000
21
1335.135000000000
31
0.0
0
LINE
5
4c8
100
AcDbEntity
8
0-6戸当り
6
CONTINUOUS
62
6
100
AcDbLine
10
2396.675000000000
20
1351.135000000000
30
0.0
11
2396.675000000000
21
1339.135000000000
31
0.0
0
LINE
5
4c9
100
AcDbEntity
8
0-6戸当り
6
CONTINUOUS
62
7
100
AcDbLine
10
2387.675000000000
20
1354.635000000000
30
0.0
11
2387.675000000000
21
1335.635000000000
31
0.0
0
LINE
5
4ca
100
AcDbEntity
8
0-6戸当り
6
CONTINUOUS
62
7
100
AcDbLine
10
2387.675000000000
20
1354.635000000000
30
0.0
11
2386.826000000000
21
1356.105000000000
31
0.0
0
LINE
5
4cb
100
AcDbEntity
8
0-6戸当り
6
CONTINUOUS
62
7
100
AcDbLine
10
2387.675000000000
20
1335.635000000000
30
0.0
11
2386.826000000000
21
1334.166000000000
31
0.0
0
LINE
5
4cc
100
AcDbEntity
8
0-6戸当り
6
CONTINUOUS
62
7
100
AcDbLine
10
2377.675000000000
20
1356.105000000000
30
0.0
11
2386.826000000000
21
1356.105000000000
31
0.0
0
LINE
5
4cd
100
AcDbEntity
8
0-6戸当り
6
CONTINUOUS
62
7
100
AcDbLine
10
2377.675000000000
20
1334.166000000000
30
0.0
11
2386.826000000000
21
1334.166000000000
31
0.0
0
LINE
5
4ce
100
AcDbEntity
8
0-6戸当り
6
CONTINUOUS
62
7
100
AcDbLine
10
2377.675000000000
20
1350.620000000000
30
0.0
11
2386.826000000000
21
1350.620000000000
31
0.0
0
LINE
5
4cf
100
AcDbEntity
8
0-6戸当り
6
CONTINUOUS
62
7
100
AcDbLine
10
2377.675000000000
20
1339.650000000000
30
0.0
11
2386.826000000000
21
1339.650000000000
31
0.0
0
LINE
5
4d0
100
AcDbEntity
8
0-6戸当り
6
CONTINUOUS
62
6
100
AcDbLine
10
2387.675000000000
20
1351.135000000000
30
0.0
11
2440.675000000000
21
1351.135000000000
31
0.0
0
LINE
5
4d1
100
AcDbEntity
8
0-6戸当り
6
CONTINUOUS
62
6
100
AcDbLine
10
2387.675000000000
20
1339.135000000000
30
0.0
11
2440.675000000000
21
1339.135000000000
31
0.0
0
LINE
5
4d2
100
AcDbEntity
8
0-6戸当り
6
CONTINUOUS
62
6
100
AcDbLine
10
2387.675000000000
20
1350.135000000000
30
0.0
11
2396.675000000000
21
1350.135000000000
31
0.0
0
LINE
5
4d3
100
AcDbEntity
8
0-6戸当り
6
CONTINUOUS
62
6
100
AcDbLine
10
2387.675000000000
20
1340.135000000000
30
0.0
11
2396.675000000000
21
1340.135000000000
31
0.0
0
LINE
5
4d4
100
AcDbEntity
8
0-5基準線
6
CENTER2
62
7
100
AcDbLine
10
2450.675000000000
20
1345.135000000000
30
0.0
11
2343.008000000000
21
1345.135000000000
31
0.0
0
LINE
5
4d5
100
AcDbEntity
8
0-3RC
6
CONTINUOUS
62
6
100
AcDbLine
10
2452.902000000000
20
710.135000000000
30
0.0
11
2496.675000000000
21
753.908000000000
31
0.0
0
LINE
5
4d6
100
AcDbEntity
8
0-3RC
6
CONTINUOUS
62
6
100
AcDbLine
10
2382.191000000000
20
710.135000000000
30
0.0
11
2496.675000000000
21
824.619000000000
31
0.0
0
LINE
5
4d7
100
AcDbEntity
8
0-3RC
6
CONTINUOUS
62
6
100
AcDbLine
10
2371.675000000000
20
770.330000000000
30
0.0
11
2461.480000000000
21
860.135000000000
31
0.0
0
LINE
5
4d8
100
AcDbEntity
8
0-3RC
6
CONTINUOUS
62
6
100
AcDbLine
10
2478.638000000000
20
1210.135000000000
30
0.0
11
2496.675000000000
21
1228.172000000000
31
0.0
0
LINE
5
4d9
100
AcDbEntity
8
0-3RC
6
CONTINUOUS
62
6
100
AcDbLine
10
2371.675000000000
20
1386.015000000000
30
0.0
11
2395.795000000000
21
1410.135000000000
31
0.0
0
LINE
5
4da
100
AcDbEntity
8
0-3RC
6
CONTINUOUS
62
6
100
AcDbLine
10
2377.675000000000
20
1321.304000000000
30
0.0
11
2466.506000000000
21
1410.135000000000
31
0.0
0
LINE
5
4db
100
AcDbEntity
8
0-3RC
6
CONTINUOUS
62
6
100
AcDbLine
10
2413.927000000000
20
1216.135000000000
30
0.0
11
2496.675000000000
21
1298.883000000000
31
0.0
0
LINE
5
4dc
100
AcDbEntity
8
0-3RC
6
CONTINUOUS
62
6
100
AcDbLine
10
2453.951000000000
20
1210.135000000000
30
0.0
11
2496.675000000000
21
1167.411000000000
31
0.0
0
LINE
5
4dd
100
AcDbEntity
8
0-A文字
6
CONTINUOUS
62
7
100
AcDbLine
10
1948.694000000000
20
1055.135000000000
30
0.0
11
2149.393000000000
21
1055.135000000000
31
0.0
0
LINE
5
4de
100
AcDbEntity
8
0-A文字
6
CONTINUOUS
62
7
100
AcDbLine
10
1948.694000000000
20
1015.135000000000
30
0.0
11
2149.393000000000
21
1015.135000000000
31
0.0
0
LINE
5
4df
100
AcDbEntity
8
0-A文字
6
CONTINUOUS
62
7
100
AcDbLine
10
1948.694000000000
20
1055.135000000000
30
0.0
11
1948.694000000000
21
1015.135000000000
31
0.0
0
LINE
5
4e0
100
AcDbEntity
8
0-A文字
6
CONTINUOUS
62
7
100
AcDbLine
10
2149.393000000000
20
1055.135000000000
30
0.0
11
2149.393000000000
21
1075.135000000000
31
0.0
0
LINE
5
4e1
100
AcDbEntity
8
0-A文字
6
CONTINUOUS
62
7
100
AcDbLine
10
2149.393000000000
20
1015.135000000000
30
0.0
11
2149.393000000000
21
995.135000000000
31
0.0
0
LINE
5
4e2
100
AcDbEntity
8
0-A文字
6
CONTINUOUS
62
7
100
AcDbLine
10
2149.393000000000
20
1075.135000000000
30
0.0
11
2218.675000000000
21
1035.135000000000
31
0.0
0
LINE
5
4e3
100
AcDbEntity
8
0-A文字
6
CONTINUOUS
62
7
100
AcDbLine
10
2149.393000000000
20
995.135000000000
30
0.0
11
2218.675000000000
21
1035.135000000000
31
0.0
0
LINE
5
4e4
100
AcDbEntity
8
0-A文字
6
CONTINUOUS
62
4
100
AcDbLine
10
1093.448000000000
20
1065.691000000000
30
0.0
11
1289.477000000000
21
1065.691000000000
31
0.0
0
LINE
5
4e5
100
AcDbEntity
8
0-6戸当り
6
CONTINUOUS
62
3
100
AcDbLine
10
1394.743000000000
20
2347.594000000000
30
0.0
11
1374.243000000000
21
2347.594000000000
31
0.0
0
LINE
5
4e6
100
AcDbEntity
8
0-6戸当り
6
CONTINUOUS
62
3
100
AcDbLine
10
1394.743000000000
20
2360.594000000000
30
0.0
11
1374.243000000000
21
2360.594000000000
31
0.0
0
LINE
5
4e7
100
AcDbEntity
8
0-6戸当り
6
CONTINUOUS
62
3
100
AcDbLine
10
1401.243000000000
20
2341.094000000000
30
0.0
11
1401.243000000000
21
2320.595000000000
31
0.0
0
LINE
5
4e8
100
AcDbEntity
8
0-6戸当り
6
CONTINUOUS
62
3
100
AcDbLine
10
1414.243000000000
20
2341.094000000000
30
0.0
11
1414.243000000000
21
2320.595000000000
31
0.0
0
LINE
5
4e9
100
AcDbEntity
8
0-5基準線
6
CENTER2
62
7
100
AcDbLine
10
1407.743000000000
20
2341.094000000000
30
0.0
11
1407.743000000000
21
2317.574000000000
31
0.0
0
LINE
5
4ea
100
AcDbEntity
8
0-5基準線
6
CENTER2
62
7
100
AcDbLine
10
1394.743000000000
20
2354.094000000000
30
0.0
11
1371.422000000000
21
2354.094000000000
31
0.0
0
LINE
5
4eb
100
AcDbEntity
8
0-3RC
6
CONTINUOUS
62
7
100
AcDbLine
10
1368.243000000000
20
2314.595000000000
30
0.0
11
1368.243000000000
21
2514.595000000000
31
0.0
0
LINE
5
4ec
100
AcDbEntity
8
0-8寸法
6
CONTINUOUS
62
4
100
AcDbLine
10
1938.467000000000
20
1410.135000000000
30
0.0
11
2136.695000000000
21
1410.135000000000
31
0.0
0
LINE
5
4ed
100
AcDbEntity
8
0-8寸法
6
CONTINUOUS
62
4
100
AcDbLine
10
1952.776000000000
20
1400.135000000000
30
0.0
11
2122.717000000000
21
1400.135000000000
31
0.0
0
LINE
5
4ee
100
AcDbEntity
8
0-8寸法
6
CONTINUOUS
62
4
100
AcDbLine
10
1971.168000000000
20
1390.135000000000
30
0.0
11
2102.118000000000
21
1390.135000000000
31
0.0
0
LINE
5
4ef
100
AcDbEntity
8
0-8寸法
6
CONTINUOUS
62
4
100
AcDbLine
10
1991.031000000000
20
1380.135000000000
30
0.0
11
2083.726000000000
21
1380.135000000000
31
0.0
0
LINE
5
4f0
100
AcDbEntity
8
0-8寸法
6
CONTINUOUS
62
4
100
AcDbLine
10
2009.423000000000
20
1370.135000000000
30
0.0
11
2062.392000000000
21
1370.135000000000
31
0.0
0
LINE
5
4f1
100
AcDbEntity
8
0-8寸法
6
CONTINUOUS
62
4
100
AcDbLine
10
2021.929000000000
20
1360.135000000000
30
0.0
11
2047.678000000000
21
1360.135000000000
31
0.0
0
LINE
5
4f2
100
AcDbEntity
8
0-8寸法
6
CONTINUOUS
62
4
100
AcDbLine
10
1911.557000000000
20
1410.135000000000
30
0.0
11
1858.675000000000
21
1410.135000000000
31
0.0
0
LINE
5
4f3
100
AcDbEntity
8
0-8寸法
6
CONTINUOUS
62
4
100
AcDbLine
10
1868.675000000000
20
820.135000000000
30
0.0
11
1863.499000000000
21
839.453000000000
31
0.0
0
LINE
5
4f4
100
AcDbEntity
8
0-8寸法
6
CONTINUOUS
62
4
100
AcDbLine
10
1868.675000000000
20
820.135000000000
30
0.0
11
1873.852000000000
21
839.453000000000
31
0.0
0
LINE
5
4f5
100
AcDbEntity
8
0-8寸法
6
CONTINUOUS
62
4
100
AcDbLine
10
1871.675000000000
20
1410.135000000000
30
0.0
11
1866.499000000000
21
1390.817000000000
31
0.0
0
LINE
5
4f6
100
AcDbEntity
8
0-8寸法
6
CONTINUOUS
62
4
100
AcDbLine
10
1871.675000000000
20
1410.135000000000
30
0.0
11
1876.852000000000
21
1390.817000000000
31
0.0
0
LINE
5
4f7
100
AcDbEntity
8
0-8寸法
6
CONTINUOUS
62
4
100
AcDbLine
10
1708.353000000000
20
410.135000000000
30
0.0
11
2271.675000000000
21
410.135000000000
31
0.0
0
LINE
5
4f8
100
AcDbEntity
8
0-8寸法
6
CONTINUOUS
62
4
100
AcDbLine
10
1708.353000000000
20
610.135000000000
30
0.0
11
2271.675000000000
21
610.135000000000
31
0.0
0
LINE
5
4f9
100
AcDbEntity
8
0-8寸法
6
CONTINUOUS
62
4
100
AcDbLine
10
1708.353000000000
20
510.135000000000
30
0.0
11
2271.675000000000
21
510.135000000000
31
0.0
0
LINE
5
4fa
100
AcDbEntity
8
0-8寸法
6
CONTINUOUS
62
4
100
AcDbLine
10
1551.259000000000
20
2135.135000000000
30
0.0
11
2235.721000000000
21
2135.135000000000
31
0.0
0
LINE
5
4fb
100
AcDbEntity
8
0-8寸法
6
CONTINUOUS
62
4
100
AcDbLine
10
1551.259000000000
20
2035.136000000000
30
0.0
11
2235.721000000000
21
2035.136000000000
31
0.0
0
LINE
5
4fc
100
AcDbEntity
8
0-8寸法
6
CONTINUOUS
62
4
100
AcDbLine
10
1551.259000000000
20
1935.135000000000
30
0.0
11
2235.721000000000
21
1935.135000000000
31
0.0
0
LINE
5
4fd
100
AcDbEntity
8
0-8寸法
6
CONTINUOUS
62
4
100
AcDbLine
10
2271.675000000000
20
610.135000000000
30
0.0
11
2271.675000000000
21
510.135000000000
31
0.0
0
LINE
5
4fe
100
AcDbEntity
8
0-8寸法
6
CONTINUOUS
62
4
100
AcDbLine
10
2271.675000000000
20
610.135000000000
30
0.0
11
2371.675000000000
21
810.135000000000
31
0.0
0
LINE
5
4ff
100
AcDbEntity
8
0-3RC
6
CONTINUOUS
62
7
100
AcDbLine
10
2371.675000000000
20
1460.135000000000
30
0.0
11
2371.675000000000
21
1095.247000000000
31
0.0
0
LINE
5
500
100
AcDbEntity
8
0-8寸法
6
CONTINUOUS
62
4
100
AcDbLine
10
1551.259000000000
20
2135.135000000000
30
0.0
11
1551.259000000000
21
1935.135000000000
31
0.0
0
LINE
5
501
100
AcDbEntity
8
0-3RC
6
CONTINUOUS
62
4
100
AcDbLine
10
1478.935000000000
20
2314.595000000000
30
0.0
11
1518.243000000000
21
2353.903000000000
31
0.0
0
LINE
5
502
100
AcDbEntity
8
0-3RC
6
DOT
62
4
100
AcDbLine
10
954.517000000000
20
2439.595000000000
30
0.0
11
1079.517000000000
21
2314.595000000000
31
0.0
0
LINE
5
503
100
AcDbEntity
8
0-3RC
6
DOT
62
4
100
AcDbLine
10
1025.228000000000
20
2439.595000000000
30
0.0
11
1150.228000000000
21
2314.595000000000
31
0.0
0
LINE
5
504
100
AcDbEntity
8
0-3RC
6
DOT
62
4
100
AcDbLine
10
1095.938000000000
20
2439.595000000000
30
0.0
11
1193.243000000000
21
2342.290000000000
31
0.0
0
LINE
5
505
100
AcDbEntity
8
0-3RC
6
DOT
62
4
100
AcDbLine
10
1166.649000000000
20
2439.595000000000
30
0.0
11
1193.243000000000
21
2413.000000000000
31
0.0
0
LINE
5
506
100
AcDbEntity
8
0-6戸当り
6
CONTINUOUS
62
3
100
AcDbLine
10
1418.243000000000
20
2316.095000000000
30
0.0
11
1418.243000000000
21
2314.595000000000
31
0.0
0
LINE
5
507
100
AcDbEntity
8
0-6戸当り
6
CONTINUOUS
62
3
100
AcDbLine
10
1374.243000000000
20
2327.095000000000
30
0.0
11
1374.243000000000
21
2360.095000000000
31
0.0
0
LINE
5
508
100
AcDbEntity
8
0-6戸当り
6
CONTINUOUS
62
3
100
AcDbLine
10
1380.743000000000
20
2320.595000000000
30
0.0
11
1413.743000000000
21
2320.595000000000
31
0.0
0
LINE
5
509
100
AcDbEntity
8
0-6戸当り
6
DOT
62
3
100
AcDbLine
10
985.243000000000
20
2341.094000000000
30
0.0
11
985.243000000000
21
2320.595000000000
31
0.0
0
LINE
5
50a
100
AcDbEntity
8
0-6戸当り
6
DOT
62
3
100
AcDbLine
10
972.243000000000
20
2341.094000000000
30
0.0
11
972.243000000000
21
2320.595000000000
31
0.0
0
LINE
5
50b
100
AcDbEntity
8
0-5基準線
6
CENTER2
62
7
100
AcDbLine
10
978.743000000000
20
2341.094000000000
30
0.0
11
978.743000000000
21
2317.574000000000
31
0.0
0
LINE
5
50c
100
AcDbEntity
8
0-6戸当り
6
DOT
62
3
100
AcDbLine
10
968.243000000000
20
2316.095000000000
30
0.0
11
968.243000000000
21
2314.595000000000
31
0.0
0
LINE
5
50d
100
AcDbEntity
8
0-6戸当り
6
CONTINUOUS
62
3
100
AcDbLine
10
2404.675000000000
20
833.635000000000
30
0.0
11
2404.675000000000
21
854.135000000000
31
0.0
0
LINE
5
50e
100
AcDbEntity
8
0-6戸当り
6
CONTINUOUS
62
3
100
AcDbLine
10
2417.675000000000
20
833.635000000000
30
0.0
11
2417.675000000000
21
854.135000000000
31
0.0
0
LINE
5
50f
100
AcDbEntity
8
0-6戸当り
6
CONTINUOUS
62
3
100
AcDbLine
10
2398.175000000000
20
827.135000000000
30
0.0
11
2377.675000000000
21
827.135000000000
31
0.0
0
LINE
5
510
100
AcDbEntity
8
0-6戸当り
6
CONTINUOUS
62
3
100
AcDbLine
10
2398.175000000000
20
814.135000000000
30
0.0
11
2377.675000000000
21
814.135000000000
31
0.0
0
LINE
5
511
100
AcDbEntity
8
0-5基準線
6
CENTER2
62
7
100
AcDbLine
10
2398.175000000000
20
820.635000000000
30
0.0
11
2374.654000000000
21
820.635000000000
31
0.0
0
LINE
5
512
100
AcDbEntity
8
0-5基準線
6
CENTER2
62
7
100
AcDbLine
10
2411.175000000000
20
833.635000000000
30
0.0
11
2411.175000000000
21
856.956000000000
31
0.0
0
LINE
5
513
100
AcDbEntity
8
0-6戸当り
6
CONTINUOUS
62
3
100
AcDbLine
10
2373.175000000000
20
810.135000000000
30
0.0
11
2371.675000000000
21
810.135000000000
31
0.0
0
LINE
5
514
100
AcDbEntity
8
0-6戸当り
6
CONTINUOUS
62
3
100
AcDbLine
10
2384.175000000000
20
854.135000000000
30
0.0
11
2417.175000000000
21
854.135000000000
31
0.0
0
LINE
5
515
100
AcDbEntity
8
0-6戸当り
6
CONTINUOUS
62
3
100
AcDbLine
10
2377.675000000000
20
847.635000000000
30
0.0
11
2377.675000000000
21
814.635000000000
31
0.0
0
LINE
5
516
100
AcDbEntity
8
0-3RC
6
CONTINUOUS
62
6
100
AcDbLine
10
2377.675000000000
20
847.041000000000
30
0.0
11
2384.769000000000
21
854.135000000000
31
0.0
0
LINE
5
517
100
AcDbEntity
8
0-6戸当り
6
CONTINUOUS
62
3
100
AcDbLine
10
2404.675000000000
20
1236.635000000000
30
0.0
11
2404.675000000000
21
1216.135000000000
31
0.0
0
LINE
5
518
100
AcDbEntity
8
0-6戸当り
6
CONTINUOUS
62
3
100
AcDbLine
10
2417.675000000000
20
1236.635000000000
30
0.0
11
2417.675000000000
21
1216.135000000000
31
0.0
0
LINE
5
519
100
AcDbEntity
8
0-6戸当り
6
CONTINUOUS
62
3
100
AcDbLine
10
2398.175000000000
20
1243.135000000000
30
0.0
11
2377.675000000000
21
1243.135000000000
31
0.0
0
LINE
5
51a
100
AcDbEntity
8
0-6戸当り
6
CONTINUOUS
62
3
100
AcDbLine
10
2398.175000000000
20
1256.135000000000
30
0.0
11
2377.675000000000
21
1256.135000000000
31
0.0
0
LINE
5
51b
100
AcDbEntity
8
0-5基準線
6
CENTER2
62
7
100
AcDbLine
10
2398.175000000000
20
1249.635000000000
30
0.0
11
2374.654000000000
21
1249.635000000000
31
0.0
0
LINE
5
51c
100
AcDbEntity
8
0-5基準線
6
CENTER2
62
7
100
AcDbLine
10
2411.175000000000
20
1236.635000000000
30
0.0
11
2411.175000000000
21
1213.314000000000
31
0.0
0
LINE
5
51d
100
AcDbEntity
8
0-6戸当り
6
CONTINUOUS
62
6
100
AcDbLine
10
2383.675000000000
20
1216.154000000000
30
0.0
11
2383.675000000000
21
1243.135000000000
31
0.0
0
LINE
5
51e
100
AcDbEntity
8
0-3RC
6
CONTINUOUS
62
6
100
AcDbLine
10
2457.456000000000
20
969.498000000000
30
0.0
11
2496.675000000000
21
930.279000000000
31
0.0
0
LINE
5
51f
100
AcDbEntity
8
0-8寸法
6
CONTINUOUS
62
4
100
AcDbLine
10
2371.675000000000
20
810.135000000000
30
0.0
11
2367.666000000000
21
790.541000000000
31
0.0
0
LINE
5
520
100
AcDbEntity
8
0-8寸法
6
CONTINUOUS
62
4
100
AcDbLine
10
2371.675000000000
20
810.135000000000
30
0.0
11
2358.406000000000
21
795.171000000000
31
0.0
0
LINE
5
521
100
AcDbEntity
8
0-3RC
6
CONTINUOUS
62
6
100
AcDbLine
10
2421.675000000000
20
1146.701000000000
30
0.0
11
2496.675000000000
21
1071.701000000000
31
0.0
0
LINE
5
522
100
AcDbEntity
8
0-3RC
6
CONTINUOUS
62
6
100
AcDbLine
10
2421.675000000000
20
1075.990000000000
30
0.0
11
2452.919000000000
21
1044.746000000000
31
0.0
0
LINE
5
523
100
AcDbEntity
8
0-3RC
6
CONTINUOUS
62
4
100
AcDbLine
10
1193.243000000000
20
2413.001000000000
30
0.0
11
1241.650000000000
21
2364.595000000000
31
0.0
0
LINE
5
524
100
AcDbEntity
8
0-3RC
6
CONTINUOUS
62
4
100
AcDbLine
10
1237.360000000000
20
2439.595000000000
30
0.0
11
1312.360000000000
21
2364.595000000000
31
0.0
0
LINE
5
525
100
AcDbEntity
8
0-3RC
6
CONTINUOUS
62
4
100
AcDbLine
10
1374.243000000000
20
2351.325000000000
30
0.0
11
1462.513000000000
21
2439.595000000000
31
0.0
0
LINE
5
526
100
AcDbEntity
8
0-3RC
6
CONTINUOUS
62
4
100
AcDbLine
10
1414.224000000000
20
2320.595000000000
30
0.0
11
1518.243000000000
21
2424.614000000000
31
0.0
0
LINE
5
527
100
AcDbEntity
8
0-6戸当り
6
CONTINUOUS
62
6
100
AcDbLine
10
2377.675000000000
20
1360.135000000000
30
0.0
11
2377.675000000000
21
1222.635000000000
31
0.0
0
LINE
5
528
100
AcDbEntity
8
0-6戸当り
6
CONTINUOUS
62
6
100
AcDbLine
10
2371.675000000000
20
1360.135000000000
30
0.0
11
2377.675000000000
21
1360.135000000000
31
0.0
0
LINE
5
529
100
AcDbEntity
8
0-6戸当り
6
CONTINUOUS
62
6
100
AcDbLine
10
2427.675000000000
20
1339.135000000000
30
0.0
11
2427.675000000000
21
1216.135000000000
31
0.0
0
LINE
5
52a
100
AcDbEntity
8
0-6戸当り
6
CONTINUOUS
62
3
100
AcDbLine
10
2377.675000000000
20
1356.135000000000
30
0.0
11
2427.675000000000
21
1356.135000000000
31
0.0
0
LINE
5
52b
100
AcDbEntity
8
0-6戸当り
6
CONTINUOUS
62
6
100
AcDbLine
10
2427.675000000000
20
1356.135000000000
30
0.0
11
2427.675000000000
21
1351.135000000000
31
0.0
0
LINE
5
52c
100
AcDbEntity
8
0-6戸当り
6
CONTINUOUS
62
3
100
AcDbLine
10
2373.175000000000
20
1260.135000000000
30
0.0
11
2371.675000000000
21
1260.135000000000
31
0.0
0
LINE
5
52d
100
AcDbEntity
8
0-6戸当り
6
CONTINUOUS
62
3
100
AcDbLine
10
2384.175000000000
20
1216.135000000000
30
0.0
11
2427.675000000000
21
1216.135000000000
31
0.0
0
LINE
5
52e
100
AcDbEntity
8
0-6戸当り
6
CONTINUOUS
62
3
100
AcDbLine
10
968.243000000000
20
810.135000000000
30
0.0
11
968.243000000000
21
1260.135000000000
31
0.0
0
POLYLINE
5
52f
100
AcDbEntity
8
0-6戸当り
6
CONTINUOUS
62
  3
100
AcDb2dPolyline
66
1
10
0.0
20
0.0
30
0.0
70
0
0
VERTEX
5
530
100
AcDbEntity
8
0-6戸当り
6
CONTINUOUS
62
  3
100
AcDbVertex
100
AcDb2dVertex
10
1418.243000000000
20
1260.135000000000
30
0.0
0
VERTEX
5
531
100
AcDbEntity
8
0-6戸当り
6
CONTINUOUS
62
  3
100
AcDbVertex
100
AcDb2dVertex
10
1418.243000000000
20
810.135000000000
30
0.0
0
VERTEX
5
532
100
AcDbEntity
8
0-6戸当り
6
CONTINUOUS
62
  3
100
AcDbVertex
100
AcDb2dVertex
10
968.243000000000
20
810.135000000000
30
0.0
0
SEQEND
5
533
100
AcDbEntity
8
0-6戸当り
0
LINE
5
534
100
AcDbEntity
8
0-8寸法
6
CONTINUOUS
62
4
100
AcDbLine
10
903.243000000000
20
535.135000000000
30
0.0
11
1106.411000000000
21
843.381000000000
31
0.0
0
POLYLINE
5
535
100
AcDbEntity
8
0-3RC
6
CONTINUOUS
62
  7
100
AcDb2dPolyline
66
1
10
0.0
20
0.0
30
0.0
70
0
0
VERTEX
5
536
100
AcDbEntity
8
0-3RC
6
CONTINUOUS
62
  7
100
AcDbVertex
100
AcDb2dVertex
10
1518.243000000000
20
710.135000000000
30
0.0
0
VERTEX
5
537
100
AcDbEntity
8
0-3RC
6
CONTINUOUS
62
  7
100
AcDbVertex
100
AcDb2dVertex
10
868.243000000000
20
710.135000000000
30
0.0
0
VERTEX
5
538
100
AcDbEntity
8
0-3RC
6
CONTINUOUS
62
  7
100
AcDbVertex
100
AcDb2dVertex
10
868.243000000000
20
1410.135000000000
30
0.0
0
VERTEX
5
539
100
AcDbEntity
8
0-3RC
6
CONTINUOUS
62
  7
100
AcDbVertex
100
AcDb2dVertex
10
1518.243000000000
20
1410.135000000000
30
0.0
0
VERTEX
5
53a
100
AcDbEntity
8
0-3RC
6
CONTINUOUS
62
  7
100
AcDbVertex
100
AcDb2dVertex
10
1518.243000000000
20
710.135000000000
30
0.0
0
SEQEND
5
53b
100
AcDbEntity
8
0-3RC
0
LINE
5
53c
100
AcDbEntity
8
0-6戸当り
6
CONTINUOUS
62
2
100
AcDbLine
10
973.243000000000
20
860.135000000000
30
0.0
11
968.243000000000
21
860.135000000000
31
0.0
0
LINE
5
53d
100
AcDbEntity
8
0-6戸当り
6
CONTINUOUS
62
2
100
AcDbLine
10
1418.243000000000
20
860.135000000000
30
0.0
11
1413.243000000000
21
860.135000000000
31
0.0
0
LINE
5
53e
100
AcDbEntity
8
0-8寸法
6
CONTINUOUS
62
4
100
AcDbLine
10
1068.243000000000
20
535.135000000000
30
0.0
11
1318.243000000000
21
535.135000000000
31
0.0
0
LINE
5
53f
100
AcDbEntity
8
0-8寸法
6
CONTINUOUS
62
4
100
AcDbLine
10
1068.243000000000
20
535.135000000000
30
0.0
11
1087.562000000000
21
540.312000000000
31
0.0
0
LINE
5
540
100
AcDbEntity
8
0-8寸法
6
CONTINUOUS
62
4
100
AcDbLine
10
1068.243000000000
20
535.135000000000
30
0.0
11
1087.562000000000
21
529.959000000000
31
0.0
0
LINE
5
541
100
AcDbEntity
8
0-8寸法
6
CONTINUOUS
62
4
100
AcDbLine
10
1318.243000000000
20
535.135000000000
30
0.0
11
1298.925000000000
21
540.312000000000
31
0.0
0
LINE
5
542
100
AcDbEntity
8
0-8寸法
6
CONTINUOUS
62
4
100
AcDbLine
10
1318.243000000000
20
535.135000000000
30
0.0
11
1298.925000000000
21
529.959000000000
31
0.0
0
LINE
5
543
100
AcDbEntity
8
0-8寸法
6
CONTINUOUS
62
4
100
AcDbLine
10
978.243000000000
20
435.135000000000
30
0.0
11
1408.243000000000
21
435.135000000000
31
0.0
0
LINE
5
544
100
AcDbEntity
8
0-8寸法
6
CONTINUOUS
62
4
100
AcDbLine
10
978.243000000000
20
800.135000000000
30
0.0
11
978.243000000000
21
425.135000000000
31
0.0
0
LINE
5
545
100
AcDbEntity
8
0-8寸法
6
CONTINUOUS
62
4
100
AcDbLine
10
1408.243000000000
20
800.135000000000
30
0.0
11
1408.243000000000
21
425.135000000000
31
0.0
0
LINE
5
546
100
AcDbEntity
8
0-8寸法
6
CONTINUOUS
62
4
100
AcDbLine
10
978.243000000000
20
435.135000000000
30
0.0
11
997.562000000000
21
440.312000000000
31
0.0
0
LINE
5
547
100
AcDbEntity
8
0-8寸法
6
CONTINUOUS
62
4
100
AcDbLine
10
978.243000000000
20
435.135000000000
30
0.0
11
997.562000000000
21
429.959000000000
31
0.0
0
LINE
5
548
100
AcDbEntity
8
0-8寸法
6
CONTINUOUS
62
4
100
AcDbLine
10
1408.243000000000
20
435.135000000000
30
0.0
11
1388.925000000000
21
440.312000000000
31
0.0
0
LINE
5
549
100
AcDbEntity
8
0-8寸法
6
CONTINUOUS
62
4
100
AcDbLine
10
1408.243000000000
20
435.135000000000
30
0.0
11
1388.925000000000
21
429.959000000000
31
0.0
0
LINE
5
54a
100
AcDbEntity
8
0-3RC
6
CONTINUOUS
62
6
100
AcDbLine
10
868.243000000000
20
758.102000000000
30
0.0
11
916.211000000000
21
710.135000000000
31
0.0
0
LINE
5
54b
100
AcDbEntity
8
0-3RC
6
CONTINUOUS
62
6
100
AcDbLine
10
868.243000000000
20
828.813000000000
30
0.0
11
986.921000000000
21
710.135000000000
31
0.0
0
LINE
5
54c
100
AcDbEntity
8
0-3RC
6
CONTINUOUS
62
6
100
AcDbLine
10
868.243000000000
20
899.524000000000
30
0.0
11
1057.632000000000
21
710.135000000000
31
0.0
0
LINE
5
54d
100
AcDbEntity
8
0-3RC
6
CONTINUOUS
62
6
100
AcDbLine
10
868.243000000000
20
970.235000000000
30
0.0
11
968.243000000000
21
870.235000000000
31
0.0
0
LINE
5
54e
100
AcDbEntity
8
0-3RC
6
CONTINUOUS
62
6
100
AcDbLine
10
1028.343000000000
20
810.135000000000
30
0.0
11
1128.343000000000
21
710.135000000000
31
0.0
0
LINE
5
54f
100
AcDbEntity
8
0-3RC
6
CONTINUOUS
62
6
100
AcDbLine
10
868.243000000000
20
1040.945000000000
30
0.0
11
968.243000000000
21
940.945000000000
31
0.0
0
LINE
5
550
100
AcDbEntity
8
0-3RC
6
CONTINUOUS
62
6
100
AcDbLine
10
1099.054000000000
20
810.135000000000
30
0.0
11
1199.054000000000
21
710.135000000000
31
0.0
0
LINE
5
551
100
AcDbEntity
8
0-3RC
6
CONTINUOUS
62
6
100
AcDbLine
10
868.243000000000
20
1111.656000000000
30
0.0
11
968.243000000000
21
1011.656000000000
31
0.0
0
LINE
5
552
100
AcDbEntity
8
0-3RC
6
CONTINUOUS
62
6
100
AcDbLine
10
1169.764000000000
20
810.135000000000
30
0.0
11
1269.764000000000
21
710.135000000000
31
0.0
0
LINE
5
553
100
AcDbEntity
8
0-3RC
6
CONTINUOUS
62
6
100
AcDbLine
10
868.243000000000
20
1182.367000000000
30
0.0
11
968.243000000000
21
1082.367000000000
31
0.0
0
LINE
5
554
100
AcDbEntity
8
0-3RC
6
CONTINUOUS
62
6
100
AcDbLine
10
1240.475000000000
20
810.135000000000
30
0.0
11
1340.475000000000
21
710.135000000000
31
0.0
0
LINE
5
555
100
AcDbEntity
8
0-3RC
6
CONTINUOUS
62
6
100
AcDbLine
10
868.243000000000
20
1253.077000000000
30
0.0
11
968.243000000000
21
1153.077000000000
31
0.0
0
LINE
5
556
100
AcDbEntity
8
0-3RC
6
CONTINUOUS
62
6
100
AcDbLine
10
1311.186000000000
20
810.135000000000
30
0.0
11
1411.186000000000
21
710.135000000000
31
0.0
0
LINE
5
557
100
AcDbEntity
8
0-3RC
6
CONTINUOUS
62
6
100
AcDbLine
10
868.243000000000
20
1323.788000000000
30
0.0
11
968.243000000000
21
1223.788000000000
31
0.0
0
LINE
5
558
100
AcDbEntity
8
0-3RC
6
CONTINUOUS
62
6
100
AcDbLine
10
1381.896000000000
20
810.135000000000
30
0.0
11
1481.897000000000
21
710.135000000000
31
0.0
0
LINE
5
559
100
AcDbEntity
8
0-3RC
6
CONTINUOUS
62
6
100
AcDbLine
10
1418.243000000000
20
844.499000000000
30
0.0
11
1518.243000000000
21
744.499000000000
31
0.0
0
LINE
5
55a
100
AcDbEntity
8
0-3RC
6
CONTINUOUS
62
6
100
AcDbLine
10
1418.243000000000
20
915.210000000000
30
0.0
11
1518.243000000000
21
815.210000000000
31
0.0
0
LINE
5
55b
100
AcDbEntity
8
0-3RC
6
CONTINUOUS
62
6
100
AcDbLine
10
1418.243000000000
20
985.920000000000
30
0.0
11
1518.243000000000
21
885.920000000000
31
0.0
0
LINE
5
55c
100
AcDbEntity
8
0-3RC
6
CONTINUOUS
62
6
100
AcDbLine
10
1418.243000000000
20
1056.631000000000
30
0.0
11
1518.243000000000
21
956.631000000000
31
0.0
0
LINE
5
55d
100
AcDbEntity
8
0-3RC
6
CONTINUOUS
62
6
100
AcDbLine
10
1418.243000000000
20
1127.342000000000
30
0.0
11
1518.243000000000
21
1027.342000000000
31
0.0
0
LINE
5
55e
100
AcDbEntity
8
0-3RC
6
CONTINUOUS
62
6
100
AcDbLine
10
1418.243000000000
20
1198.053000000000
30
0.0
11
1518.243000000000
21
1098.053000000000
31
0.0
0
LINE
5
55f
100
AcDbEntity
8
0-3RC
6
CONTINUOUS
62
6
100
AcDbLine
10
1347.582000000000
20
1410.135000000000
30
0.0
11
1518.243000000000
21
1239.474000000000
31
0.0
0
LINE
5
560
100
AcDbEntity
8
0-3RC
6
CONTINUOUS
62
6
100
AcDbLine
10
1418.293000000000
20
1410.135000000000
30
0.0
11
1518.243000000000
21
1310.185000000000
31
0.0
0
LINE
5
561
100
AcDbEntity
8
0-3RC
6
CONTINUOUS
62
6
100
AcDbLine
10
1489.004000000000
20
1410.135000000000
30
0.0
11
1518.243000000000
21
1380.896000000000
31
0.0
0
LINE
5
562
100
AcDbEntity
8
0-3RC
6
CONTINUOUS
62
6
100
AcDbLine
10
994.029000000000
20
1410.135000000000
30
0.0
11
1044.029000000000
21
1360.135000000000
31
0.0
0
LINE
5
563
100
AcDbEntity
8
0-3RC
6
CONTINUOUS
62
6
100
AcDbLine
10
1064.739000000000
20
1410.135000000000
30
0.0
11
1114.740000000000
21
1360.135000000000
31
0.0
0
LINE
5
564
100
AcDbEntity
8
0-3RC
6
CONTINUOUS
62
6
100
AcDbLine
10
1276.872000000000
20
1410.135000000000
30
0.0
11
1326.872000000000
21
1360.135000000000
31
0.0
0
LINE
5
565
100
AcDbEntity
8
0-6戸当り
6
DOT
62
3
100
AcDbLine
10
2377.675000000000
20
1073.131000000000
30
0.0
11
2377.675000000000
21
860.135000000000
31
0.0
0
LINE
5
566
100
AcDbEntity
8
0-6戸当り
6
CONTINUOUS
62
3
100
AcDbLine
10
2421.675000000000
20
860.135000000000
30
0.0
11
2421.675000000000
21
858.635000000000
31
0.0
0
LINE
5
567
100
AcDbEntity
8
0-3RC
6
CONTINUOUS
62
7
100
AcDbLine
10
2371.675000000000
20
710.135000000000
30
0.0
11
2496.675000000000
21
710.135000000000
31
0.0
0
LINE
5
568
100
AcDbEntity
8
0-3RC
6
CONTINUOUS
62
7
100
AcDbLine
10
2371.675000000000
20
1073.131000000000
30
0.0
11
2371.675000000000
21
635.135000000000
31
0.0
0
LINE
5
569
100
AcDbEntity
8
0-6戸当り
6
CONTINUOUS
62
3
100
AcDbLine
10
2421.675000000000
20
1210.135000000000
30
0.0
11
2421.675000000000
21
860.135000000000
31
0.0
0
LINE
5
56a
100
AcDbEntity
8
0-6戸当り
6
CONTINUOUS
62
3
100
AcDbLine
10
2421.675000000000
20
1211.635000000000
30
0.0
11
2421.675000000000
21
1210.135000000000
31
0.0
0
POLYLINE
5
56b
100
AcDbEntity
8
0-3RC
6
CONTINUOUS
62
  7
100
AcDb2dPolyline
66
1
10
0.0
20
0.0
30
0.0
70
0
0
VERTEX
5
56c
100
AcDbEntity
8
0-3RC
6
CONTINUOUS
62
  7
100
AcDbVertex
100
AcDb2dVertex
10
2371.675000000000
20
1410.135000000000
30
0.0
0
VERTEX
5
56d
100
AcDbEntity
8
0-3RC
6
CONTINUOUS
62
  7
100
AcDbVertex
100
AcDb2dVertex
10
2496.675000000000
20
1410.135000000000
30
0.0
0
VERTEX
5
56e
100
AcDbEntity
8
0-3RC
6
CONTINUOUS
62
  7
100
AcDbVertex
100
AcDb2dVertex
10
2496.675000000000
20
710.135000000000
30
0.0
0
SEQEND
5
56f
100
AcDbEntity
8
0-3RC
0
LINE
5
570
100
AcDbEntity
8
0-8寸法
6
CONTINUOUS
62
4
100
AcDbLine
10
2295.675000000000
20
820.135000000000
30
0.0
11
1858.675000000000
21
820.135000000000
31
0.0
0
LINE
5
571
100
AcDbEntity
8
0-3RC
6
CONTINUOUS
62
6
100
AcDbLine
10
2377.675000000000
20
1250.594000000000
30
0.0
11
2496.675000000000
21
1369.594000000000
31
0.0
0
LINE
5
572
100
AcDbEntity
8
0-3RC
6
CONTINUOUS
62
7
100
AcDbLine
10
793.243000000000
20
2314.595000000000
30
0.0
11
1621.663000000000
21
2314.595000000000
31
0.0
0
LINE
5
573
100
AcDbEntity
8
0-6戸当り
6
CONTINUOUS
62
3
100
AcDbLine
10
1368.243000000000
20
2364.595000000000
30
0.0
11
1193.243000000000
21
2364.595000000000
31
0.0
0
LINE
5
574
100
AcDbEntity
8
0-6戸当り
6
CONTINUOUS
62
3
100
AcDbLine
10
1368.243000000000
20
2364.595000000000
30
0.0
11
1369.743000000000
21
2364.595000000000
31
0.0
0
LINE
5
575
100
AcDbEntity
8
0-3RC
6
CONTINUOUS
62
4
100
AcDbLine
10
1308.070000000000
20
2439.595000000000
30
0.0
11
1368.243000000000
21
2379.422000000000
31
0.0
0
LINE
5
576
100
AcDbEntity
8
0-3RC
6
CONTINUOUS
62
7
100
AcDbLine
10
1193.243000000000
20
2439.595000000000
30
0.0
11
1518.243000000000
21
2439.595000000000
31
0.0
0
LINE
5
577
100
AcDbEntity
8
0-3RC
6
CONTINUOUS
62
7
100
AcDbLine
10
1518.243000000000
20
2314.595000000000
30
0.0
11
1518.243000000000
21
2439.595000000000
31
0.0
0
LINE
5
578
100
AcDbEntity
8
0-3RC
6
DOT
62
4
100
AcDbLine
10
883.807000000000
20
2439.595000000000
30
0.0
11
1008.807000000000
21
2314.595000000000
31
0.0
0
LINE
5
579
100
AcDbEntity
8
0-3RC
6
DOT
62
4
100
AcDbLine
10
868.243000000000
20
2384.448000000000
30
0.0
11
938.096000000000
21
2314.595000000000
31
0.0
0
LINE
5
57a
100
AcDbEntity
8
0-3RC
6
CONTINUOUS
62
6
100
AcDbLine
10
2421.675000000000
20
934.569000000000
30
0.0
11
2496.109000000000
21
860.135000000000
31
0.0
0
LINE
5
57b
100
AcDbEntity
8
0-6戸当り
6
DOT
62
3
100
AcDbLine
10
1368.243000000000
20
2320.595000000000
30
0.0
11
972.743000000000
21
2320.595000000000
31
0.0
0
LINE
5
57c
100
AcDbEntity
8
0-9扉体
6
CONTINUOUS
62
4
100
AcDbLine
10
1038.243000000000
20
1190.135000000000
30
0.0
11
1348.243000000000
21
1190.135000000000
31
0.0
0
LINE
5
57d
100
AcDbEntity
8
0-9扉体
6
CONTINUOUS
62
4
100
AcDbLine
10
1348.243000000000
20
880.135000000000
30
0.0
11
1038.243000000000
21
880.135000000000
31
0.0
0
LINE
5
57e
100
AcDbEntity
8
0-8寸法
6
CONTINUOUS
62
4
100
AcDbLine
10
903.243000000000
20
535.135000000000
30
0.0
11
1011.123000000000
21
902.014000000000
31
0.0
0
LINE
5
57f
100
AcDbEntity
8
0-9扉体
6
CONTINUOUS
62
4
100
AcDbLine
10
1038.243000000000
20
820.135000000000
30
0.0
11
1038.243000000000
21
1250.135000000000
31
0.0
0
LINE
5
580
100
AcDbEntity
8
0-9扉体
6
CONTINUOUS
62
4
100
AcDbLine
10
1348.243000000000
20
1250.135000000000
30
0.0
11
1348.243000000000
21
820.135000000000
31
0.0
0
LINE
5
581
100
AcDbEntity
8
0-9扉体
6
DOT
62
4
100
AcDbLine
10
1402.243000000000
20
1250.135000000000
30
0.0
11
1402.243000000000
21
820.135000000000
31
0.0
0
LINE
5
582
100
AcDbEntity
8
0-8寸法
6
CONTINUOUS
62
4
100
AcDbLine
10
1868.675000000000
20
820.135000000000
30
0.0
11
1868.675000000000
21
1410.135000000000
31
0.0
0
LINE
5
583
100
AcDbEntity
8
0-8寸法
6
CONTINUOUS
62
4
100
AcDbLine
10
516.566000000000
20
535.135000000000
30
0.0
11
903.243000000000
21
535.135000000000
31
0.0
0
LINE
5
584
100
AcDbEntity
8
0-3RC
6
CONTINUOUS
62
6
100
AcDbLine
10
868.243000000000
20
1394.499000000000
30
0.0
11
1001.307000000000
21
1261.435000000000
31
0.0
0
LINE
5
585
100
AcDbEntity
8
0-8寸法
6
CONTINUOUS
62
4
100
AcDbLine
10
2371.675000000000
20
1470.135000000000
30
0.0
11
2371.675000000000
21
1580.135000000000
31
0.0
0
LINE
5
586
100
AcDbEntity
8
0-8寸法
6
CONTINUOUS
62
4
100
AcDbLine
10
2371.675000000000
20
1570.135000000000
30
0.0
11
2390.994000000000
21
1575.312000000000
31
0.0
0
LINE
5
587
100
AcDbEntity
8
0-8寸法
6
CONTINUOUS
62
4
100
AcDbLine
10
2371.675000000000
20
1570.135000000000
30
0.0
11
2390.994000000000
21
1564.959000000000
31
0.0
0
LINE
5
588
100
AcDbEntity
8
0-8寸法
6
CONTINUOUS
62
4
100
AcDbLine
10
2421.675000000000
20
985.135000000000
30
0.0
11
2440.994000000000
21
990.312000000000
31
0.0
0
LINE
5
589
100
AcDbEntity
8
0-8寸法
6
CONTINUOUS
62
4
100
AcDbLine
10
2421.675000000000
20
985.135000000000
30
0.0
11
2440.994000000000
21
979.959000000000
31
0.0
0
LINE
5
58a
100
AcDbEntity
8
0-8寸法
6
CONTINUOUS
62
4
100
AcDbLine
10
2371.675000000000
20
985.135000000000
30
0.0
11
2488.047000000000
21
985.135000000000
31
0.0
0
LINE
5
58b
100
AcDbEntity
8
0-8寸法
6
CONTINUOUS
62
4
100
AcDbLine
10
2275.646000000000
20
985.135000000000
30
0.0
11
2371.675000000000
21
985.135000000000
31
0.0
0
LINE
5
58c
100
AcDbEntity
8
0-5基準線
6
CENTER2
62
7
100
AcDbLine
10
1193.243000000000
20
1440.135000000000
30
0.0
11
1193.243000000000
21
1120.786000000000
31
0.0
0
LINE
5
58d
100
AcDbEntity
8
0-5基準線
6
CENTER2
62
7
100
AcDbLine
10
1193.243000000000
20
957.169000000000
30
0.0
11
1193.243000000000
21
680.135000000000
31
0.0
0
LINE
5
58e
100
AcDbEntity
8
0-5基準線
6
CENTER2
62
7
100
AcDbLine
10
1193.243000000000
20
2514.595000000000
30
0.0
11
1193.243000000000
21
2220.594000000000
31
0.0
0
LINE
5
58f
100
AcDbEntity
8
0-6戸当り
6
CONTINUOUS
62
7
100
AcDbLine
10
1045.243000000000
20
1350.620000000000
30
0.0
11
1035.743000000000
21
1356.105000000000
31
0.0
0
LINE
5
590
100
AcDbEntity
8
0-6戸当り
6
CONTINUOUS
62
7
100
AcDbLine
10
1045.243000000000
20
1350.620000000000
30
0.0
11
1045.243000000000
21
1339.650000000000
31
0.0
0
LINE
5
591
100
AcDbEntity
8
0-6戸当り
6
CONTINUOUS
62
7
100
AcDbLine
10
1035.743000000000
20
1334.165000000000
30
0.0
11
1045.243000000000
21
1339.650000000000
31
0.0
0
POLYLINE
5
592
100
AcDbEntity
8
0-6戸当り
6
CONTINUOUS
62
  7
100
AcDb2dPolyline
66
1
10
0.0
20
0.0
30
0.0
70
0
0
VERTEX
5
593
100
AcDbEntity
8
0-6戸当り
6
CONTINUOUS
62
  7
100
AcDbVertex
100
AcDb2dVertex
10
1035.743000000000
20
1334.165000000000
30
0.0
0
VERTEX
5
594
100
AcDbEntity
8
0-6戸当り
6
CONTINUOUS
62
  7
100
AcDbVertex
100
AcDb2dVertex
10
1026.243000000000
20
1339.650000000000
30
0.0
0
VERTEX
5
595
100
AcDbEntity
8
0-6戸当り
6
CONTINUOUS
62
  7
100
AcDbVertex
100
AcDb2dVertex
10
1026.243000000000
20
1350.620000000000
30
0.0
0
VERTEX
5
596
100
AcDbEntity
8
0-6戸当り
6
CONTINUOUS
62
  7
100
AcDbVertex
100
AcDb2dVertex
10
1035.743000000000
20
1356.105000000000
30
0.0
0
SEQEND
5
597
100
AcDbEntity
8
0-6戸当り
0
LINE
5
598
100
AcDbEntity
8
0-9扉体
6
CONTINUOUS
62
3
100
AcDbLine
10
1013.243000000000
20
1259.135000000000
30
0.0
11
1153.243000000000
21
1259.135000000000
31
0.0
0
LINE
5
599
100
AcDbEntity
8
0-9扉体
6
CONTINUOUS
62
3
100
AcDbLine
10
1013.243000000000
20
1259.135000000000
30
0.0
11
1013.243000000000
21
1250.135000000000
31
0.0
0
LINE
5
59a
100
AcDbEntity
8
0-9扉体
6
CONTINUOUS
62
3
100
AcDbLine
10
1153.243000000000
20
1259.135000000000
30
0.0
11
1153.243000000000
21
1250.135000000000
31
0.0
0
POLYLINE
5
59b
100
AcDbEntity
8
0-9扉体
6
CONTINUOUS
62
  3
100
AcDb2dPolyline
66
1
10
0.0
20
0.0
30
0.0
70
0
0
VERTEX
5
59c
100
AcDbEntity
8
0-9扉体
6
CONTINUOUS
62
  3
100
AcDbVertex
100
AcDb2dVertex
10
1113.243000000000
20
1324.135000000000
30
0.0
0
VERTEX
5
59d
100
AcDbEntity
8
0-9扉体
6
CONTINUOUS
62
  3
100
AcDbVertex
100
AcDb2dVertex
10
1104.243000000000
20
1324.135000000000
30
0.0
0
VERTEX
5
59e
100
AcDbEntity
8
0-9扉体
6
CONTINUOUS
62
  3
100
AcDbVertex
100
AcDb2dVertex
10
1104.243000000000
20
1259.135000000000
30
0.0
0
SEQEND
5
59f
100
AcDbEntity
8
0-9扉体
0
LINE
5
5a0
100
AcDbEntity
8
0-9扉体
6
CONTINUOUS
62
3
100
AcDbLine
10
1113.243000000000
20
1324.135000000000
30
0.0
11
1113.243000000000
21
1259.135000000000
31
0.0
0
LINE
5
5a1
100
AcDbEntity
8
0-6戸当り
6
DOT
62
6
100
AcDbLine
10
1102.243000000000
20
1291.135000000000
30
0.0
11
1064.243000000000
21
1291.135000000000
31
0.0
0
LINE
5
5a2
100
AcDbEntity
8
0-6戸当り
6
CONTINUOUS
62
6
100
AcDbLine
10
1102.243000000000
20
1283.135000000000
30
0.0
11
1064.243000000000
21
1283.135000000000
31
0.0
0
LINE
5
5a3
100
AcDbEntity
8
0-6戸当り
6
CONTINUOUS
62
6
100
AcDbLine
10
1102.243000000000
20
1317.135000000000
30
0.0
11
1102.243000000000
21
1283.135000000000
31
0.0
0
POLYLINE
5
5a4
100
AcDbEntity
8
0-6戸当り
6
CONTINUOUS
62
  6
100
AcDb2dPolyline
66
1
10
0.0
20
0.0
30
0.0
70
0
0
VERTEX
5
5a5
100
AcDbEntity
8
0-6戸当り
6
CONTINUOUS
62
  6
100
AcDbVertex
100
AcDb2dVertex
10
1102.243000000000
20
1317.135000000000
30
0.0
0
VERTEX
5
5a6
100
AcDbEntity
8
0-6戸当り
6
CONTINUOUS
62
  6
100
AcDbVertex
100
AcDb2dVertex
10
1064.243000000000
20
1317.135000000000
30
0.0
0
VERTEX
5
5a7
100
AcDbEntity
8
0-6戸当り
6
CONTINUOUS
62
  6
100
AcDbVertex
100
AcDb2dVertex
10
1064.243000000000
20
1283.135000000000
30
0.0
0
SEQEND
5
5a8
100
AcDbEntity
8
0-6戸当り
0
LINE
5
5a9
100
AcDbEntity
8
0-9扉体
6
CONTINUOUS
62
6
100
AcDbLine
10
1115.843000000000
20
1316.135000000000
30
0.0
11
1115.843000000000
21
1284.135000000000
31
0.0
0
LINE
5
5aa
100
AcDbEntity
8
0-9扉体
6
CONTINUOUS
62
6
100
AcDbLine
10
1115.843000000000
20
1316.135000000000
30
0.0
11
1113.243000000000
21
1316.135000000000
31
0.0
0
LINE
5
5ab
100
AcDbEntity
8
0-9扉体
6
CONTINUOUS
62
6
100
AcDbLine
10
1115.843000000000
20
1284.135000000000
30
0.0
11
1113.243000000000
21
1284.135000000000
31
0.0
0
LINE
5
5ac
100
AcDbEntity
8
0-9扉体
6
CONTINUOUS
62
6
100
AcDbLine
10
1126.743000000000
20
1308.135000000000
30
0.0
11
1126.743000000000
21
1292.135000000000
31
0.0
0
LINE
5
5ad
100
AcDbEntity
8
0-9扉体
6
CONTINUOUS
62
6
100
AcDbLine
10
1126.743000000000
20
1308.135000000000
30
0.0
11
1115.843000000000
21
1308.135000000000
31
0.0
0
LINE
5
5ae
100
AcDbEntity
8
0-9扉体
6
CONTINUOUS
62
6
100
AcDbLine
10
1126.743000000000
20
1292.135000000000
30
0.0
11
1115.843000000000
21
1292.135000000000
31
0.0
0
LINE
5
5af
100
AcDbEntity
8
0-9扉体
6
CONTINUOUS
62
6
100
AcDbLine
10
1104.243000000000
20
1292.135000000000
30
0.0
11
1102.243000000000
21
1292.135000000000
31
0.0
0
LINE
5
5b0
100
AcDbEntity
8
0-6戸当り
6
DOT
62
6
100
AcDbLine
10
1102.243000000000
20
1309.135000000000
30
0.0
11
1064.243000000000
21
1309.135000000000
31
0.0
0
LINE
5
5b1
100
AcDbEntity
8
0-9扉体
6
CONTINUOUS
62
6
100
AcDbLine
10
1104.243000000000
20
1308.135000000000
30
0.0
11
1102.243000000000
21
1308.135000000000
31
0.0
0
LINE
5
5b2
100
AcDbEntity
8
0-5基準線
6
CENTER2
62
7
100
AcDbLine
10
1133.243000000000
20
1300.135000000000
30
0.0
11
1033.243000000000
21
1300.135000000000
31
0.0
0
LINE
5
5b3
100
AcDbEntity
8
0-9扉体
6
CONTINUOUS
62
6
100
AcDbLine
10
1050.643000000000
20
1316.135000000000
30
0.0
11
1050.643000000000
21
1284.135000000000
31
0.0
0
LINE
5
5b4
100
AcDbEntity
8
0-9扉体
6
CONTINUOUS
62
6
100
AcDbLine
10
1050.643000000000
20
1316.135000000000
30
0.0
11
1053.243000000000
21
1316.135000000000
31
0.0
0
LINE
5
5b5
100
AcDbEntity
8
0-9扉体
6
CONTINUOUS
62
6
100
AcDbLine
10
1050.643000000000
20
1284.135000000000
30
0.0
11
1053.243000000000
21
1284.135000000000
31
0.0
0
LINE
5
5b6
100
AcDbEntity
8
0-9扉体
6
CONTINUOUS
62
6
100
AcDbLine
10
1039.743000000000
20
1308.135000000000
30
0.0
11
1039.743000000000
21
1292.135000000000
31
0.0
0
LINE
5
5b7
100
AcDbEntity
8
0-9扉体
6
CONTINUOUS
62
6
100
AcDbLine
10
1039.743000000000
20
1308.135000000000
30
0.0
11
1050.643000000000
21
1308.135000000000
31
0.0
0
LINE
5
5b8
100
AcDbEntity
8
0-9扉体
6
CONTINUOUS
62
6
100
AcDbLine
10
1039.743000000000
20
1292.135000000000
30
0.0
11
1050.643000000000
21
1292.135000000000
31
0.0
0
LINE
5
5b9
100
AcDbEntity
8
0-9扉体
6
CONTINUOUS
62
6
100
AcDbLine
10
1062.243000000000
20
1292.135000000000
30
0.0
11
1064.243000000000
21
1292.135000000000
31
0.0
0
LINE
5
5ba
100
AcDbEntity
8
0-9扉体
6
CONTINUOUS
62
6
100
AcDbLine
10
1062.243000000000
20
1308.135000000000
30
0.0
11
1064.243000000000
21
1308.135000000000
31
0.0
0
POLYLINE
5
5bb
100
AcDbEntity
8
0-9扉体
6
CONTINUOUS
62
  3
100
AcDb2dPolyline
66
1
10
0.0
20
0.0
30
0.0
70
0
0
VERTEX
5
5bc
100
AcDbEntity
8
0-9扉体
6
CONTINUOUS
62
  3
100
AcDbVertex
100
AcDb2dVertex
10
1053.243000000000
20
1324.135000000000
30
0.0
0
VERTEX
5
5bd
100
AcDbEntity
8
0-9扉体
6
CONTINUOUS
62
  3
100
AcDbVertex
100
AcDb2dVertex
10
1062.243000000000
20
1324.135000000000
30
0.0
0
VERTEX
5
5be
100
AcDbEntity
8
0-9扉体
6
CONTINUOUS
62
  3
100
AcDbVertex
100
AcDb2dVertex
10
1062.243000000000
20
1259.135000000000
30
0.0
0
SEQEND
5
5bf
100
AcDbEntity
8
0-9扉体
0
LINE
5
5c0
100
AcDbEntity
8
0-9扉体
6
CONTINUOUS
62
3
100
AcDbLine
10
1053.243000000000
20
1324.135000000000
30
0.0
11
1053.243000000000
21
1259.135000000000
31
0.0
0
LINE
5
5c1
100
AcDbEntity
8
0-5基準線
6
CENTER2
62
7
100
AcDbLine
10
1035.743000000000
20
1357.135000000000
30
0.0
11
1035.743000000000
21
1333.135000000000
31
0.0
0
LINE
5
5c2
100
AcDbEntity
8
0-5基準線
6
CENTER2
62
7
100
AcDbLine
10
1047.743000000000
20
1345.135000000000
30
0.0
11
1023.743000000000
21
1345.135000000000
31
0.0
0
LINE
5
5c3
100
AcDbEntity
8
0-6戸当り
6
CONTINUOUS
62
7
100
AcDbLine
10
1121.243000000000
20
1350.620000000000
30
0.0
11
1130.743000000000
21
1356.105000000000
31
0.0
0
LINE
5
5c4
100
AcDbEntity
8
0-6戸当り
6
CONTINUOUS
62
7
100
AcDbLine
10
1121.243000000000
20
1350.620000000000
30
0.0
11
1121.243000000000
21
1339.650000000000
31
0.0
0
LINE
5
5c5
100
AcDbEntity
8
0-6戸当り
6
CONTINUOUS
62
7
100
AcDbLine
10
1130.743000000000
20
1334.165000000000
30
0.0
11
1121.243000000000
21
1339.650000000000
31
0.0
0
POLYLINE
5
5c6
100
AcDbEntity
8
0-6戸当り
6
CONTINUOUS
62
  7
100
AcDb2dPolyline
66
1
10
0.0
20
0.0
30
0.0
70
0
0
VERTEX
5
5c7
100
AcDbEntity
8
0-6戸当り
6
CONTINUOUS
62
  7
100
AcDbVertex
100
AcDb2dVertex
10
1130.743000000000
20
1334.165000000000
30
0.0
0
VERTEX
5
5c8
100
AcDbEntity
8
0-6戸当り
6
CONTINUOUS
62
  7
100
AcDbVertex
100
AcDb2dVertex
10
1140.243000000000
20
1339.650000000000
30
0.0
0
VERTEX
5
5c9
100
AcDbEntity
8
0-6戸当り
6
CONTINUOUS
62
  7
100
AcDbVertex
100
AcDb2dVertex
10
1140.243000000000
20
1350.620000000000
30
0.0
0
VERTEX
5
5ca
100
AcDbEntity
8
0-6戸当り
6
CONTINUOUS
62
  7
100
AcDbVertex
100
AcDb2dVertex
10
1130.743000000000
20
1356.105000000000
30
0.0
0
SEQEND
5
5cb
100
AcDbEntity
8
0-6戸当り
0
LINE
5
5cc
100
AcDbEntity
8
0-5基準線
6
CENTER2
62
7
100
AcDbLine
10
1130.743000000000
20
1357.135000000000
30
0.0
11
1130.743000000000
21
1333.135000000000
31
0.0
0
LINE
5
5cd
100
AcDbEntity
8
0-5基準線
6
CENTER2
62
7
100
AcDbLine
10
1118.743000000000
20
1345.135000000000
30
0.0
11
1142.743000000000
21
1345.135000000000
31
0.0
0
LINE
5
5ce
100
AcDbEntity
8
0-5基準線
6
CENTER2
62
7
100
AcDbLine
10
1083.243000000000
20
1360.135000000000
30
0.0
11
1083.243000000000
21
1238.671000000000
31
0.0
0
LINE
5
5cf
100
AcDbEntity
8
0-9扉体
6
CONTINUOUS
62
6
100
AcDbLine
10
1143.243000000000
20
1265.920000000000
30
0.0
11
1149.029000000000
21
1260.135000000000
31
0.0
0
LINE
5
5d0
100
AcDbEntity
8
0-6戸当り
6
CONTINUOUS
62
6
100
AcDbLine
10
1143.243000000000
20
1360.135000000000
30
0.0
11
1023.243000000000
21
1360.135000000000
31
0.0
0
LINE
5
5d1
100
AcDbEntity
8
0-9扉体
6
CONTINUOUS
62
4
100
AcDbLine
10
973.243000000000
20
1255.135000000000
30
0.0
11
1013.243000000000
21
1255.135000000000
31
0.0
0
LINE
5
5d2
100
AcDbEntity
8
0-9扉体
6
CONTINUOUS
62
3
100
AcDbLine
10
1062.243000000000
20
1260.135000000000
30
0.0
11
1104.243000000000
21
1260.135000000000
31
0.0
0
LINE
5
5d3
100
AcDbEntity
8
0-8寸法
6
CONTINUOUS
62
4
100
AcDbLine
10
1083.243000000000
20
1375.135000000000
30
0.0
11
1083.243000000000
21
1585.135000000000
31
0.0
0
LINE
5
5d4
100
AcDbEntity
8
0-8寸法
6
CONTINUOUS
62
4
100
AcDbLine
10
1083.243000000000
20
1575.135000000000
30
0.0
11
1102.562000000000
21
1580.312000000000
31
0.0
0
LINE
5
5d5
100
AcDbEntity
8
0-8寸法
6
CONTINUOUS
62
4
100
AcDbLine
10
1083.243000000000
20
1575.135000000000
30
0.0
11
1102.562000000000
21
1569.959000000000
31
0.0
0
LINE
5
5d6
100
AcDbEntity
8
0-9扉体
6
CONTINUOUS
62
7
100
AcDbLine
10
1023.743000000000
20
1274.435000000000
30
0.0
11
1023.743000000000
21
1264.435000000000
31
0.0
0
LINE
5
5d7
100
AcDbEntity
8
0-9扉体
6
CONTINUOUS
62
7
100
AcDbLine
10
1042.743000000000
20
1274.435000000000
30
0.0
11
1042.743000000000
21
1264.435000000000
31
0.0
0
LINE
5
5d8
100
AcDbEntity
8
0-9扉体
6
CONTINUOUS
62
7
100
AcDbLine
10
1042.743000000000
20
1274.435000000000
30
0.0
11
1023.743000000000
21
1274.435000000000
31
0.0
0
LINE
5
5d9
100
AcDbEntity
8
0-9扉体
6
CONTINUOUS
62
7
100
AcDbLine
10
1033.243000000000
20
1273.586000000000
30
0.0
11
1033.243000000000
21
1264.435000000000
31
0.0
0
LINE
5
5da
100
AcDbEntity
8
0-9扉体
6
CONTINUOUS
62
6
100
AcDbLine
10
1050.643000000000
20
1316.135000000000
30
0.0
11
1050.643000000000
21
1284.135000000000
31
0.0
0
LINE
5
5db
100
AcDbEntity
8
0-9扉体
6
CONTINUOUS
62
4
100
AcDbLine
10
1020.243000000000
20
1261.435000000000
30
0.0
11
1046.243000000000
21
1261.435000000000
31
0.0
0
LINE
5
5dc
100
AcDbEntity
8
0-9扉体
6
CONTINUOUS
62
4
100
AcDbLine
10
1020.243000000000
20
1261.435000000000
30
0.0
11
1020.243000000000
21
1259.135000000000
31
0.0
0
LINE
5
5dd
100
AcDbEntity
8
0-9扉体
6
CONTINUOUS
62
4
100
AcDbLine
10
1046.243000000000
20
1261.435000000000
30
0.0
11
1046.243000000000
21
1259.135000000000
31
0.0
0
LINE
5
5de
100
AcDbEntity
8
0-9扉体
6
CONTINUOUS
62
4
100
AcDbLine
10
1027.243000000000
20
1284.135000000000
30
0.0
11
1039.243000000000
21
1284.135000000000
31
0.0
0
LINE
5
5df
100
AcDbEntity
8
0-9扉体
6
CONTINUOUS
62
4
100
AcDbLine
10
1027.243000000000
20
1284.135000000000
30
0.0
11
1027.243000000000
21
1274.435000000000
31
0.0
0
LINE
5
5e0
100
AcDbEntity
8
0-9扉体
6
CONTINUOUS
62
4
100
AcDbLine
10
1039.243000000000
20
1284.135000000000
30
0.0
11
1039.243000000000
21
1274.435000000000
31
0.0
0
LINE
5
5e1
100
AcDbEntity
8
0-9扉体
6
CONTINUOUS
62
4
100
AcDbLine
10
1028.243000000000
20
1284.135000000000
30
0.0
11
1028.243000000000
21
1274.435000000000
31
0.0
0
LINE
5
5e2
100
AcDbEntity
8
0-9扉体
6
CONTINUOUS
62
4
100
AcDbLine
10
1038.243000000000
20
1284.135000000000
30
0.0
11
1038.243000000000
21
1274.435000000000
31
0.0
0
LINE
5
5e3
100
AcDbEntity
8
0-9扉体
6
CONTINUOUS
62
4
100
AcDbLine
10
1033.243000000000
20
1264.435000000000
30
0.0
11
1030.243000000000
21
1261.435000000000
31
0.0
0
LINE
5
5e4
100
AcDbEntity
8
0-9扉体
6
CONTINUOUS
62
4
100
AcDbLine
10
1033.243000000000
20
1261.435000000000
30
0.0
11
1036.243000000000
21
1264.435000000000
31
0.0
0
LINE
5
5e5
100
AcDbEntity
8
0-9扉体
6
CONTINUOUS
62
4
100
AcDbLine
10
1022.493000000000
20
1264.435000000000
30
0.0
11
1022.493000000000
21
1261.435000000000
31
0.0
0
POLYLINE
5
5e6
100
AcDbEntity
8
0-9扉体
6
CONTINUOUS
62
  4
100
AcDb2dPolyline
66
1
10
0.0
20
0.0
30
0.0
70
0
0
VERTEX
5
5e7
100
AcDbEntity
8
0-9扉体
6
CONTINUOUS
62
  4
100
AcDbVertex
100
AcDb2dVertex
10
1022.493000000000
20
1264.435000000000
30
0.0
0
VERTEX
5
5e8
100
AcDbEntity
8
0-9扉体
6
CONTINUOUS
62
  4
100
AcDbVertex
100
AcDb2dVertex
10
1043.993000000000
20
1264.435000000000
30
0.0
0
VERTEX
5
5e9
100
AcDbEntity
8
0-9扉体
6
CONTINUOUS
62
  4
100
AcDbVertex
100
AcDb2dVertex
10
1043.993000000000
20
1261.435000000000
30
0.0
0
SEQEND
5
5ea
100
AcDbEntity
8
0-9扉体
0
LINE
5
5eb
100
AcDbEntity
8
0-5基準線
6
CENTER2
62
7
100
AcDbLine
10
1033.243000000000
20
1287.090000000000
30
0.0
11
1033.243000000000
21
1273.586000000000
31
0.0
0
LINE
5
5ec
100
AcDbEntity
8
0-9扉体
6
CONTINUOUS
62
7
100
AcDbLine
10
1142.743000000000
20
1274.435000000000
30
0.0
11
1142.743000000000
21
1264.435000000000
31
0.0
0
LINE
5
5ed
100
AcDbEntity
8
0-9扉体
6
CONTINUOUS
62
7
100
AcDbLine
10
1123.743000000000
20
1274.435000000000
30
0.0
11
1123.743000000000
21
1264.435000000000
31
0.0
0
LINE
5
5ee
100
AcDbEntity
8
0-9扉体
6
CONTINUOUS
62
7
100
AcDbLine
10
1123.743000000000
20
1274.435000000000
30
0.0
11
1142.743000000000
21
1274.435000000000
31
0.0
0
LINE
5
5ef
100
AcDbEntity
8
0-9扉体
6
CONTINUOUS
62
7
100
AcDbLine
10
1133.243000000000
20
1273.586000000000
30
0.0
11
1133.243000000000
21
1264.435000000000
31
0.0
0
LINE
5
5f0
100
AcDbEntity
8
0-9扉体
6
CONTINUOUS
62
4
100
AcDbLine
10
1146.243000000000
20
1261.435000000000
30
0.0
11
1120.243000000000
21
1261.435000000000
31
0.0
0
LINE
5
5f1
100
AcDbEntity
8
0-9扉体
6
CONTINUOUS
62
4
100
AcDbLine
10
1146.243000000000
20
1261.435000000000
30
0.0
11
1146.243000000000
21
1259.135000000000
31
0.0
0
LINE
5
5f2
100
AcDbEntity
8
0-9扉体
6
CONTINUOUS
62
4
100
AcDbLine
10
1120.243000000000
20
1261.435000000000
30
0.0
11
1120.243000000000
21
1259.135000000000
31
0.0
0
LINE
5
5f3
100
AcDbEntity
8
0-9扉体
6
CONTINUOUS
62
4
100
AcDbLine
10
1139.243000000000
20
1284.135000000000
30
0.0
11
1127.243000000000
21
1284.135000000000
31
0.0
0
LINE
5
5f4
100
AcDbEntity
8
0-9扉体
6
CONTINUOUS
62
4
100
AcDbLine
10
1139.243000000000
20
1284.135000000000
30
0.0
11
1139.243000000000
21
1274.435000000000
31
0.0
0
LINE
5
5f5
100
AcDbEntity
8
0-9扉体
6
CONTINUOUS
62
4
100
AcDbLine
10
1127.243000000000
20
1284.135000000000
30
0.0
11
1127.243000000000
21
1274.435000000000
31
0.0
0
LINE
5
5f6
100
AcDbEntity
8
0-9扉体
6
CONTINUOUS
62
4
100
AcDbLine
10
1138.243000000000
20
1284.135000000000
30
0.0
11
1138.243000000000
21
1274.435000000000
31
0.0
0
LINE
5
5f7
100
AcDbEntity
8
0-9扉体
6
CONTINUOUS
62
4
100
AcDbLine
10
1128.243000000000
20
1284.135000000000
30
0.0
11
1128.243000000000
21
1274.435000000000
31
0.0
0
LINE
5
5f8
100
AcDbEntity
8
0-9扉体
6
CONTINUOUS
62
4
100
AcDbLine
10
1133.243000000000
20
1264.435000000000
30
0.0
11
1136.243000000000
21
1261.435000000000
31
0.0
0
LINE
5
5f9
100
AcDbEntity
8
0-9扉体
6
CONTINUOUS
62
4
100
AcDbLine
10
1133.243000000000
20
1261.435000000000
30
0.0
11
1130.243000000000
21
1264.435000000000
31
0.0
0
LINE
5
5fa
100
AcDbEntity
8
0-9扉体
6
CONTINUOUS
62
4
100
AcDbLine
10
1143.993000000000
20
1264.435000000000
30
0.0
11
1143.993000000000
21
1261.435000000000
31
0.0
0
POLYLINE
5
5fb
100
AcDbEntity
8
0-9扉体
6
CONTINUOUS
62
  4
100
AcDb2dPolyline
66
1
10
0.0
20
0.0
30
0.0
70
0
0
VERTEX
5
5fc
100
AcDbEntity
8
0-9扉体
6
CONTINUOUS
62
  4
100
AcDbVertex
100
AcDb2dVertex
10
1143.993000000000
20
1264.435000000000
30
0.0
0
VERTEX
5
5fd
100
AcDbEntity
8
0-9扉体
6
CONTINUOUS
62
  4
100
AcDbVertex
100
AcDb2dVertex
10
1122.493000000000
20
1264.435000000000
30
0.0
0
VERTEX
5
5fe
100
AcDbEntity
8
0-9扉体
6
CONTINUOUS
62
  4
100
AcDbVertex
100
AcDb2dVertex
10
1122.493000000000
20
1261.435000000000
30
0.0
0
SEQEND
5
5ff
100
AcDbEntity
8
0-9扉体
0
LINE
5
600
100
AcDbEntity
8
0-5基準線
6
CENTER2
62
7
100
AcDbLine
10
1133.243000000000
20
1264.435000000000
30
0.0
11
1133.243000000000
21
1238.671000000000
31
0.0
0
LINE
5
601
100
AcDbEntity
8
0-5基準線
6
CENTER2
62
7
100
AcDbLine
10
1133.243000000000
20
1287.090000000000
30
0.0
11
1133.243000000000
21
1273.586000000000
31
0.0
0
LINE
5
602
100
AcDbEntity
8
0-9扉体
6
CONTINUOUS
62
6
100
AcDbLine
10
1050.643000000000
20
1284.135000000000
30
0.0
11
1053.243000000000
21
1284.135000000000
31
0.0
0
LINE
5
603
100
AcDbEntity
8
0-6戸当り
6
CONTINUOUS
62
6
100
AcDbLine
10
1023.243000000000
20
1360.135000000000
30
0.0
11
1023.243000000000
21
1264.435000000000
31
0.0
0
LINE
5
604
100
AcDbEntity
8
0-6戸当り
6
CONTINUOUS
62
6
100
AcDbLine
10
1143.243000000000
20
1360.135000000000
30
0.0
11
1143.243000000000
21
1264.435000000000
31
0.0
0
LINE
5
605
100
AcDbEntity
8
0-6戸当り
6
CONTINUOUS
62
3
100
AcDbLine
10
968.243000000000
20
1260.135000000000
30
0.0
11
1013.243000000000
21
1260.135000000000
31
0.0
0
LINE
5
606
100
AcDbEntity
8
0-5基準線
6
CENTER2
62
7
100
AcDbLine
10
1033.243000000000
20
1264.435000000000
30
0.0
11
1033.243000000000
21
1238.671000000000
31
0.0
0
LINE
5
607
100
AcDbEntity
8
0-6戸当り
6
CONTINUOUS
62
7
100
AcDbLine
10
1341.243000000000
20
1350.620000000000
30
0.0
11
1350.743000000000
21
1356.105000000000
31
0.0
0
LINE
5
608
100
AcDbEntity
8
0-6戸当り
6
CONTINUOUS
62
7
100
AcDbLine
10
1341.243000000000
20
1350.620000000000
30
0.0
11
1341.243000000000
21
1339.650000000000
31
0.0
0
LINE
5
609
100
AcDbEntity
8
0-6戸当り
6
CONTINUOUS
62
7
100
AcDbLine
10
1350.743000000000
20
1334.165000000000
30
0.0
11
1341.243000000000
21
1339.650000000000
31
0.0
0
POLYLINE
5
60a
100
AcDbEntity
8
0-6戸当り
6
CONTINUOUS
62
  7
100
AcDb2dPolyline
66
1
10
0.0
20
0.0
30
0.0
70
0
0
VERTEX
5
60b
100
AcDbEntity
8
0-6戸当り
6
CONTINUOUS
62
  7
100
AcDbVertex
100
AcDb2dVertex
10
1350.743000000000
20
1334.165000000000
30
0.0
0
VERTEX
5
60c
100
AcDbEntity
8
0-6戸当り
6
CONTINUOUS
62
  7
100
AcDbVertex
100
AcDb2dVertex
10
1360.243000000000
20
1339.650000000000
30
0.0
0
VERTEX
5
60d
100
AcDbEntity
8
0-6戸当り
6
CONTINUOUS
62
  7
100
AcDbVertex
100
AcDb2dVertex
10
1360.243000000000
20
1350.620000000000
30
0.0
0
VERTEX
5
60e
100
AcDbEntity
8
0-6戸当り
6
CONTINUOUS
62
  7
100
AcDbVertex
100
AcDb2dVertex
10
1350.743000000000
20
1356.105000000000
30
0.0
0
SEQEND
5
60f
100
AcDbEntity
8
0-6戸当り
0
LINE
5
610
100
AcDbEntity
8
0-9扉体
6
CONTINUOUS
62
3
100
AcDbLine
10
1373.243000000000
20
1259.135000000000
30
0.0
11
1233.243000000000
21
1259.135000000000
31
0.0
0
LINE
5
611
100
AcDbEntity
8
0-9扉体
6
CONTINUOUS
62
3
100
AcDbLine
10
1373.243000000000
20
1259.135000000000
30
0.0
11
1373.243000000000
21
1250.135000000000
31
0.0
0
LINE
5
612
100
AcDbEntity
8
0-9扉体
6
CONTINUOUS
62
3
100
AcDbLine
10
1233.243000000000
20
1259.135000000000
30
0.0
11
1233.243000000000
21
1250.135000000000
31
0.0
0
LINE
5
613
100
AcDbEntity
8
0-9扉体
6
CONTINUOUS
62
3
100
AcDbLine
10
1273.243000000000
20
1324.135000000000
30
0.0
11
1282.243000000000
21
1324.135000000000
31
0.0
0
LINE
5
614
100
AcDbEntity
8
0-9扉体
6
CONTINUOUS
62
3
100
AcDbLine
10
1273.243000000000
20
1324.135000000000
30
0.0
11
1273.243000000000
21
1259.135000000000
31
0.0
0
LINE
5
615
100
AcDbEntity
8
0-6戸当り
6
DOT
62
6
100
AcDbLine
10
1284.243000000000
20
1291.135000000000
30
0.0
11
1322.243000000000
21
1291.135000000000
31
0.0
0
LINE
5
616
100
AcDbEntity
8
0-6戸当り
6
CONTINUOUS
62
6
100
AcDbLine
10
1284.243000000000
20
1283.135000000000
30
0.0
11
1322.243000000000
21
1283.135000000000
31
0.0
0
LINE
5
617
100
AcDbEntity
8
0-6戸当り
6
CONTINUOUS
62
6
100
AcDbLine
10
1284.243000000000
20
1317.135000000000
30
0.0
11
1284.243000000000
21
1283.135000000000
31
0.0
0
POLYLINE
5
618
100
AcDbEntity
8
0-6戸当り
6
CONTINUOUS
62
  6
100
AcDb2dPolyline
66
1
10
0.0
20
0.0
30
0.0
70
0
0
VERTEX
5
619
100
AcDbEntity
8
0-6戸当り
6
CONTINUOUS
62
  6
100
AcDbVertex
100
AcDb2dVertex
10
1284.243000000000
20
1317.135000000000
30
0.0
0
VERTEX
5
61a
100
AcDbEntity
8
0-6戸当り
6
CONTINUOUS
62
  6
100
AcDbVertex
100
AcDb2dVertex
10
1322.243000000000
20
1317.135000000000
30
0.0
0
VERTEX
5
61b
100
AcDbEntity
8
0-6戸当り
6
CONTINUOUS
62
  6
100
AcDbVertex
100
AcDb2dVertex
10
1322.243000000000
20
1283.135000000000
30
0.0
0
SEQEND
5
61c
100
AcDbEntity
8
0-6戸当り
0
LINE
5
61d
100
AcDbEntity
8
0-9扉体
6
CONTINUOUS
62
6
100
AcDbLine
10
1270.643000000000
20
1316.135000000000
30
0.0
11
1270.643000000000
21
1284.135000000000
31
0.0
0
LINE
5
61e
100
AcDbEntity
8
0-9扉体
6
CONTINUOUS
62
6
100
AcDbLine
10
1270.643000000000
20
1316.135000000000
30
0.0
11
1273.243000000000
21
1316.135000000000
31
0.0
0
LINE
5
61f
100
AcDbEntity
8
0-9扉体
6
CONTINUOUS
62
6
100
AcDbLine
10
1270.643000000000
20
1284.135000000000
30
0.0
11
1273.243000000000
21
1284.135000000000
31
0.0
0
LINE
5
620
100
AcDbEntity
8
0-9扉体
6
CONTINUOUS
62
6
100
AcDbLine
10
1259.743000000000
20
1308.135000000000
30
0.0
11
1259.743000000000
21
1292.135000000000
31
0.0
0
LINE
5
621
100
AcDbEntity
8
0-9扉体
6
CONTINUOUS
62
6
100
AcDbLine
10
1259.743000000000
20
1308.135000000000
30
0.0
11
1270.643000000000
21
1308.135000000000
31
0.0
0
LINE
5
622
100
AcDbEntity
8
0-9扉体
6
CONTINUOUS
62
6
100
AcDbLine
10
1259.743000000000
20
1292.135000000000
30
0.0
11
1270.643000000000
21
1292.135000000000
31
0.0
0
LINE
5
623
100
AcDbEntity
8
0-9扉体
6
CONTINUOUS
62
6
100
AcDbLine
10
1282.243000000000
20
1292.135000000000
30
0.0
11
1284.243000000000
21
1292.135000000000
31
0.0
0
LINE
5
624
100
AcDbEntity
8
0-6戸当り
6
DOT
62
6
100
AcDbLine
10
1284.243000000000
20
1309.135000000000
30
0.0
11
1322.243000000000
21
1309.135000000000
31
0.0
0
LINE
5
625
100
AcDbEntity
8
0-9扉体
6
CONTINUOUS
62
6
100
AcDbLine
10
1282.243000000000
20
1308.135000000000
30
0.0
11
1284.243000000000
21
1308.135000000000
31
0.0
0
LINE
5
626
100
AcDbEntity
8
0-5基準線
6
CENTER2
62
7
100
AcDbLine
10
1253.243000000000
20
1300.135000000000
30
0.0
11
1353.243000000000
21
1300.135000000000
31
0.0
0
LINE
5
627
100
AcDbEntity
8
0-9扉体
6
CONTINUOUS
62
6
100
AcDbLine
10
1335.843000000000
20
1316.135000000000
30
0.0
11
1335.843000000000
21
1284.135000000000
31
0.0
0
LINE
5
628
100
AcDbEntity
8
0-9扉体
6
CONTINUOUS
62
6
100
AcDbLine
10
1335.843000000000
20
1316.135000000000
30
0.0
11
1333.243000000000
21
1316.135000000000
31
0.0
0
LINE
5
629
100
AcDbEntity
8
0-9扉体
6
CONTINUOUS
62
6
100
AcDbLine
10
1335.843000000000
20
1284.135000000000
30
0.0
11
1333.243000000000
21
1284.135000000000
31
0.0
0
LINE
5
62a
100
AcDbEntity
8
0-9扉体
6
CONTINUOUS
62
6
100
AcDbLine
10
1346.743000000000
20
1308.135000000000
30
0.0
11
1346.743000000000
21
1292.135000000000
31
0.0
0
LINE
5
62b
100
AcDbEntity
8
0-9扉体
6
CONTINUOUS
62
6
100
AcDbLine
10
1346.743000000000
20
1308.135000000000
30
0.0
11
1335.843000000000
21
1308.135000000000
31
0.0
0
LINE
5
62c
100
AcDbEntity
8
0-9扉体
6
CONTINUOUS
62
6
100
AcDbLine
10
1346.743000000000
20
1292.135000000000
30
0.0
11
1335.843000000000
21
1292.135000000000
31
0.0
0
LINE
5
62d
100
AcDbEntity
8
0-9扉体
6
CONTINUOUS
62
6
100
AcDbLine
10
1324.243000000000
20
1292.135000000000
30
0.0
11
1322.243000000000
21
1292.135000000000
31
0.0
0
LINE
5
62e
100
AcDbEntity
8
0-9扉体
6
CONTINUOUS
62
6
100
AcDbLine
10
1324.243000000000
20
1308.135000000000
30
0.0
11
1322.243000000000
21
1308.135000000000
31
0.0
0
POLYLINE
5
62f
100
AcDbEntity
8
0-9扉体
6
CONTINUOUS
62
  3
100
AcDb2dPolyline
66
1
10
0.0
20
0.0
30
0.0
70
0
0
VERTEX
5
630
100
AcDbEntity
8
0-9扉体
6
CONTINUOUS
62
  3
100
AcDbVertex
100
AcDb2dVertex
10
1333.243000000000
20
1324.135000000000
30
0.0
0
VERTEX
5
631
100
AcDbEntity
8
0-9扉体
6
CONTINUOUS
62
  3
100
AcDbVertex
100
AcDb2dVertex
10
1324.243000000000
20
1324.135000000000
30
0.0
0
VERTEX
5
632
100
AcDbEntity
8
0-9扉体
6
CONTINUOUS
62
  3
100
AcDbVertex
100
AcDb2dVertex
10
1324.243000000000
20
1259.135000000000
30
0.0
0
SEQEND
5
633
100
AcDbEntity
8
0-9扉体
0
LINE
5
634
100
AcDbEntity
8
0-9扉体
6
CONTINUOUS
62
3
100
AcDbLine
10
1333.243000000000
20
1324.135000000000
30
0.0
11
1333.243000000000
21
1259.135000000000
31
0.0
0
LINE
5
635
100
AcDbEntity
8
0-5基準線
6
CENTER2
62
7
100
AcDbLine
10
1350.743000000000
20
1357.135000000000
30
0.0
11
1350.743000000000
21
1333.135000000000
31
0.0
0
LINE
5
636
100
AcDbEntity
8
0-5基準線
6
CENTER2
62
7
100
AcDbLine
10
1338.743000000000
20
1345.135000000000
30
0.0
11
1362.743000000000
21
1345.135000000000
31
0.0
0
LINE
5
637
100
AcDbEntity
8
0-6戸当り
6
CONTINUOUS
62
7
100
AcDbLine
10
1265.243000000000
20
1350.620000000000
30
0.0
11
1255.743000000000
21
1356.105000000000
31
0.0
0
LINE
5
638
100
AcDbEntity
8
0-6戸当り
6
CONTINUOUS
62
7
100
AcDbLine
10
1265.243000000000
20
1350.620000000000
30
0.0
11
1265.243000000000
21
1339.650000000000
31
0.0
0
LINE
5
639
100
AcDbEntity
8
0-6戸当り
6
CONTINUOUS
62
7
100
AcDbLine
10
1255.743000000000
20
1334.165000000000
30
0.0
11
1265.243000000000
21
1339.650000000000
31
0.0
0
POLYLINE
5
63a
100
AcDbEntity
8
0-6戸当り
6
CONTINUOUS
62
  7
100
AcDb2dPolyline
66
1
10
0.0
20
0.0
30
0.0
70
0
0
VERTEX
5
63b
100
AcDbEntity
8
0-6戸当り
6
CONTINUOUS
62
  7
100
AcDbVertex
100
AcDb2dVertex
10
1255.743000000000
20
1334.165000000000
30
0.0
0
VERTEX
5
63c
100
AcDbEntity
8
0-6戸当り
6
CONTINUOUS
62
  7
100
AcDbVertex
100
AcDb2dVertex
10
1246.243000000000
20
1339.650000000000
30
0.0
0
VERTEX
5
63d
100
AcDbEntity
8
0-6戸当り
6
CONTINUOUS
62
  7
100
AcDbVertex
100
AcDb2dVertex
10
1246.243000000000
20
1350.620000000000
30
0.0
0
VERTEX
5
63e
100
AcDbEntity
8
0-6戸当り
6
CONTINUOUS
62
  7
100
AcDbVertex
100
AcDb2dVertex
10
1255.743000000000
20
1356.105000000000
30
0.0
0
SEQEND
5
63f
100
AcDbEntity
8
0-6戸当り
0
LINE
5
640
100
AcDbEntity
8
0-5基準線
6
CENTER2
62
7
100
AcDbLine
10
1255.743000000000
20
1357.135000000000
30
0.0
11
1255.743000000000
21
1333.135000000000
31
0.0
0
LINE
5
641
100
AcDbEntity
8
0-5基準線
6
CENTER2
62
7
100
AcDbLine
10
1267.743000000000
20
1345.135000000000
30
0.0
11
1243.743000000000
21
1345.135000000000
31
0.0
0
LINE
5
642
100
AcDbEntity
8
0-5基準線
6
CENTER2
62
7
100
AcDbLine
10
1303.243000000000
20
1360.135000000000
30
0.0
11
1303.243000000000
21
1238.671000000000
31
0.0
0
LINE
5
643
100
AcDbEntity
8
0-6戸当り
6
CONTINUOUS
62
6
100
AcDbLine
10
1243.243000000000
20
1360.135000000000
30
0.0
11
1363.243000000000
21
1360.135000000000
31
0.0
0
LINE
5
644
100
AcDbEntity
8
0-9扉体
6
CONTINUOUS
62
3
100
AcDbLine
10
1282.243000000000
20
1324.135000000000
30
0.0
11
1282.243000000000
21
1259.135000000000
31
0.0
0
LINE
5
645
100
AcDbEntity
8
0-9扉体
6
CONTINUOUS
62
3
100
AcDbLine
10
1282.243000000000
20
1260.135000000000
30
0.0
11
1324.243000000000
21
1260.135000000000
31
0.0
0
LINE
5
646
100
AcDbEntity
8
0-9扉体
6
CONTINUOUS
62
4
100
AcDbLine
10
1373.243000000000
20
1255.135000000000
30
0.0
11
1413.243000000000
21
1255.135000000000
31
0.0
0
LINE
5
647
100
AcDbEntity
8
0-8寸法
6
CONTINUOUS
62
4
100
AcDbLine
10
1303.243000000000
20
1375.135000000000
30
0.0
11
1303.243000000000
21
1585.135000000000
31
0.0
0
LINE
5
648
100
AcDbEntity
8
0-8寸法
6
CONTINUOUS
62
4
100
AcDbLine
10
1303.243000000000
20
1575.135000000000
30
0.0
11
1283.925000000000
21
1580.312000000000
31
0.0
0
LINE
5
649
100
AcDbEntity
8
0-8寸法
6
CONTINUOUS
62
4
100
AcDbLine
10
1303.243000000000
20
1575.135000000000
30
0.0
11
1283.925000000000
21
1569.959000000000
31
0.0
0
LINE
5
64a
100
AcDbEntity
8
0-6戸当り
6
CONTINUOUS
62
3
100
AcDbLine
10
1373.243000000000
20
1260.135000000000
30
0.0
11
1418.243000000000
21
1260.135000000000
31
0.0
0
LINE
5
64b
100
AcDbEntity
8
0-9扉体
6
CONTINUOUS
62
6
100
AcDbLine
10
1270.643000000000
20
1284.135000000000
30
0.0
11
1273.243000000000
21
1284.135000000000
31
0.0
0
LINE
5
64c
100
AcDbEntity
8
0-9扉体
6
CONTINUOUS
62
6
100
AcDbLine
10
1363.243000000000
20
1265.920000000000
30
0.0
11
1369.029000000000
21
1260.135000000000
31
0.0
0
LINE
5
64d
100
AcDbEntity
8
0-9扉体
6
CONTINUOUS
62
7
100
AcDbLine
10
1243.743000000000
20
1274.435000000000
30
0.0
11
1243.743000000000
21
1264.435000000000
31
0.0
0
LINE
5
64e
100
AcDbEntity
8
0-9扉体
6
CONTINUOUS
62
7
100
AcDbLine
10
1262.743000000000
20
1274.435000000000
30
0.0
11
1262.743000000000
21
1264.435000000000
31
0.0
0
LINE
5
64f
100
AcDbEntity
8
0-9扉体
6
CONTINUOUS
62
7
100
AcDbLine
10
1262.743000000000
20
1274.435000000000
30
0.0
11
1243.743000000000
21
1274.435000000000
31
0.0
0
LINE
5
650
100
AcDbEntity
8
0-9扉体
6
CONTINUOUS
62
7
100
AcDbLine
10
1253.243000000000
20
1273.586000000000
30
0.0
11
1253.243000000000
21
1264.435000000000
31
0.0
0
LINE
5
651
100
AcDbEntity
8
0-9扉体
6
CONTINUOUS
62
4
100
AcDbLine
10
1240.243000000000
20
1261.435000000000
30
0.0
11
1266.243000000000
21
1261.435000000000
31
0.0
0
LINE
5
652
100
AcDbEntity
8
0-9扉体
6
CONTINUOUS
62
4
100
AcDbLine
10
1240.243000000000
20
1261.435000000000
30
0.0
11
1240.243000000000
21
1259.135000000000
31
0.0
0
LINE
5
653
100
AcDbEntity
8
0-9扉体
6
CONTINUOUS
62
4
100
AcDbLine
10
1266.243000000000
20
1261.435000000000
30
0.0
11
1266.243000000000
21
1259.135000000000
31
0.0
0
LINE
5
654
100
AcDbEntity
8
0-9扉体
6
CONTINUOUS
62
4
100
AcDbLine
10
1247.243000000000
20
1284.135000000000
30
0.0
11
1259.243000000000
21
1284.135000000000
31
0.0
0
LINE
5
655
100
AcDbEntity
8
0-9扉体
6
CONTINUOUS
62
4
100
AcDbLine
10
1247.243000000000
20
1284.135000000000
30
0.0
11
1247.243000000000
21
1274.435000000000
31
0.0
0
LINE
5
656
100
AcDbEntity
8
0-9扉体
6
CONTINUOUS
62
4
100
AcDbLine
10
1259.243000000000
20
1284.135000000000
30
0.0
11
1259.243000000000
21
1274.435000000000
31
0.0
0
LINE
5
657
100
AcDbEntity
8
0-9扉体
6
CONTINUOUS
62
4
100
AcDbLine
10
1248.243000000000
20
1284.135000000000
30
0.0
11
1248.243000000000
21
1274.435000000000
31
0.0
0
LINE
5
658
100
AcDbEntity
8
0-9扉体
6
CONTINUOUS
62
4
100
AcDbLine
10
1258.243000000000
20
1284.135000000000
30
0.0
11
1258.243000000000
21
1274.435000000000
31
0.0
0
LINE
5
659
100
AcDbEntity
8
0-9扉体
6
CONTINUOUS
62
4
100
AcDbLine
10
1253.243000000000
20
1264.435000000000
30
0.0
11
1250.243000000000
21
1261.435000000000
31
0.0
0
LINE
5
65a
100
AcDbEntity
8
0-9扉体
6
CONTINUOUS
62
4
100
AcDbLine
10
1253.243000000000
20
1261.435000000000
30
0.0
11
1256.243000000000
21
1264.435000000000
31
0.0
0
LINE
5
65b
100
AcDbEntity
8
0-9扉体
6
CONTINUOUS
62
4
100
AcDbLine
10
1242.493000000000
20
1264.435000000000
30
0.0
11
1242.493000000000
21
1261.435000000000
31
0.0
0
POLYLINE
5
65c
100
AcDbEntity
8
0-9扉体
6
CONTINUOUS
62
  4
100
AcDb2dPolyline
66
1
10
0.0
20
0.0
30
0.0
70
0
0
VERTEX
5
65d
100
AcDbEntity
8
0-9扉体
6
CONTINUOUS
62
  4
100
AcDbVertex
100
AcDb2dVertex
10
1242.493000000000
20
1264.435000000000
30
0.0
0
VERTEX
5
65e
100
AcDbEntity
8
0-9扉体
6
CONTINUOUS
62
  4
100
AcDbVertex
100
AcDb2dVertex
10
1263.993000000000
20
1264.435000000000
30
0.0
0
VERTEX
5
65f
100
AcDbEntity
8
0-9扉体
6
CONTINUOUS
62
  4
100
AcDbVertex
100
AcDb2dVertex
10
1263.993000000000
20
1261.435000000000
30
0.0
0
SEQEND
5
660
100
AcDbEntity
8
0-9扉体
0
LINE
5
661
100
AcDbEntity
8
0-5基準線
6
CENTER2
62
7
100
AcDbLine
10
1253.243000000000
20
1287.090000000000
30
0.0
11
1253.243000000000
21
1273.586000000000
31
0.0
0
LINE
5
662
100
AcDbEntity
8
0-9扉体
6
CONTINUOUS
62
7
100
AcDbLine
10
1362.743000000000
20
1274.435000000000
30
0.0
11
1362.743000000000
21
1264.435000000000
31
0.0
0
LINE
5
663
100
AcDbEntity
8
0-9扉体
6
CONTINUOUS
62
7
100
AcDbLine
10
1343.743000000000
20
1274.435000000000
30
0.0
11
1343.743000000000
21
1264.435000000000
31
0.0
0
LINE
5
664
100
AcDbEntity
8
0-9扉体
6
CONTINUOUS
62
7
100
AcDbLine
10
1343.743000000000
20
1274.435000000000
30
0.0
11
1362.743000000000
21
1274.435000000000
31
0.0
0
LINE
5
665
100
AcDbEntity
8
0-9扉体
6
CONTINUOUS
62
7
100
AcDbLine
10
1353.243000000000
20
1273.586000000000
30
0.0
11
1353.243000000000
21
1264.435000000000
31
0.0
0
LINE
5
666
100
AcDbEntity
8
0-9扉体
6
CONTINUOUS
62
4
100
AcDbLine
10
1366.243000000000
20
1261.435000000000
30
0.0
11
1340.243000000000
21
1261.435000000000
31
0.0
0
LINE
5
667
100
AcDbEntity
8
0-9扉体
6
CONTINUOUS
62
4
100
AcDbLine
10
1366.243000000000
20
1261.435000000000
30
0.0
11
1366.243000000000
21
1259.135000000000
31
0.0
0
LINE
5
668
100
AcDbEntity
8
0-9扉体
6
CONTINUOUS
62
4
100
AcDbLine
10
1340.243000000000
20
1261.435000000000
30
0.0
11
1340.243000000000
21
1259.135000000000
31
0.0
0
LINE
5
669
100
AcDbEntity
8
0-9扉体
6
CONTINUOUS
62
4
100
AcDbLine
10
1359.243000000000
20
1284.135000000000
30
0.0
11
1347.243000000000
21
1284.135000000000
31
0.0
0
LINE
5
66a
100
AcDbEntity
8
0-9扉体
6
CONTINUOUS
62
4
100
AcDbLine
10
1359.243000000000
20
1284.135000000000
30
0.0
11
1359.243000000000
21
1274.435000000000
31
0.0
0
LINE
5
66b
100
AcDbEntity
8
0-9扉体
6
CONTINUOUS
62
4
100
AcDbLine
10
1347.243000000000
20
1284.135000000000
30
0.0
11
1347.243000000000
21
1274.435000000000
31
0.0
0
LINE
5
66c
100
AcDbEntity
8
0-9扉体
6
CONTINUOUS
62
4
100
AcDbLine
10
1358.243000000000
20
1284.135000000000
30
0.0
11
1358.243000000000
21
1274.435000000000
31
0.0
0
LINE
5
66d
100
AcDbEntity
8
0-9扉体
6
CONTINUOUS
62
4
100
AcDbLine
10
1348.243000000000
20
1284.135000000000
30
0.0
11
1348.243000000000
21
1274.435000000000
31
0.0
0
LINE
5
66e
100
AcDbEntity
8
0-9扉体
6
CONTINUOUS
62
4
100
AcDbLine
10
1353.243000000000
20
1264.435000000000
30
0.0
11
1356.243000000000
21
1261.435000000000
31
0.0
0
LINE
5
66f
100
AcDbEntity
8
0-9扉体
6
CONTINUOUS
62
4
100
AcDbLine
10
1353.243000000000
20
1261.435000000000
30
0.0
11
1350.243000000000
21
1264.435000000000
31
0.0
0
LINE
5
670
100
AcDbEntity
8
0-9扉体
6
CONTINUOUS
62
4
100
AcDbLine
10
1363.993000000000
20
1264.435000000000
30
0.0
11
1363.993000000000
21
1261.435000000000
31
0.0
0
POLYLINE
5
671
100
AcDbEntity
8
0-9扉体
6
CONTINUOUS
62
  4
100
AcDb2dPolyline
66
1
10
0.0
20
0.0
30
0.0
70
0
0
VERTEX
5
672
100
AcDbEntity
8
0-9扉体
6
CONTINUOUS
62
  4
100
AcDbVertex
100
AcDb2dVertex
10
1363.993000000000
20
1264.435000000000
30
0.0
0
VERTEX
5
673
100
AcDbEntity
8
0-9扉体
6
CONTINUOUS
62
  4
100
AcDbVertex
100
AcDb2dVertex
10
1342.493000000000
20
1264.435000000000
30
0.0
0
VERTEX
5
674
100
AcDbEntity
8
0-9扉体
6
CONTINUOUS
62
  4
100
AcDbVertex
100
AcDb2dVertex
10
1342.493000000000
20
1261.435000000000
30
0.0
0
SEQEND
5
675
100
AcDbEntity
8
0-9扉体
0
LINE
5
676
100
AcDbEntity
8
0-5基準線
6
CENTER2
62
7
100
AcDbLine
10
1353.243000000000
20
1264.435000000000
30
0.0
11
1353.243000000000
21
1238.671000000000
31
0.0
0
LINE
5
677
100
AcDbEntity
8
0-5基準線
6
CENTER2
62
7
100
AcDbLine
10
1353.243000000000
20
1287.090000000000
30
0.0
11
1353.243000000000
21
1273.586000000000
31
0.0
0
LINE
5
678
100
AcDbEntity
8
0-5基準線
6
CENTER2
62
7
100
AcDbLine
10
1253.243000000000
20
1264.435000000000
30
0.0
11
1253.243000000000
21
1238.671000000000
31
0.0
0
LINE
5
679
100
AcDbEntity
8
0-6戸当り
6
CONTINUOUS
62
6
100
AcDbLine
10
1243.243000000000
20
1360.135000000000
30
0.0
11
1243.243000000000
21
1264.435000000000
31
0.0
0
LINE
5
67a
100
AcDbEntity
8
0-6戸当り
6
CONTINUOUS
62
6
100
AcDbLine
10
1363.243000000000
20
1360.135000000000
30
0.0
11
1363.243000000000
21
1264.435000000000
31
0.0
0
LINE
5
67b
100
AcDbEntity
8
0-8寸法
6
CONTINUOUS
62
4
100
AcDbLine
10
1282.243000000000
20
1324.135000000000
30
0.0
11
1551.259000000000
21
1560.135000000000
31
0.0
0
LINE
5
67c
100
AcDbEntity
8
0-9扉体
6
CONTINUOUS
62
4
100
AcDbLine
10
1153.243000000000
20
1255.135000000000
30
0.0
11
1233.243000000000
21
1255.135000000000
31
0.0
0
LINE
5
67d
100
AcDbEntity
8
0-8寸法
6
CONTINUOUS
62
4
100
AcDbLine
10
1083.243000000000
20
1575.135000000000
30
0.0
11
1303.243000000000
21
1575.135000000000
31
0.0
0
LINE
5
67e
100
AcDbEntity
8
0-6戸当り
6
CONTINUOUS
62
3
100
AcDbLine
10
1153.243000000000
20
1260.135000000000
30
0.0
11
1233.243000000000
21
1260.135000000000
31
0.0
0
LINE
5
67f
100
AcDbEntity
8
0-3RC
6
CONTINUOUS
62
6
100
AcDbLine
10
923.318000000000
20
1410.135000000000
30
0.0
11
1023.243000000000
21
1310.210000000000
31
0.0
0
LINE
5
680
100
AcDbEntity
8
0-3RC
6
CONTINUOUS
62
6
100
AcDbLine
10
1143.243000000000
20
1331.631000000000
30
0.0
11
1214.739000000000
21
1260.135000000000
31
0.0
0
LINE
5
681
100
AcDbEntity
8
0-3RC
6
CONTINUOUS
62
6
100
AcDbLine
10
1135.450000000000
20
1410.135000000000
30
0.0
11
1243.243000000000
21
1302.342000000000
31
0.0
0
LINE
5
682
100
AcDbEntity
8
0-3RC
6
CONTINUOUS
62
6
100
AcDbLine
10
1206.161000000000
20
1410.135000000000
30
0.0
11
1256.161000000000
21
1360.135000000000
31
0.0
0
LINE
5
683
100
AcDbEntity
8
0-3RC
6
CONTINUOUS
62
6
100
AcDbLine
10
1363.243000000000
20
1323.764000000000
30
0.0
11
1518.243000000000
21
1168.764000000000
31
0.0
0
LINE
5
684
100
AcDbEntity
8
0-6戸当り
6
DOT
62
2
100
AcDbLine
10
1064.243000000000
20
2260.595000000000
30
0.0
11
1102.243000000000
21
2260.595000000000
31
0.0
0
LINE
5
685
100
AcDbEntity
8
0-6戸当り
6
CONTINUOUS
62
2
100
AcDbLine
10
1064.243000000000
20
2252.595000000000
30
0.0
11
1102.243000000000
21
2252.595000000000
31
0.0
0
LINE
5
686
100
AcDbEntity
8
0-6戸当り
6
CONTINUOUS
62
2
100
AcDbLine
10
1064.243000000000
20
2252.595000000000
30
0.0
11
1064.243000000000
21
2314.595000000000
31
0.0
0
LINE
5
687
100
AcDbEntity
8
0-6戸当り
6
CONTINUOUS
62
2
100
AcDbLine
10
1102.243000000000
20
2252.595000000000
30
0.0
11
1102.243000000000
21
2314.595000000000
31
0.0
0
LINE
5
688
100
AcDbEntity
8
0-6戸当り
6
DOT
62
2
100
AcDbLine
10
1143.243000000000
20
2314.595000000000
30
0.0
11
1143.243000000000
21
2320.595000000000
31
0.0
0
LINE
5
689
100
AcDbEntity
8
0-6戸当り
6
DOT
62
2
100
AcDbLine
10
1023.243000000000
20
2314.595000000000
30
0.0
11
1023.243000000000
21
2320.595000000000
31
0.0
0
LINE
5
68a
100
AcDbEntity
8
0-6戸当り
6
CONTINUOUS
62
4
100
AcDbLine
10
1035.743000000000
20
2311.595000000000
30
0.0
11
1038.743000000000
21
2314.595000000000
31
0.0
0
LINE
5
68b
100
AcDbEntity
8
0-6戸当り
6
CONTINUOUS
62
4
100
AcDbLine
10
1035.743000000000
20
2314.595000000000
30
0.0
11
1032.743000000000
21
2311.595000000000
31
0.0
0
LINE
5
68c
100
AcDbEntity
8
0-6戸当り
6
CONTINUOUS
62
6
100
AcDbLine
10
1030.743000000000
20
2289.595000000000
30
0.0
11
1030.743000000000
21
2301.595000000000
31
0.0
0
LINE
5
68d
100
AcDbEntity
8
0-6戸当り
6
CONTINUOUS
62
6
100
AcDbLine
10
1040.743000000000
20
2289.595000000000
30
0.0
11
1040.743000000000
21
2301.595000000000
31
0.0
0
LINE
5
68e
100
AcDbEntity
8
0-6戸当り
6
DOT
62
6
100
AcDbLine
10
1029.743000000000
20
2339.594000000000
30
0.0
11
1041.743000000000
21
2339.594000000000
31
0.0
0
LINE
5
68f
100
AcDbEntity
8
0-6戸当り
6
DOT
62
6
100
AcDbLine
10
1030.743000000000
20
2330.595000000000
30
0.0
11
1030.743000000000
21
2339.594000000000
31
0.0
0
LINE
5
690
100
AcDbEntity
8
0-6戸当り
6
DOT
62
6
100
AcDbLine
10
1040.743000000000
20
2330.595000000000
30
0.0
11
1040.743000000000
21
2339.594000000000
31
0.0
0
LINE
5
691
100
AcDbEntity
8
0-6戸当り
6
DOT
62
7
100
AcDbLine
10
1026.243000000000
20
2330.595000000000
30
0.0
11
1026.243000000000
21
2320.595000000000
31
0.0
0
LINE
5
692
100
AcDbEntity
8
0-6戸当り
6
DOT
62
7
100
AcDbLine
10
1045.243000000000
20
2330.595000000000
30
0.0
11
1045.243000000000
21
2320.595000000000
31
0.0
0
LINE
5
693
100
AcDbEntity
8
0-6戸当り
6
DOT
62
7
100
AcDbLine
10
1045.243000000000
20
2330.595000000000
30
0.0
11
1026.243000000000
21
2330.595000000000
31
0.0
0
LINE
5
694
100
AcDbEntity
8
0-6戸当り
6
DOT
62
7
100
AcDbLine
10
1035.743000000000
20
2329.746000000000
30
0.0
11
1035.743000000000
21
2320.595000000000
31
0.0
0
LINE
5
695
100
AcDbEntity
8
0-6戸当り
6
CONTINUOUS
62
7
100
AcDbLine
10
1045.243000000000
20
2301.595000000000
30
0.0
11
1045.243000000000
21
2311.595000000000
31
0.0
0
LINE
5
696
100
AcDbEntity
8
0-6戸当り
6
CONTINUOUS
62
7
100
AcDbLine
10
1026.243000000000
20
2301.595000000000
30
0.0
11
1026.243000000000
21
2311.595000000000
31
0.0
0
LINE
5
697
100
AcDbEntity
8
0-6戸当り
6
CONTINUOUS
62
7
100
AcDbLine
10
1026.243000000000
20
2301.595000000000
30
0.0
11
1045.243000000000
21
2301.595000000000
31
0.0
0
LINE
5
698
100
AcDbEntity
8
0-6戸当り
6
CONTINUOUS
62
7
100
AcDbLine
10
1035.743000000000
20
2302.443000000000
30
0.0
11
1035.743000000000
21
2311.595000000000
31
0.0
0
LINE
5
699
100
AcDbEntity
8
0-6戸当り
6
CONTINUOUS
62
4
100
AcDbLine
10
1024.993000000000
20
2311.595000000000
30
0.0
11
1024.993000000000
21
2314.595000000000
31
0.0
0
LINE
5
69a
100
AcDbEntity
8
0-6戸当り
6
CONTINUOUS
62
4
100
AcDbLine
10
1046.493000000000
20
2311.595000000000
30
0.0
11
1024.993000000000
21
2311.595000000000
31
0.0
0
LINE
5
69b
100
AcDbEntity
8
0-6戸当り
6
CONTINUOUS
62
4
100
AcDbLine
10
1046.493000000000
20
2311.595000000000
30
0.0
11
1046.493000000000
21
2314.595000000000
31
0.0
0
LINE
5
69c
100
AcDbEntity
8
0-5基準線
6
CENTER2
62
7
100
AcDbLine
10
1035.743000000000
20
2320.595000000000
30
0.0
11
1035.743000000000
21
2311.595000000000
31
0.0
0
LINE
5
69d
100
AcDbEntity
8
0-6戸当り
6
CONTINUOUS
62
4
100
AcDbLine
10
1130.743000000000
20
2311.595000000000
30
0.0
11
1127.743000000000
21
2314.595000000000
31
0.0
0
LINE
5
69e
100
AcDbEntity
8
0-6戸当り
6
CONTINUOUS
62
4
100
AcDbLine
10
1130.743000000000
20
2314.595000000000
30
0.0
11
1133.743000000000
21
2311.595000000000
31
0.0
0
LINE
5
69f
100
AcDbEntity
8
0-6戸当り
6
DOT
62
6
100
AcDbLine
10
1136.743000000000
20
2339.594000000000
30
0.0
11
1124.743000000000
21
2339.594000000000
31
0.0
0
LINE
5
6a0
100
AcDbEntity
8
0-6戸当り
6
DOT
62
6
100
AcDbLine
10
1135.743000000000
20
2330.595000000000
30
0.0
11
1135.743000000000
21
2339.594000000000
31
0.0
0
LINE
5
6a1
100
AcDbEntity
8
0-6戸当り
6
DOT
62
6
100
AcDbLine
10
1125.743000000000
20
2330.595000000000
30
0.0
11
1125.743000000000
21
2339.594000000000
31
0.0
0
LINE
5
6a2
100
AcDbEntity
8
0-6戸当り
6
DOT
62
7
100
AcDbLine
10
1140.243000000000
20
2330.595000000000
30
0.0
11
1140.243000000000
21
2320.595000000000
31
0.0
0
LINE
5
6a3
100
AcDbEntity
8
0-6戸当り
6
DOT
62
7
100
AcDbLine
10
1121.243000000000
20
2330.595000000000
30
0.0
11
1121.243000000000
21
2320.595000000000
31
0.0
0
LINE
5
6a4
100
AcDbEntity
8
0-6戸当り
6
DOT
62
7
100
AcDbLine
10
1121.243000000000
20
2330.595000000000
30
0.0
11
1140.243000000000
21
2330.595000000000
31
0.0
0
LINE
5
6a5
100
AcDbEntity
8
0-6戸当り
6
DOT
62
7
100
AcDbLine
10
1130.743000000000
20
2329.746000000000
30
0.0
11
1130.743000000000
21
2320.595000000000
31
0.0
0
LINE
5
6a6
100
AcDbEntity
8
0-6戸当り
6
CONTINUOUS
62
7
100
AcDbLine
10
1121.243000000000
20
2301.595000000000
30
0.0
11
1121.243000000000
21
2311.595000000000
31
0.0
0
LINE
5
6a7
100
AcDbEntity
8
0-6戸当り
6
CONTINUOUS
62
7
100
AcDbLine
10
1140.243000000000
20
2301.595000000000
30
0.0
11
1140.243000000000
21
2311.595000000000
31
0.0
0
LINE
5
6a8
100
AcDbEntity
8
0-6戸当り
6
CONTINUOUS
62
7
100
AcDbLine
10
1140.243000000000
20
2301.595000000000
30
0.0
11
1121.243000000000
21
2301.595000000000
31
0.0
0
LINE
5
6a9
100
AcDbEntity
8
0-6戸当り
6
CONTINUOUS
62
7
100
AcDbLine
10
1130.743000000000
20
2302.443000000000
30
0.0
11
1130.743000000000
21
2311.595000000000
31
0.0
0
LINE
5
6aa
100
AcDbEntity
8
0-6戸当り
6
CONTINUOUS
62
4
100
AcDbLine
10
1141.493000000000
20
2311.595000000000
30
0.0
11
1141.493000000000
21
2314.595000000000
31
0.0
0
LINE
5
6ab
100
AcDbEntity
8
0-6戸当り
6
CONTINUOUS
62
4
100
AcDbLine
10
1119.993000000000
20
2311.595000000000
30
0.0
11
1141.493000000000
21
2311.595000000000
31
0.0
0
LINE
5
6ac
100
AcDbEntity
8
0-6戸当り
6
CONTINUOUS
62
4
100
AcDbLine
10
1119.993000000000
20
2311.595000000000
30
0.0
11
1119.993000000000
21
2314.595000000000
31
0.0
0
LINE
5
6ad
100
AcDbEntity
8
0-6戸当り
6
DOT
62
6
100
AcDbLine
10
1124.743000000000
20
2330.595000000000
30
0.0
11
1124.743000000000
21
2371.595000000000
31
0.0
0
LINE
5
6ae
100
AcDbEntity
8
0-6戸当り
6
DOT
62
6
100
AcDbLine
10
1136.743000000000
20
2330.595000000000
30
0.0
11
1136.743000000000
21
2371.595000000000
31
0.0
0
LINE
5
6af
100
AcDbEntity
8
0-5基準線
6
CENTER2
62
7
100
AcDbLine
10
1130.743000000000
20
2320.595000000000
30
0.0
11
1130.743000000000
21
2311.595000000000
31
0.0
0
LINE
5
6b0
100
AcDbEntity
8
0-5基準線
6
CENTER2
62
7
100
AcDbLine
10
1130.743000000000
20
2371.595000000000
30
0.0
11
1130.743000000000
21
2329.746000000000
31
0.0
0
LINE
5
6b1
100
AcDbEntity
8
0-5基準線
6
CENTER2
62
7
100
AcDbLine
10
1047.743000000000
20
2383.595000000000
30
0.0
11
1118.743000000000
21
2383.595000000000
31
0.0
0
LINE
5
6b2
100
AcDbEntity
8
0-6戸当り
6
DOT
62
2
100
AcDbLine
10
1047.743000000000
20
2389.595000000000
30
0.0
11
1118.743000000000
21
2389.595000000000
31
0.0
0
LINE
5
6b3
100
AcDbEntity
8
0-6戸当り
6
DOT
62
2
100
AcDbLine
10
1047.743000000000
20
2377.595000000000
30
0.0
11
1118.743000000000
21
2377.595000000000
31
0.0
0
LINE
5
6b4
100
AcDbEntity
8
0-5基準線
6
CENTER2
62
7
100
AcDbLine
10
1035.743000000000
20
2302.443000000000
30
0.0
11
1035.743000000000
21
2288.327000000000
31
0.0
0
LINE
5
6b5
100
AcDbEntity
8
0-5基準線
6
CENTER2
62
7
100
AcDbLine
10
1130.743000000000
20
2302.443000000000
30
0.0
11
1130.743000000000
21
2288.327000000000
31
0.0
0
LINE
5
6b6
100
AcDbEntity
8
0-6戸当り
6
CONTINUOUS
62
6
100
AcDbLine
10
1029.743000000000
20
2290.594000000000
30
0.0
11
1041.743000000000
21
2290.594000000000
31
0.0
0
LINE
5
6b7
100
AcDbEntity
8
0-6戸当り
6
CONTINUOUS
62
6
100
AcDbLine
10
1029.743000000000
20
2290.594000000000
30
0.0
11
1029.743000000000
21
2301.595000000000
31
0.0
0
POLYLINE
5
6b8
100
AcDbEntity
8
0-6戸当り
6
CONTINUOUS
62
  6
100
AcDb2dPolyline
66
1
10
0.0
20
0.0
30
0.0
70
0
0
VERTEX
5
6b9
100
AcDbEntity
8
0-6戸当り
6
CONTINUOUS
62
  6
100
AcDbVertex
100
AcDb2dVertex
10
1029.743000000000
20
2290.594000000000
30
0.0
0
VERTEX
5
6ba
100
AcDbEntity
8
0-6戸当り
6
CONTINUOUS
62
  6
100
AcDbVertex
100
AcDb2dVertex
10
1030.743000000000
20
2289.595000000000
30
0.0
0
VERTEX
5
6bb
100
AcDbEntity
8
0-6戸当り
6
CONTINUOUS
62
  6
100
AcDbVertex
100
AcDb2dVertex
10
1040.743000000000
20
2289.595000000000
30
0.0
0
VERTEX
5
6bc
100
AcDbEntity
8
0-6戸当り
6
CONTINUOUS
62
  6
100
AcDbVertex
100
AcDb2dVertex
10
1041.743000000000
20
2290.594000000000
30
0.0
0
VERTEX
5
6bd
100
AcDbEntity
8
0-6戸当り
6
CONTINUOUS
62
  6
100
AcDbVertex
100
AcDb2dVertex
10
1041.743000000000
20
2301.595000000000
30
0.0
0
SEQEND
5
6be
100
AcDbEntity
8
0-6戸当り
0
LINE
5
6bf
100
AcDbEntity
8
0-6戸当り
6
CONTINUOUS
62
6
100
AcDbLine
10
1125.743000000000
20
2289.595000000000
30
0.0
11
1125.743000000000
21
2301.595000000000
31
0.0
0
LINE
5
6c0
100
AcDbEntity
8
0-6戸当り
6
CONTINUOUS
62
6
100
AcDbLine
10
1135.743000000000
20
2289.595000000000
30
0.0
11
1135.743000000000
21
2301.595000000000
31
0.0
0
LINE
5
6c1
100
AcDbEntity
8
0-6戸当り
6
CONTINUOUS
62
6
100
AcDbLine
10
1124.743000000000
20
2290.594000000000
30
0.0
11
1124.743000000000
21
2301.595000000000
31
0.0
0
LINE
5
6c2
100
AcDbEntity
8
0-6戸当り
6
CONTINUOUS
62
6
100
AcDbLine
10
1124.743000000000
20
2290.594000000000
30
0.0
11
1125.743000000000
21
2289.595000000000
31
0.0
0
POLYLINE
5
6c3
100
AcDbEntity
8
0-6戸当り
6
CONTINUOUS
62
  6
100
AcDb2dPolyline
66
1
10
0.0
20
0.0
30
0.0
70
0
0
VERTEX
5
6c4
100
AcDbEntity
8
0-6戸当り
6
CONTINUOUS
62
  6
100
AcDbVertex
100
AcDb2dVertex
10
1135.743000000000
20
2289.595000000000
30
0.0
0
VERTEX
5
6c5
100
AcDbEntity
8
0-6戸当り
6
CONTINUOUS
62
  6
100
AcDbVertex
100
AcDb2dVertex
10
1136.743000000000
20
2290.594000000000
30
0.0
0
VERTEX
5
6c6
100
AcDbEntity
8
0-6戸当り
6
CONTINUOUS
62
  6
100
AcDbVertex
100
AcDb2dVertex
10
1136.743000000000
20
2301.595000000000
30
0.0
0
SEQEND
5
6c7
100
AcDbEntity
8
0-6戸当り
0
LINE
5
6c8
100
AcDbEntity
8
0-6戸当り
6
DOT
62
6
100
AcDbLine
10
1041.743000000000
20
2330.595000000000
30
0.0
11
1041.743000000000
21
2371.595000000000
31
0.0
0
LINE
5
6c9
100
AcDbEntity
8
0-5基準線
6
CENTER2
62
7
100
AcDbLine
10
1035.743000000000
20
2371.595000000000
30
0.0
11
1035.743000000000
21
2329.746000000000
31
0.0
0
LINE
5
6ca
100
AcDbEntity
8
0-6戸当り
6
DOT
62
6
100
AcDbLine
10
1029.743000000000
20
2330.595000000000
30
0.0
11
1029.743000000000
21
2371.595000000000
31
0.0
0
LINE
5
6cb
100
AcDbEntity
8
0-6戸当り
6
CONTINUOUS
62
6
100
AcDbLine
10
1124.743000000000
20
2290.594000000000
30
0.0
11
1136.743000000000
21
2290.594000000000
31
0.0
0
LINE
5
6cc
100
AcDbEntity
8
0-6戸当り
6
CONTINUOUS
62
6
100
AcDbLine
10
1125.743000000000
20
2289.595000000000
30
0.0
11
1135.743000000000
21
2289.595000000000
31
0.0
0
LINE
5
6cd
100
AcDbEntity
8
0-6戸当り
6
DOT
62
7
100
AcDbLine
10
1086.243000000000
20
2370.594000000000
30
0.0
11
1080.243000000000
21
2370.594000000000
31
0.0
0
LINE
5
6ce
100
AcDbEntity
8
0-6戸当り
6
DOT
62
7
100
AcDbLine
10
1086.243000000000
20
2320.595000000000
30
0.0
11
1086.243000000000
21
2370.594000000000
31
0.0
0
LINE
5
6cf
100
AcDbEntity
8
0-5基準線
6
CENTER2
62
7
100
AcDbLine
10
1083.243000000000
20
2235.595000000000
30
0.0
11
1083.243000000000
21
2397.216000000000
31
0.0
0
LINE
5
6d0
100
AcDbEntity
8
0-6戸当り
6
DOT
62
2
100
AcDbLine
10
1041.743000000000
20
2364.595000000000
30
0.0
11
1080.243000000000
21
2364.595000000000
31
0.0
0
LINE
5
6d1
100
AcDbEntity
8
0-6戸当り
6
DOT
62
2
100
AcDbLine
10
1086.243000000000
20
2364.595000000000
30
0.0
11
1193.243000000000
21
2364.595000000000
31
0.0
0
LINE
5
6d2
100
AcDbEntity
8
0-6戸当り
6
DOT
62
7
100
AcDbLine
10
1080.243000000000
20
2320.595000000000
30
0.0
11
1080.243000000000
21
2370.594000000000
31
0.0
0
LINE
5
6d3
100
AcDbEntity
8
0-3RC
6
DOT
62
2
100
AcDbLine
10
1018.243000000000
20
2314.595000000000
30
0.0
11
1018.243000000000
21
2514.595000000000
31
0.0
0
LINE
5
6d4
100
AcDbEntity
8
0-6戸当り
6
DOT
62
3
100
AcDbLine
10
1012.243000000000
20
2327.095000000000
30
0.0
11
1012.243000000000
21
2360.095000000000
31
0.0
0
LINE
5
6d5
100
AcDbEntity
8
0-6戸当り
6
DOT
62
3
100
AcDbLine
10
1018.243000000000
20
2364.595000000000
30
0.0
11
1016.743000000000
21
2364.595000000000
31
0.0
0
LINE
5
6d6
100
AcDbEntity
8
0-6戸当り
6
DOT
62
3
100
AcDbLine
10
991.743000000000
20
2347.594000000000
30
0.0
11
1012.243000000000
21
2347.594000000000
31
0.0
0
LINE
5
6d7
100
AcDbEntity
8
0-5基準線
6
CENTER2
62
7
100
AcDbLine
10
991.743000000000
20
2354.094000000000
30
0.0
11
1012.243000000000
21
2354.094000000000
31
0.0
0
LINE
5
6d8
100
AcDbEntity
8
0-6戸当り
6
DOT
62
3
100
AcDbLine
10
991.743000000000
20
2360.594000000000
30
0.0
11
1012.243000000000
21
2360.594000000000
31
0.0
0
POLYLINE
5
6d9
100
AcDbEntity
8
0-9扉体
6
DOT
62
  4
100
AcDb2dPolyline
66
1
10
0.0
20
0.0
30
0.0
70
0
0
VERTEX
5
6da
100
AcDbEntity
8
0-9扉体
6
DOT
62
  4
100
AcDbVertex
100
AcDb2dVertex
10
1348.243000000000
20
826.135000000000
30
0.0
0
VERTEX
5
6db
100
AcDbEntity
8
0-9扉体
6
DOT
62
  4
100
AcDbVertex
100
AcDb2dVertex
10
1038.243000000000
20
826.135000000000
30
0.0
0
VERTEX
5
6dc
100
AcDbEntity
8
0-9扉体
6
DOT
62
  4
100
AcDbVertex
100
AcDb2dVertex
10
984.243000000000
20
826.135000000000
30
0.0
0
SEQEND
5
6dd
100
AcDbEntity
8
0-9扉体
0
LINE
5
6de
100
AcDbEntity
8
0-9扉体
6
DOT
62
4
100
AcDbLine
10
1402.243000000000
20
826.135000000000
30
0.0
11
1348.243000000000
21
826.135000000000
31
0.0
0
LINE
5
6df
100
AcDbEntity
8
0-9扉体
6
CONTINUOUS
62
4
100
AcDbLine
10
973.243000000000
20
815.135000000000
30
0.0
11
973.243000000000
21
1255.135000000000
31
0.0
0
LINE
5
6e0
100
AcDbEntity
8
0-9扉体
6
CONTINUOUS
62
4
100
AcDbLine
10
1408.243000000000
20
820.135000000000
30
0.0
11
978.243000000000
21
820.135000000000
31
0.0
0
LINE
5
6e1
100
AcDbEntity
8
0-9扉体
6
CONTINUOUS
62
4
100
AcDbLine
10
1408.243000000000
20
1250.135000000000
30
0.0
11
1408.243000000000
21
820.135000000000
31
0.0
0
POLYLINE
5
6e2
100
AcDbEntity
8
0-9扉体
6
CONTINUOUS
62
  4
100
AcDb2dPolyline
66
1
10
0.0
20
0.0
30
0.0
70
0
0
VERTEX
5
6e3
100
AcDbEntity
8
0-9扉体
6
CONTINUOUS
62
  4
100
AcDbVertex
100
AcDb2dVertex
10
1413.243000000000
20
1255.135000000000
30
0.0
0
VERTEX
5
6e4
100
AcDbEntity
8
0-9扉体
6
CONTINUOUS
62
  4
100
AcDbVertex
100
AcDb2dVertex
10
1413.243000000000
20
815.135000000000
30
0.0
0
VERTEX
5
6e5
100
AcDbEntity
8
0-9扉体
6
CONTINUOUS
62
  4
100
AcDbVertex
100
AcDb2dVertex
10
973.243000000000
20
815.135000000000
30
0.0
0
SEQEND
5
6e6
100
AcDbEntity
8
0-9扉体
0
LINE
5
6e7
100
AcDbEntity
8
0-9扉体
6
DOT
62
4
100
AcDbLine
10
984.243000000000
20
820.135000000000
30
0.0
11
984.243000000000
21
1250.135000000000
31
0.0
0
LINE
5
6e8
100
AcDbEntity
8
0-9扉体
6
CONTINUOUS
62
4
100
AcDbLine
10
978.243000000000
20
1250.135000000000
30
0.0
11
1408.243000000000
21
1250.135000000000
31
0.0
0
LINE
5
6e9
100
AcDbEntity
8
0-9扉体
6
CONTINUOUS
62
4
100
AcDbLine
10
978.243000000000
20
820.135000000000
30
0.0
11
978.243000000000
21
1250.135000000000
31
0.0
0
LINE
5
6ea
100
AcDbEntity
8
0-9扉体
6
DOT
62
4
100
AcDbLine
10
984.243000000000
20
1244.135000000000
30
0.0
11
1402.243000000000
21
1244.135000000000
31
0.0
0
LINE
5
6eb
100
AcDbEntity
8
0-6戸当り
6
DOT
62
3
100
AcDbLine
10
2377.675000000000
20
1210.135000000000
30
0.0
11
2377.675000000000
21
1095.247000000000
31
0.0
0
LINE
5
6ec
100
AcDbEntity
8
0-5基準線
6
CENTER2
62
7
100
AcDbLine
10
2332.272000000000
20
860.135000000000
30
0.0
11
2371.200000000000
21
860.135000000000
31
0.0
0
LINE
5
6ed
100
AcDbEntity
8
0-5基準線
6
CENTER2
62
7
100
AcDbLine
10
2331.332000000000
20
1210.135000000000
30
0.0
11
2371.200000000000
21
1210.135000000000
31
0.0
0
LINE
5
6ee
100
AcDbEntity
8
0-9扉体
6
CONTINUOUS
62
4
100
AcDbLine
10
2306.675000000000
20
1259.135000000000
30
0.0
11
2306.675000000000
21
1250.135000000000
31
0.0
0
POLYLINE
5
6ef
100
AcDbEntity
8
0-9扉体
6
CONTINUOUS
62
  4
100
AcDb2dPolyline
66
1
10
0.0
20
0.0
30
0.0
70
0
0
VERTEX
5
6f0
100
AcDbEntity
8
0-9扉体
6
CONTINUOUS
62
  4
100
AcDbVertex
100
AcDb2dVertex
10
2306.675000000000
20
1259.135000000000
30
0.0
0
VERTEX
5
6f1
100
AcDbEntity
8
0-9扉体
6
CONTINUOUS
62
  4
100
AcDbVertex
100
AcDb2dVertex
10
2344.675000000000
20
1259.135000000000
30
0.0
0
VERTEX
5
6f2
100
AcDbEntity
8
0-9扉体
6
CONTINUOUS
62
  4
100
AcDbVertex
100
AcDb2dVertex
10
2344.675000000000
20
1250.135000000000
30
0.0
0
SEQEND
5
6f3
100
AcDbEntity
8
0-9扉体
0
LINE
5
6f4
100
AcDbEntity
8
0-5基準線
6
CENTER2
62
7
100
AcDbLine
10
2345.675000000000
20
1320.135000000000
30
0.0
11
2345.675000000000
21
1280.135000000000
31
0.0
0
LINE
5
6f5
100
AcDbEntity
8
0-9扉体
6
CONTINUOUS
62
4
100
AcDbLine
10
2328.175000000000
20
1324.135000000000
30
0.0
11
2306.675000000000
21
1259.135000000000
31
0.0
0
LINE
5
6f6
100
AcDbEntity
8
0-5基準線
6
CENTER2
62
7
100
AcDbLine
10
2326.956000000000
20
1300.135000000000
30
0.0
11
2364.915000000000
21
1300.135000000000
31
0.0
0
LINE
5
6f7
100
AcDbEntity
8
0-8寸法
6
CONTINUOUS
62
4
100
AcDbLine
10
2291.567000000000
20
1210.135000000000
30
0.0
11
2191.675000000000
21
1210.135000000000
31
0.0
0
LINE
5
6f8
100
AcDbEntity
8
0-8寸法
6
CONTINUOUS
62
4
100
AcDbLine
10
2291.567000000000
20
1250.135000000000
30
0.0
11
2191.675000000000
21
1250.135000000000
31
0.0
0
LINE
5
6f9
100
AcDbEntity
8
0-8寸法
6
CONTINUOUS
62
4
100
AcDbLine
10
2201.675000000000
20
1210.135000000000
30
0.0
11
2196.498000000000
21
1190.817000000000
31
0.0
0
LINE
5
6fa
100
AcDbEntity
8
0-8寸法
6
CONTINUOUS
62
4
100
AcDbLine
10
2201.675000000000
20
1210.135000000000
30
0.0
11
2206.851000000000
21
1190.817000000000
31
0.0
0
LINE
5
6fb
100
AcDbEntity
8
0-8寸法
6
CONTINUOUS
62
4
100
AcDbLine
10
2291.567000000000
20
1300.135000000000
30
0.0
11
2191.675000000000
21
1300.135000000000
31
0.0
0
LINE
5
6fc
100
AcDbEntity
8
0-8寸法
6
CONTINUOUS
62
4
100
AcDbLine
10
2201.675000000000
20
1300.135000000000
30
0.0
11
2196.498000000000
21
1319.454000000000
31
0.0
0
LINE
5
6fd
100
AcDbEntity
8
0-8寸法
6
CONTINUOUS
62
4
100
AcDbLine
10
2201.675000000000
20
1300.135000000000
30
0.0
11
2206.851000000000
21
1319.454000000000
31
0.0
0
LINE
5
6fe
100
AcDbEntity
8
0-8寸法
6
CONTINUOUS
62
4
100
AcDbLine
10
2201.675000000000
20
1134.917000000000
30
0.0
11
2201.675000000000
21
1369.327000000000
31
0.0
0
LINE
5
6ff
100
AcDbEntity
8
0-9扉体
6
CONTINUOUS
62
4
100
AcDbLine
10
2344.675000000000
20
1259.135000000000
30
0.0
11
2363.175000000000
21
1277.635000000000
31
0.0
0
LINE
5
700
100
AcDbEntity
8
0-8寸法
6
CONTINUOUS
62
4
100
AcDbLine
10
2349.676000000000
20
1085.135000000000
30
0.0
11
2349.676000000000
21
1075.135000000000
31
0.0
0
LINE
5
701
100
AcDbEntity
8
0-8寸法
6
CONTINUOUS
62
4
100
AcDbLine
10
2304.675000000000
20
1085.135000000000
30
0.0
11
2285.356000000000
21
1090.312000000000
31
0.0
0
LINE
5
702
100
AcDbEntity
8
0-8寸法
6
CONTINUOUS
62
4
100
AcDbLine
10
2304.675000000000
20
1085.135000000000
30
0.0
11
2285.356000000000
21
1079.959000000000
31
0.0
0
LINE
5
703
100
AcDbEntity
8
0-9扉体
6
CONTINUOUS
62
4
100
AcDbLine
10
2355.675000000000
20
1255.135000000000
30
0.0
11
2349.675000000000
21
1255.135000000000
31
0.0
0
LINE
5
704
100
AcDbEntity
8
0-9扉体
6
CONTINUOUS
62
4
100
AcDbLine
10
2301.675000000000
20
1250.135000000000
30
0.0
11
2349.675000000000
21
1250.135000000000
31
0.0
0
LINE
5
705
100
AcDbEntity
8
0-9扉体
6
CONTINUOUS
62
4
100
AcDbLine
10
2301.675000000000
20
1190.135000000000
30
0.0
11
2307.675000000000
21
1190.135000000000
31
0.0
0
LINE
5
706
100
AcDbEntity
8
0-9扉体
6
CONTINUOUS
62
4
100
AcDbLine
10
2307.675000000000
20
1238.135000000000
30
0.0
11
2307.675000000000
21
1190.135000000000
31
0.0
0
LINE
5
707
100
AcDbEntity
8
0-9扉体
6
CONTINUOUS
62
4
100
AcDbLine
10
2313.675000000000
20
1244.135000000000
30
0.0
11
2349.675000000000
21
1244.135000000000
31
0.0
0
LINE
5
708
100
AcDbEntity
8
0-5基準線
6
CENTER2
62
7
100
AcDbLine
10
2325.675000000000
20
1286.349000000000
30
0.0
11
2325.675000000000
21
1230.863000000000
31
0.0
0
LINE
5
709
100
AcDbEntity
8
0-9扉体
6
CONTINUOUS
62
4
100
AcDbLine
10
2312.675000000000
20
1261.435000000000
30
0.0
11
2338.675000000000
21
1261.435000000000
31
0.0
0
LINE
5
70a
100
AcDbEntity
8
0-9扉体
6
CONTINUOUS
62
4
100
AcDbLine
10
2312.675000000000
20
1261.435000000000
30
0.0
11
2312.675000000000
21
1259.135000000000
31
0.0
0
LINE
5
70b
100
AcDbEntity
8
0-9扉体
6
CONTINUOUS
62
4
100
AcDbLine
10
2338.675000000000
20
1261.435000000000
30
0.0
11
2338.675000000000
21
1259.135000000000
31
0.0
0
LINE
5
70c
100
AcDbEntity
8
0-9扉体
6
CONTINUOUS
62
4
100
AcDbLine
10
2314.925000000000
20
1264.435000000000
30
0.0
11
2314.925000000000
21
1261.435000000000
31
0.0
0
LINE
5
70d
100
AcDbEntity
8
0-9扉体
6
CONTINUOUS
62
4
100
AcDbLine
10
2336.425000000000
20
1264.435000000000
30
0.0
11
2336.425000000000
21
1261.435000000000
31
0.0
0
LINE
5
70e
100
AcDbEntity
8
0-9扉体
6
CONTINUOUS
62
7
100
AcDbLine
10
2316.175000000000
20
1274.435000000000
30
0.0
11
2335.175000000000
21
1274.435000000000
31
0.0
0
LINE
5
70f
100
AcDbEntity
8
0-9扉体
6
CONTINUOUS
62
7
100
AcDbLine
10
2316.175000000000
20
1274.435000000000
30
0.0
11
2314.706000000000
21
1273.586000000000
31
0.0
0
LINE
5
710
100
AcDbEntity
8
0-9扉体
6
CONTINUOUS
62
7
100
AcDbLine
10
2335.175000000000
20
1274.435000000000
30
0.0
11
2336.645000000000
21
1273.586000000000
31
0.0
0
LINE
5
711
100
AcDbEntity
8
0-9扉体
6
CONTINUOUS
62
7
100
AcDbLine
10
2314.706000000000
20
1264.435000000000
30
0.0
11
2314.706000000000
21
1273.586000000000
31
0.0
0
LINE
5
712
100
AcDbEntity
8
0-9扉体
6
CONTINUOUS
62
7
100
AcDbLine
10
2336.645000000000
20
1264.435000000000
30
0.0
11
2336.645000000000
21
1273.586000000000
31
0.0
0
LINE
5
713
100
AcDbEntity
8
0-9扉体
6
CONTINUOUS
62
4
100
AcDbLine
10
2314.706000000000
20
1264.435000000000
30
0.0
11
2336.645000000000
21
1264.435000000000
31
0.0
0
LINE
5
714
100
AcDbEntity
8
0-9扉体
6
CONTINUOUS
62
7
100
AcDbLine
10
2320.190000000000
20
1264.435000000000
30
0.0
11
2320.190000000000
21
1273.586000000000
31
0.0
0
LINE
5
715
100
AcDbEntity
8
0-9扉体
6
CONTINUOUS
62
7
100
AcDbLine
10
2331.160000000000
20
1264.435000000000
30
0.0
11
2331.160000000000
21
1273.586000000000
31
0.0
0
LINE
5
716
100
AcDbEntity
8
0-9扉体
6
CONTINUOUS
62
7
100
AcDbLine
10
2335.175000000000
20
1236.135000000000
30
0.0
11
2316.175000000000
21
1236.135000000000
31
0.0
0
LINE
5
717
100
AcDbEntity
8
0-9扉体
6
CONTINUOUS
62
7
100
AcDbLine
10
2335.175000000000
20
1236.135000000000
30
0.0
11
2336.645000000000
21
1236.984000000000
31
0.0
0
LINE
5
718
100
AcDbEntity
8
0-9扉体
6
CONTINUOUS
62
7
100
AcDbLine
10
2316.175000000000
20
1236.135000000000
30
0.0
11
2314.706000000000
21
1236.984000000000
31
0.0
0
LINE
5
719
100
AcDbEntity
8
0-9扉体
6
CONTINUOUS
62
7
100
AcDbLine
10
2336.645000000000
20
1244.135000000000
30
0.0
11
2336.645000000000
21
1236.984000000000
31
0.0
0
LINE
5
71a
100
AcDbEntity
8
0-9扉体
6
CONTINUOUS
62
7
100
AcDbLine
10
2314.706000000000
20
1244.135000000000
30
0.0
11
2314.706000000000
21
1236.984000000000
31
0.0
0
LINE
5
71b
100
AcDbEntity
8
0-9扉体
6
CONTINUOUS
62
7
100
AcDbLine
10
2331.160000000000
20
1244.135000000000
30
0.0
11
2331.160000000000
21
1236.984000000000
31
0.0
0
LINE
5
71c
100
AcDbEntity
8
0-9扉体
6
CONTINUOUS
62
7
100
AcDbLine
10
2320.190000000000
20
1244.135000000000
30
0.0
11
2320.190000000000
21
1236.984000000000
31
0.0
0
LINE
5
71d
100
AcDbEntity
8
0-9扉体
6
CONTINUOUS
62
4
100
AcDbLine
10
2319.675000000000
20
1284.135000000000
30
0.0
11
2331.675000000000
21
1284.135000000000
31
0.0
0
LINE
5
71e
100
AcDbEntity
8
0-9扉体
6
CONTINUOUS
62
4
100
AcDbLine
10
2319.675000000000
20
1284.135000000000
30
0.0
11
2319.675000000000
21
1274.435000000000
31
0.0
0
LINE
5
71f
100
AcDbEntity
8
0-9扉体
6
CONTINUOUS
62
4
100
AcDbLine
10
2331.675000000000
20
1284.135000000000
30
0.0
11
2331.675000000000
21
1274.435000000000
31
0.0
0
LINE
5
720
100
AcDbEntity
8
0-9扉体
6
CONTINUOUS
62
4
100
AcDbLine
10
2320.675000000000
20
1284.135000000000
30
0.0
11
2320.675000000000
21
1274.435000000000
31
0.0
0
LINE
5
721
100
AcDbEntity
8
0-9扉体
6
CONTINUOUS
62
4
100
AcDbLine
10
2330.675000000000
20
1284.135000000000
30
0.0
11
2330.675000000000
21
1274.435000000000
31
0.0
0
LINE
5
722
100
AcDbEntity
8
0-9扉体
6
CONTINUOUS
62
4
100
AcDbLine
10
2325.675000000000
20
1264.435000000000
30
0.0
11
2322.675000000000
21
1261.435000000000
31
0.0
0
LINE
5
723
100
AcDbEntity
8
0-9扉体
6
CONTINUOUS
62
4
100
AcDbLine
10
2325.675000000000
20
1261.435000000000
30
0.0
11
2328.675000000000
21
1264.435000000000
31
0.0
0
LINE
5
724
100
AcDbEntity
8
0-8寸法
6
CONTINUOUS
62
4
100
AcDbLine
10
2355.675000000000
20
985.135000000000
30
0.0
11
2336.356000000000
21
990.312000000000
31
0.0
0
LINE
5
725
100
AcDbEntity
8
0-8寸法
6
CONTINUOUS
62
4
100
AcDbLine
10
2355.675000000000
20
985.135000000000
30
0.0
11
2336.356000000000
21
979.959000000000
31
0.0
0
LINE
5
726
100
AcDbEntity
8
0-9扉体
6
CONTINUOUS
62
4
100
AcDbLine
10
2349.675000000000
20
1255.135000000000
30
0.0
11
2349.675000000000
21
997.096000000000
31
0.0
0
LINE
5
727
100
AcDbEntity
8
0-9扉体
6
CONTINUOUS
62
4
100
AcDbLine
10
2301.675000000000
20
1250.135000000000
30
0.0
11
2301.675000000000
21
1040.135000000000
31
0.0
0
LINE
5
728
100
AcDbEntity
8
0-9扉体
6
CONTINUOUS
62
4
100
AcDbLine
10
2301.675000000000
20
975.135000000000
30
0.0
11
2301.675000000000
21
820.135000000000
31
0.0
0
LINE
5
729
100
AcDbEntity
8
0-9扉体
6
CONTINUOUS
62
3
100
AcDbLine
10
2367.491000000000
20
1237.336000000000
30
0.0
11
2371.253000000000
21
1233.573000000000
31
0.0
0
LINE
5
72a
100
AcDbEntity
8
0-9扉体
6
CONTINUOUS
62
3
100
AcDbLine
10
2361.112000000000
20
1243.714000000000
30
0.0
11
2364.875000000000
21
1239.951000000000
31
0.0
0
LINE
5
72b
100
AcDbEntity
8
0-9扉体
6
CONTINUOUS
62
3
100
AcDbLine
10
2365.283000000000
20
1232.473000000000
30
0.0
11
2368.210000000000
21
1229.545000000000
31
0.0
0
LINE
5
72c
100
AcDbEntity
8
0-9扉体
6
CONTINUOUS
62
3
100
AcDbLine
10
2357.085000000000
20
1240.670000000000
30
0.0
11
2360.012000000000
21
1237.743000000000
31
0.0
0
LINE
5
72d
100
AcDbEntity
8
0-9扉体
6
CONTINUOUS
62
3
100
AcDbLine
10
2355.675000000000
20
1235.009000000000
30
0.0
11
2362.455000000000
21
1228.229000000000
31
0.0
0
LINE
5
72e
100
AcDbEntity
8
0-9扉体
6
CONTINUOUS
62
3
100
AcDbLine
10
2355.675000000000
20
1227.938000000000
30
0.0
11
2361.675000000000
21
1221.938000000000
31
0.0
0
LINE
5
72f
100
AcDbEntity
8
0-9扉体
6
CONTINUOUS
62
3
100
AcDbLine
10
2355.675000000000
20
1220.867000000000
30
0.0
11
2361.675000000000
21
1214.867000000000
31
0.0
0
LINE
5
730
100
AcDbEntity
8
0-9扉体
6
CONTINUOUS
62
3
100
AcDbLine
10
2355.675000000000
20
1199.654000000000
30
0.0
11
2361.675000000000
21
1193.654000000000
31
0.0
0
LINE
5
731
100
AcDbEntity
8
0-9扉体
6
CONTINUOUS
62
3
100
AcDbLine
10
2355.675000000000
20
1236.135000000000
30
0.0
11
2355.675000000000
21
1193.135000000000
31
0.0
0
LINE
5
732
100
AcDbEntity
8
0-9扉体
6
CONTINUOUS
62
3
100
AcDbLine
10
2361.675000000000
20
1214.135000000000
30
0.0
11
2355.675000000000
21
1214.135000000000
31
0.0
0
LINE
5
733
100
AcDbEntity
8
0-9扉体
6
CONTINUOUS
62
3
100
AcDbLine
10
2361.675000000000
20
1206.135000000000
30
0.0
11
2355.675000000000
21
1206.135000000000
31
0.0
0
LINE
5
734
100
AcDbEntity
8
0-9扉体
6
DOT
62
3
100
AcDbLine
10
2363.675000000000
20
1206.135000000000
30
0.0
11
2367.676000000000
21
1202.135000000000
31
0.0
0
LINE
5
735
100
AcDbEntity
8
0-9扉体
6
DOT
62
3
100
AcDbLine
10
2363.675000000000
20
1214.135000000000
30
0.0
11
2367.676000000000
21
1218.135000000000
31
0.0
0
LINE
5
736
100
AcDbEntity
8
0-9扉体
6
DOT
62
3
100
AcDbLine
10
2363.675000000000
20
1206.135000000000
30
0.0
11
2363.675000000000
21
1214.135000000000
31
0.0
0
LINE
5
737
100
AcDbEntity
8
0-9扉体
6
CONTINUOUS
62
3
100
AcDbLine
10
2361.675000000000
20
1226.135000000000
30
0.0
11
2367.676000000000
21
1226.135000000000
31
0.0
0
LINE
5
738
100
AcDbEntity
8
0-9扉体
6
CONTINUOUS
62
3
100
AcDbLine
10
2367.676000000000
20
1194.135000000000
30
0.0
11
2367.676000000000
21
1226.135000000000
31
0.0
0
LINE
5
739
100
AcDbEntity
8
0-9扉体
6
CONTINUOUS
62
3
100
AcDbLine
10
2361.675000000000
20
1194.135000000000
30
0.0
11
2367.676000000000
21
1194.135000000000
31
0.0
0
LINE
5
73a
100
AcDbEntity
8
0-9扉体
6
DOT
62
3
100
AcDbLine
10
2349.675000000000
20
1214.135000000000
30
0.0
11
2363.675000000000
21
1214.135000000000
31
0.0
0
LINE
5
73b
100
AcDbEntity
8
0-9扉体
6
DOT
62
3
100
AcDbLine
10
2349.675000000000
20
1206.135000000000
30
0.0
11
2363.675000000000
21
1206.135000000000
31
0.0
0
LINE
5
73c
100
AcDbEntity
8
0-9扉体
6
CONTINUOUS
62
3
100
AcDbLine
10
2348.075000000000
20
1201.135000000000
30
0.0
11
2349.675000000000
21
1201.135000000000
31
0.0
0
LINE
5
73d
100
AcDbEntity
8
0-9扉体
6
CONTINUOUS
62
3
100
AcDbLine
10
2348.075000000000
20
1219.135000000000
30
0.0
11
2349.675000000000
21
1219.135000000000
31
0.0
0
LINE
5
73e
100
AcDbEntity
8
0-9扉体
6
CONTINUOUS
62
3
100
AcDbLine
10
2339.674000000000
20
1206.135000000000
30
0.0
11
2339.674000000000
21
1214.135000000000
31
0.0
0
LINE
5
73f
100
AcDbEntity
8
0-9扉体
6
CONTINUOUS
62
3
100
AcDbLine
10
2348.075000000000
20
1219.135000000000
30
0.0
11
2348.075000000000
21
1201.135000000000
31
0.0
0
LINE
5
740
100
AcDbEntity
8
0-9扉体
6
CONTINUOUS
62
3
100
AcDbLine
10
2341.575000000000
20
1203.635000000000
30
0.0
11
2342.156000000000
21
1202.630000000000
31
0.0
0
LINE
5
741
100
AcDbEntity
8
0-9扉体
6
CONTINUOUS
62
3
100
AcDbLine
10
2341.575000000000
20
1216.635000000000
30
0.0
11
2342.156000000000
21
1217.641000000000
31
0.0
0
LINE
5
742
100
AcDbEntity
8
0-9扉体
6
CONTINUOUS
62
3
100
AcDbLine
10
2341.575000000000
20
1203.635000000000
30
0.0
11
2341.575000000000
21
1216.635000000000
31
0.0
0
LINE
5
743
100
AcDbEntity
8
0-9扉体
6
CONTINUOUS
62
3
100
AcDbLine
10
2348.075000000000
20
1217.641000000000
30
0.0
11
2342.156000000000
21
1217.641000000000
31
0.0
0
LINE
5
744
100
AcDbEntity
8
0-9扉体
6
CONTINUOUS
62
3
100
AcDbLine
10
2348.075000000000
20
1202.630000000000
30
0.0
11
2342.156000000000
21
1202.630000000000
31
0.0
0
LINE
5
745
100
AcDbEntity
8
0-9扉体
6
CONTINUOUS
62
3
100
AcDbLine
10
2341.575000000000
20
1214.135000000000
30
0.0
11
2339.674000000000
21
1214.135000000000
31
0.0
0
LINE
5
746
100
AcDbEntity
8
0-9扉体
6
CONTINUOUS
62
3
100
AcDbLine
10
2341.575000000000
20
1206.135000000000
30
0.0
11
2339.674000000000
21
1206.135000000000
31
0.0
0
LINE
5
747
100
AcDbEntity
8
0-9扉体
6
CONTINUOUS
62
3
100
AcDbLine
10
2348.075000000000
20
1206.383000000000
30
0.0
11
2342.155000000000
21
1206.383000000000
31
0.0
0
LINE
5
748
100
AcDbEntity
8
0-9扉体
6
CONTINUOUS
62
3
100
AcDbLine
10
2348.075000000000
20
1213.888000000000
30
0.0
11
2342.156000000000
21
1213.888000000000
31
0.0
0
LINE
5
749
100
AcDbEntity
8
0-9扉体
6
CONTINUOUS
62
3
100
AcDbLine
10
2341.575000000000
20
1213.135000000000
30
0.0
11
2339.674000000000
21
1213.135000000000
31
0.0
0
LINE
5
74a
100
AcDbEntity
8
0-9扉体
6
CONTINUOUS
62
3
100
AcDbLine
10
2341.575000000000
20
1207.135000000000
30
0.0
11
2339.674000000000
21
1207.135000000000
31
0.0
0
LINE
5
74b
100
AcDbEntity
8
0-9扉体
6
CONTINUOUS
62
3
100
AcDbLine
10
2349.675000000000
20
1201.135000000000
30
0.0
11
2349.675000000000
21
1219.135000000000
31
0.0
0
LINE
5
74c
100
AcDbEntity
8
0-9扉体
6
CONTINUOUS
62
3
100
AcDbLine
10
2361.675000000000
20
1193.135000000000
30
0.0
11
2355.675000000000
21
1193.135000000000
31
0.0
0
LINE
5
74d
100
AcDbEntity
8
0-9扉体
6
CONTINUOUS
62
3
100
AcDbLine
10
2361.675000000000
20
1228.389000000000
30
0.0
11
2361.675000000000
21
1193.135000000000
31
0.0
0
LINE
5
74e
100
AcDbEntity
8
0-9扉体
6
CONTINUOUS
62
3
100
AcDbLine
10
2356.265000000000
20
1206.135000000000
30
0.0
11
2361.675000000000
21
1200.725000000000
31
0.0
0
LINE
5
74f
100
AcDbEntity
8
0-9扉体
6
CONTINUOUS
62
4
100
AcDbLine
10
2301.675000000000
20
880.135000000000
30
0.0
11
2307.675000000000
21
880.135000000000
31
0.0
0
LINE
5
750
100
AcDbEntity
8
0-9扉体
6
CONTINUOUS
62
4
100
AcDbLine
10
2307.675000000000
20
832.135000000000
30
0.0
11
2307.675000000000
21
880.135000000000
31
0.0
0
LINE
5
751
100
AcDbEntity
8
0-9扉体
6
CONTINUOUS
62
4
100
AcDbLine
10
2313.675000000000
20
826.135000000000
30
0.0
11
2349.675000000000
21
826.135000000000
31
0.0
0
LINE
5
752
100
AcDbEntity
8
0-9扉体
6
CONTINUOUS
62
4
100
AcDbLine
10
2349.675000000000
20
973.175000000000
30
0.0
11
2349.675000000000
21
815.135000000000
31
0.0
0
LINE
5
753
100
AcDbEntity
8
0-9扉体
6
CONTINUOUS
62
4
100
AcDbLine
10
2355.675000000000
20
815.135000000000
30
0.0
11
2349.675000000000
21
815.135000000000
31
0.0
0
LINE
5
754
100
AcDbEntity
8
0-9扉体
6
CONTINUOUS
62
4
100
AcDbLine
10
2355.675000000000
20
1255.135000000000
30
0.0
11
2355.675000000000
21
815.135000000000
31
0.0
0
LINE
5
755
100
AcDbEntity
8
0-9扉体
6
CONTINUOUS
62
4
100
AcDbLine
10
2301.675000000000
20
820.135000000000
30
0.0
11
2349.675000000000
21
820.135000000000
31
0.0
0
LINE
5
756
100
AcDbEntity
8
0-9扉体
6
CONTINUOUS
62
3
100
AcDbLine
10
2367.491000000000
20
832.935000000000
30
0.0
11
2371.253000000000
21
836.697000000000
31
0.0
0
LINE
5
757
100
AcDbEntity
8
0-9扉体
6
CONTINUOUS
62
3
100
AcDbLine
10
2361.112000000000
20
826.556000000000
30
0.0
11
2364.875000000000
21
830.319000000000
31
0.0
0
LINE
5
758
100
AcDbEntity
8
0-9扉体
6
CONTINUOUS
62
3
100
AcDbLine
10
2365.283000000000
20
837.798000000000
30
0.0
11
2368.210000000000
21
840.725000000000
31
0.0
0
LINE
5
759
100
AcDbEntity
8
0-9扉体
6
CONTINUOUS
62
3
100
AcDbLine
10
2357.085000000000
20
829.600000000000
30
0.0
11
2360.012000000000
21
832.527000000000
31
0.0
0
LINE
5
75a
100
AcDbEntity
8
0-9扉体
6
CONTINUOUS
62
3
100
AcDbLine
10
2355.675000000000
20
835.261000000000
30
0.0
11
2362.455000000000
21
842.041000000000
31
0.0
0
LINE
5
75b
100
AcDbEntity
8
0-9扉体
6
CONTINUOUS
62
3
100
AcDbLine
10
2355.675000000000
20
842.332000000000
30
0.0
11
2361.675000000000
21
848.332000000000
31
0.0
0
LINE
5
75c
100
AcDbEntity
8
0-9扉体
6
CONTINUOUS
62
3
100
AcDbLine
10
2355.675000000000
20
849.403000000000
30
0.0
11
2361.675000000000
21
855.403000000000
31
0.0
0
LINE
5
75d
100
AcDbEntity
8
0-9扉体
6
CONTINUOUS
62
3
100
AcDbLine
10
2355.675000000000
20
870.616000000000
30
0.0
11
2361.675000000000
21
876.616000000000
31
0.0
0
LINE
5
75e
100
AcDbEntity
8
0-9扉体
6
CONTINUOUS
62
3
100
AcDbLine
10
2355.675000000000
20
834.135000000000
30
0.0
11
2355.675000000000
21
877.135000000000
31
0.0
0
LINE
5
75f
100
AcDbEntity
8
0-9扉体
6
CONTINUOUS
62
3
100
AcDbLine
10
2361.675000000000
20
856.135000000000
30
0.0
11
2355.675000000000
21
856.135000000000
31
0.0
0
LINE
5
760
100
AcDbEntity
8
0-9扉体
6
CONTINUOUS
62
3
100
AcDbLine
10
2361.675000000000
20
864.135000000000
30
0.0
11
2355.675000000000
21
864.135000000000
31
0.0
0
LINE
5
761
100
AcDbEntity
8
0-9扉体
6
DOT
62
3
100
AcDbLine
10
2363.675000000000
20
864.135000000000
30
0.0
11
2367.676000000000
21
868.135000000000
31
0.0
0
LINE
5
762
100
AcDbEntity
8
0-9扉体
6
DOT
62
3
100
AcDbLine
10
2363.675000000000
20
856.136000000000
30
0.0
11
2367.676000000000
21
852.135000000000
31
0.0
0
LINE
5
763
100
AcDbEntity
8
0-9扉体
6
DOT
62
3
100
AcDbLine
10
2363.675000000000
20
864.135000000000
30
0.0
11
2363.675000000000
21
856.136000000000
31
0.0
0
LINE
5
764
100
AcDbEntity
8
0-9扉体
6
CONTINUOUS
62
3
100
AcDbLine
10
2361.675000000000
20
844.135000000000
30
0.0
11
2367.676000000000
21
844.135000000000
31
0.0
0
LINE
5
765
100
AcDbEntity
8
0-9扉体
6
CONTINUOUS
62
3
100
AcDbLine
10
2367.676000000000
20
876.135000000000
30
0.0
11
2367.676000000000
21
844.135000000000
31
0.0
0
LINE
5
766
100
AcDbEntity
8
0-9扉体
6
CONTINUOUS
62
3
100
AcDbLine
10
2361.675000000000
20
876.135000000000
30
0.0
11
2367.676000000000
21
876.135000000000
31
0.0
0
LINE
5
767
100
AcDbEntity
8
0-9扉体
6
DOT
62
3
100
AcDbLine
10
2349.675000000000
20
856.136000000000
30
0.0
11
2363.675000000000
21
856.136000000000
31
0.0
0
LINE
5
768
100
AcDbEntity
8
0-9扉体
6
DOT
62
3
100
AcDbLine
10
2349.675000000000
20
864.135000000000
30
0.0
11
2363.675000000000
21
864.135000000000
31
0.0
0
LINE
5
769
100
AcDbEntity
8
0-9扉体
6
CONTINUOUS
62
3
100
AcDbLine
10
2348.075000000000
20
869.135000000000
30
0.0
11
2349.675000000000
21
869.135000000000
31
0.0
0
LINE
5
76a
100
AcDbEntity
8
0-9扉体
6
CONTINUOUS
62
3
100
AcDbLine
10
2348.075000000000
20
851.135000000000
30
0.0
11
2349.675000000000
21
851.135000000000
31
0.0
0
LINE
5
76b
100
AcDbEntity
8
0-9扉体
6
CONTINUOUS
62
3
100
AcDbLine
10
2339.674000000000
20
864.135000000000
30
0.0
11
2339.674000000000
21
856.136000000000
31
0.0
0
LINE
5
76c
100
AcDbEntity
8
0-9扉体
6
CONTINUOUS
62
3
100
AcDbLine
10
2348.075000000000
20
851.135000000000
30
0.0
11
2348.075000000000
21
869.135000000000
31
0.0
0
LINE
5
76d
100
AcDbEntity
8
0-9扉体
6
CONTINUOUS
62
3
100
AcDbLine
10
2341.575000000000
20
866.636000000000
30
0.0
11
2342.156000000000
21
867.640000000000
31
0.0
0
LINE
5
76e
100
AcDbEntity
8
0-9扉体
6
CONTINUOUS
62
3
100
AcDbLine
10
2341.575000000000
20
853.635000000000
30
0.0
11
2342.156000000000
21
852.630000000000
31
0.0
0
LINE
5
76f
100
AcDbEntity
8
0-9扉体
6
CONTINUOUS
62
3
100
AcDbLine
10
2341.575000000000
20
866.636000000000
30
0.0
11
2341.575000000000
21
853.635000000000
31
0.0
0
LINE
5
770
100
AcDbEntity
8
0-9扉体
6
CONTINUOUS
62
3
100
AcDbLine
10
2348.075000000000
20
852.630000000000
30
0.0
11
2342.156000000000
21
852.630000000000
31
0.0
0
LINE
5
771
100
AcDbEntity
8
0-9扉体
6
CONTINUOUS
62
3
100
AcDbLine
10
2348.075000000000
20
867.640000000000
30
0.0
11
2342.156000000000
21
867.640000000000
31
0.0
0
LINE
5
772
100
AcDbEntity
8
0-9扉体
6
CONTINUOUS
62
3
100
AcDbLine
10
2341.575000000000
20
856.136000000000
30
0.0
11
2339.674000000000
21
856.136000000000
31
0.0
0
LINE
5
773
100
AcDbEntity
8
0-9扉体
6
CONTINUOUS
62
3
100
AcDbLine
10
2341.575000000000
20
864.135000000000
30
0.0
11
2339.674000000000
21
864.135000000000
31
0.0
0
LINE
5
774
100
AcDbEntity
8
0-9扉体
6
CONTINUOUS
62
3
100
AcDbLine
10
2348.075000000000
20
863.888000000000
30
0.0
11
2342.155000000000
21
863.888000000000
31
0.0
0
LINE
5
775
100
AcDbEntity
8
0-9扉体
6
CONTINUOUS
62
3
100
AcDbLine
10
2348.075000000000
20
856.382000000000
30
0.0
11
2342.156000000000
21
856.382000000000
31
0.0
0
LINE
5
776
100
AcDbEntity
8
0-9扉体
6
CONTINUOUS
62
3
100
AcDbLine
10
2341.575000000000
20
857.135000000000
30
0.0
11
2339.674000000000
21
857.135000000000
31
0.0
0
LINE
5
777
100
AcDbEntity
8
0-9扉体
6
CONTINUOUS
62
3
100
AcDbLine
10
2341.575000000000
20
863.135000000000
30
0.0
11
2339.674000000000
21
863.135000000000
31
0.0
0
LINE
5
778
100
AcDbEntity
8
0-9扉体
6
CONTINUOUS
62
3
100
AcDbLine
10
2349.675000000000
20
869.135000000000
30
0.0
11
2349.675000000000
21
851.135000000000
31
0.0
0
LINE
5
779
100
AcDbEntity
8
0-9扉体
6
CONTINUOUS
62
3
100
AcDbLine
10
2361.675000000000
20
877.135000000000
30
0.0
11
2355.675000000000
21
877.135000000000
31
0.0
0
LINE
5
77a
100
AcDbEntity
8
0-9扉体
6
CONTINUOUS
62
3
100
AcDbLine
10
2361.675000000000
20
841.881000000000
30
0.0
11
2361.675000000000
21
877.135000000000
31
0.0
0
LINE
5
77b
100
AcDbEntity
8
0-9扉体
6
CONTINUOUS
62
3
100
AcDbLine
10
2356.265000000000
20
864.135000000000
30
0.0
11
2361.675000000000
21
869.545000000000
31
0.0
0
LINE
5
77c
100
AcDbEntity
8
0-8寸法
6
CONTINUOUS
62
4
100
AcDbLine
10
2441.206000000000
20
1085.135000000000
30
0.0
11
2215.382000000000
21
1085.135000000000
31
0.0
0
LINE
5
77d
100
AcDbEntity
8
0-8寸法
6
CONTINUOUS
62
4
100
AcDbLine
10
2355.675000000000
20
1085.135000000000
30
0.0
11
2374.994000000000
21
1079.959000000000
31
0.0
0
LINE
5
77e
100
AcDbEntity
8
0-8寸法
6
CONTINUOUS
62
4
100
AcDbLine
10
2355.675000000000
20
1085.135000000000
30
0.0
11
2374.994000000000
21
1090.312000000000
31
0.0
0
LINE
5
77f
100
AcDbEntity
8
0-8寸法
6
CONTINUOUS
62
4
100
AcDbLine
10
2345.675000000000
20
1570.135000000000
30
0.0
11
2326.357000000000
21
1575.312000000000
31
0.0
0
LINE
5
780
100
AcDbEntity
8
0-8寸法
6
CONTINUOUS
62
4
100
AcDbLine
10
2345.675000000000
20
1570.135000000000
30
0.0
11
2326.357000000000
21
1564.959000000000
31
0.0
0
LINE
5
781
100
AcDbEntity
8
0-8寸法
6
CONTINUOUS
62
4
100
AcDbLine
10
2345.675000000000
20
1334.135000000000
30
0.0
11
2345.675000000000
21
1580.135000000000
31
0.0
0
LINE
5
782
100
AcDbEntity
8
0-8寸法
6
CONTINUOUS
62
4
100
AcDbLine
10
2253.671000000000
20
1570.135000000000
30
0.0
11
2395.899000000000
21
1570.135000000000
31
0.0
0
LINE
5
783
100
AcDbEntity
8
0-5基準線
6
CENTER2
62
7
100
AcDbLine
10
1368.243000000000
20
2275.191000000000
30
0.0
11
1368.243000000000
21
2314.119000000000
31
0.0
0
LINE
5
784
100
AcDbEntity
8
0-9扉体
6
CONTINUOUS
62
4
100
AcDbLine
10
973.243000000000
20
2292.595000000000
30
0.0
11
973.243000000000
21
2298.595000000000
31
0.0
0
LINE
5
785
100
AcDbEntity
8
0-9扉体
6
CONTINUOUS
62
4
100
AcDbLine
10
1413.243000000000
20
2292.595000000000
30
0.0
11
1413.243000000000
21
2298.595000000000
31
0.0
0
POLYLINE
5
786
100
AcDbEntity
8
0-9扉体
6
CONTINUOUS
62
  4
100
AcDb2dPolyline
66
1
10
0.0
20
0.0
30
0.0
70
0
0
VERTEX
5
787
100
AcDbEntity
8
0-9扉体
6
CONTINUOUS
62
  4
100
AcDbVertex
100
AcDb2dVertex
10
978.243000000000
20
2244.595000000000
30
0.0
0
VERTEX
5
788
100
AcDbEntity
8
0-9扉体
6
CONTINUOUS
62
  4
100
AcDbVertex
100
AcDb2dVertex
10
1408.243000000000
20
2244.595000000000
30
0.0
0
VERTEX
5
789
100
AcDbEntity
8
0-9扉体
6
CONTINUOUS
62
  4
100
AcDbVertex
100
AcDb2dVertex
10
1408.243000000000
20
2292.595000000000
30
0.0
0
SEQEND
5
78a
100
AcDbEntity
8
0-9扉体
0
LINE
5
78b
100
AcDbEntity
8
0-9扉体
6
CONTINUOUS
62
4
100
AcDbLine
10
978.243000000000
20
2244.595000000000
30
0.0
11
978.243000000000
21
2245.045000000000
31
0.0
0
LINE
5
78c
100
AcDbEntity
8
0-9扉体
6
CONTINUOUS
62
4
100
AcDbLine
10
978.243000000000
20
2246.512000000000
30
0.0
11
978.243000000000
21
2292.595000000000
31
0.0
0
LINE
5
78d
100
AcDbEntity
8
0-9扉体
6
CONTINUOUS
62
4
100
AcDbLine
10
1348.243000000000
20
2244.595000000000
30
0.0
11
1348.243000000000
21
2250.594000000000
31
0.0
0
LINE
5
78e
100
AcDbEntity
8
0-9扉体
6
CONTINUOUS
62
4
100
AcDbLine
10
1396.243000000000
20
2250.594000000000
30
0.0
11
1348.243000000000
21
2250.594000000000
31
0.0
0
LINE
5
78f
100
AcDbEntity
8
0-9扉体
6
CONTINUOUS
62
4
100
AcDbLine
10
1402.243000000000
20
2256.594000000000
30
0.0
11
1402.243000000000
21
2292.595000000000
31
0.0
0
LINE
5
790
100
AcDbEntity
8
0-9扉体
6
CONTINUOUS
62
6
100
AcDbLine
10
1013.243000000000
20
2249.595000000000
30
0.0
11
1013.243000000000
21
2287.594000000000
31
0.0
0
POLYLINE
5
791
100
AcDbEntity
8
0-9扉体
6
CONTINUOUS
62
  6
100
AcDb2dPolyline
66
1
10
0.0
20
0.0
30
0.0
70
0
0
VERTEX
5
792
100
AcDbEntity
8
0-9扉体
6
CONTINUOUS
62
  6
100
AcDbVertex
100
AcDb2dVertex
10
1013.243000000000
20
2249.595000000000
30
0.0
0
VERTEX
5
793
100
AcDbEntity
8
0-9扉体
6
CONTINUOUS
62
  6
100
AcDbVertex
100
AcDb2dVertex
10
1153.243000000000
20
2249.595000000000
30
0.0
0
VERTEX
5
794
100
AcDbEntity
8
0-9扉体
6
CONTINUOUS
62
  6
100
AcDbVertex
100
AcDb2dVertex
10
1153.243000000000
20
2287.594000000000
30
0.0
0
SEQEND
5
795
100
AcDbEntity
8
0-9扉体
0
LINE
5
796
100
AcDbEntity
8
0-9扉体
6
CONTINUOUS
62
6
100
AcDbLine
10
1053.243000000000
20
2306.094000000000
30
0.0
11
1062.243000000000
21
2306.094000000000
31
0.0
0
LINE
5
797
100
AcDbEntity
8
0-9扉体
6
CONTINUOUS
62
6
100
AcDbLine
10
1053.243000000000
20
2271.095000000000
30
0.0
11
1062.243000000000
21
2271.095000000000
31
0.0
0
LINE
5
798
100
AcDbEntity
8
0-9扉体
6
CONTINUOUS
62
6
100
AcDbLine
10
1050.643000000000
20
2304.595000000000
30
0.0
11
1050.643000000000
21
2272.595000000000
31
0.0
0
LINE
5
799
100
AcDbEntity
8
0-9扉体
6
CONTINUOUS
62
6
100
AcDbLine
10
1039.743000000000
20
2280.595000000000
30
0.0
11
1050.643000000000
21
2280.595000000000
31
0.0
0
LINE
5
79a
100
AcDbEntity
8
0-9扉体
6
CONTINUOUS
62
6
100
AcDbLine
10
1062.243000000000
20
2280.595000000000
30
0.0
11
1064.243000000000
21
2280.595000000000
31
0.0
0
LINE
5
79b
100
AcDbEntity
8
0-9扉体
6
CONTINUOUS
62
6
100
AcDbLine
10
1062.243000000000
20
2296.595000000000
30
0.0
11
1064.243000000000
21
2296.595000000000
31
0.0
0
LINE
5
79c
100
AcDbEntity
8
0-5基準線
6
CENTER2
62
7
100
AcDbLine
10
1036.243000000000
20
2288.595000000000
30
0.0
11
1130.243000000000
21
2288.595000000000
31
0.0
0
LINE
5
79d
100
AcDbEntity
8
0-9扉体
6
CONTINUOUS
62
6
100
AcDbLine
10
1115.843000000000
20
2304.595000000000
30
0.0
11
1115.843000000000
21
2272.595000000000
31
0.0
0
LINE
5
79e
100
AcDbEntity
8
0-9扉体
6
CONTINUOUS
62
6
100
AcDbLine
10
1115.843000000000
20
2304.595000000000
30
0.0
11
1113.243000000000
21
2304.595000000000
31
0.0
0
LINE
5
79f
100
AcDbEntity
8
0-9扉体
6
CONTINUOUS
62
6
100
AcDbLine
10
1115.843000000000
20
2272.595000000000
30
0.0
11
1113.243000000000
21
2272.595000000000
31
0.0
0
LINE
5
7a0
100
AcDbEntity
8
0-9扉体
6
CONTINUOUS
62
6
100
AcDbLine
10
1126.743000000000
20
2280.595000000000
30
0.0
11
1115.843000000000
21
2280.595000000000
31
0.0
0
LINE
5
7a1
100
AcDbEntity
8
0-9扉体
6
CONTINUOUS
62
6
100
AcDbLine
10
1104.243000000000
20
2280.595000000000
30
0.0
11
1102.243000000000
21
2280.595000000000
31
0.0
0
LINE
5
7a2
100
AcDbEntity
8
0-9扉体
6
CONTINUOUS
62
6
100
AcDbLine
10
1104.243000000000
20
2296.595000000000
30
0.0
11
1102.243000000000
21
2296.595000000000
31
0.0
0
LINE
5
7a3
100
AcDbEntity
8
0-9扉体
6
CONTINUOUS
62
6
100
AcDbLine
10
1050.643000000000
20
2304.595000000000
30
0.0
11
1053.243000000000
21
2304.595000000000
31
0.0
0
LINE
5
7a4
100
AcDbEntity
8
0-9扉体
6
CONTINUOUS
62
6
100
AcDbLine
10
1050.643000000000
20
2272.595000000000
30
0.0
11
1053.243000000000
21
2272.595000000000
31
0.0
0
LINE
5
7a5
100
AcDbEntity
8
0-9扉体
6
CONTINUOUS
62
6
100
AcDbLine
10
1113.243000000000
20
2306.094000000000
30
0.0
11
1104.243000000000
21
2306.094000000000
31
0.0
0
LINE
5
7a6
100
AcDbEntity
8
0-9扉体
6
CONTINUOUS
62
6
100
AcDbLine
10
1113.243000000000
20
2271.095000000000
30
0.0
11
1104.243000000000
21
2271.095000000000
31
0.0
0
LINE
5
7a7
100
AcDbEntity
8
0-9扉体
6
CONTINUOUS
62
6
100
AcDbLine
10
1013.243000000000
20
2287.594000000000
30
0.0
11
1039.743000000000
21
2287.594000000000
31
0.0
0
LINE
5
7a8
100
AcDbEntity
8
0-9扉体
6
CONTINUOUS
62
6
100
AcDbLine
10
1126.743000000000
20
2287.594000000000
30
0.0
11
1153.243000000000
21
2287.594000000000
31
0.0
0
LINE
5
7a9
100
AcDbEntity
8
0-9扉体
6
CONTINUOUS
62
6
100
AcDbLine
10
1124.743000000000
20
2296.595000000000
30
0.0
11
1115.843000000000
21
2296.595000000000
31
0.0
0
LINE
5
7aa
100
AcDbEntity
8
0-9扉体
6
CONTINUOUS
62
6
100
AcDbLine
10
1041.743000000000
20
2296.595000000000
30
0.0
11
1050.643000000000
21
2296.595000000000
31
0.0
0
LINE
5
7ab
100
AcDbEntity
8
0-9扉体
6
CONTINUOUS
62
6
100
AcDbLine
10
1053.243000000000
20
2249.595000000000
30
0.0
11
1053.243000000000
21
2306.094000000000
31
0.0
0
LINE
5
7ac
100
AcDbEntity
8
0-9扉体
6
CONTINUOUS
62
6
100
AcDbLine
10
1062.243000000000
20
2249.595000000000
30
0.0
11
1062.243000000000
21
2306.094000000000
31
0.0
0
LINE
5
7ad
100
AcDbEntity
8
0-9扉体
6
CONTINUOUS
62
6
100
AcDbLine
10
1104.243000000000
20
2249.595000000000
30
0.0
11
1104.243000000000
21
2306.094000000000
31
0.0
0
LINE
5
7ae
100
AcDbEntity
8
0-9扉体
6
CONTINUOUS
62
6
100
AcDbLine
10
1113.243000000000
20
2249.595000000000
30
0.0
11
1113.243000000000
21
2306.094000000000
31
0.0
0
LINE
5
7af
100
AcDbEntity
8
0-9扉体
6
CONTINUOUS
62
6
100
AcDbLine
10
1126.743000000000
20
2291.595000000000
30
0.0
11
1126.743000000000
21
2280.595000000000
31
0.0
0
LINE
5
7b0
100
AcDbEntity
8
0-9扉体
6
CONTINUOUS
62
4
100
AcDbLine
10
973.243000000000
20
2292.595000000000
30
0.0
11
1029.743000000000
21
2292.595000000000
31
0.0
0
LINE
5
7b1
100
AcDbEntity
8
0-9扉体
6
CONTINUOUS
62
4
100
AcDbLine
10
973.243000000000
20
2298.595000000000
30
0.0
11
1029.743000000000
21
2298.595000000000
31
0.0
0
LINE
5
7b2
100
AcDbEntity
8
0-9扉体
6
CONTINUOUS
62
4
100
AcDbLine
10
1136.743000000000
20
2292.595000000000
30
0.0
11
1413.243000000000
21
2292.595000000000
31
0.0
0
LINE
5
7b3
100
AcDbEntity
8
0-9扉体
6
CONTINUOUS
62
4
100
AcDbLine
10
1136.743000000000
20
2298.595000000000
30
0.0
11
1413.243000000000
21
2298.595000000000
31
0.0
0
LINE
5
7b4
100
AcDbEntity
8
0-9扉体
6
CONTINUOUS
62
7
100
AcDbLine
10
1042.743000000000
20
2274.079000000000
30
0.0
11
1033.243000000000
21
2279.564000000000
31
0.0
0
LINE
5
7b5
100
AcDbEntity
8
0-9扉体
6
CONTINUOUS
62
7
100
AcDbLine
10
1042.743000000000
20
2274.079000000000
30
0.0
11
1042.743000000000
21
2263.110000000000
31
0.0
0
LINE
5
7b6
100
AcDbEntity
8
0-9扉体
6
CONTINUOUS
62
7
100
AcDbLine
10
1033.243000000000
20
2257.625000000000
30
0.0
11
1042.743000000000
21
2263.110000000000
31
0.0
0
POLYLINE
5
7b7
100
AcDbEntity
8
0-9扉体
6
CONTINUOUS
62
  7
100
AcDb2dPolyline
66
1
10
0.0
20
0.0
30
0.0
70
0
0
VERTEX
5
7b8
100
AcDbEntity
8
0-9扉体
6
CONTINUOUS
62
  7
100
AcDbVertex
100
AcDb2dVertex
10
1033.243000000000
20
2257.625000000000
30
0.0
0
VERTEX
5
7b9
100
AcDbEntity
8
0-9扉体
6
CONTINUOUS
62
  7
100
AcDbVertex
100
AcDb2dVertex
10
1023.743000000000
20
2263.110000000000
30
0.0
0
VERTEX
5
7ba
100
AcDbEntity
8
0-9扉体
6
CONTINUOUS
62
  7
100
AcDbVertex
100
AcDb2dVertex
10
1023.743000000000
20
2274.079000000000
30
0.0
0
VERTEX
5
7bb
100
AcDbEntity
8
0-9扉体
6
CONTINUOUS
62
  7
100
AcDbVertex
100
AcDb2dVertex
10
1033.243000000000
20
2279.564000000000
30
0.0
0
SEQEND
5
7bc
100
AcDbEntity
8
0-9扉体
0
LINE
5
7bd
100
AcDbEntity
8
0-5基準線
6
CENTER2
62
7
100
AcDbLine
10
1033.243000000000
20
2282.594000000000
30
0.0
11
1033.243000000000
21
2254.595000000000
31
0.0
0
LINE
5
7be
100
AcDbEntity
8
0-5基準線
6
CENTER2
62
7
100
AcDbLine
10
1047.243000000000
20
2268.594000000000
30
0.0
11
1019.243000000000
21
2268.594000000000
31
0.0
0
LINE
5
7bf
100
AcDbEntity
8
0-9扉体
6
CONTINUOUS
62
7
100
AcDbLine
10
1123.743000000000
20
2274.079000000000
30
0.0
11
1133.243000000000
21
2279.564000000000
31
0.0
0
LINE
5
7c0
100
AcDbEntity
8
0-9扉体
6
CONTINUOUS
62
7
100
AcDbLine
10
1123.743000000000
20
2274.079000000000
30
0.0
11
1123.743000000000
21
2263.110000000000
31
0.0
0
LINE
5
7c1
100
AcDbEntity
8
0-9扉体
6
CONTINUOUS
62
7
100
AcDbLine
10
1133.243000000000
20
2257.625000000000
30
0.0
11
1123.743000000000
21
2263.110000000000
31
0.0
0
POLYLINE
5
7c2
100
AcDbEntity
8
0-9扉体
6
CONTINUOUS
62
  7
100
AcDb2dPolyline
66
1
10
0.0
20
0.0
30
0.0
70
0
0
VERTEX
5
7c3
100
AcDbEntity
8
0-9扉体
6
CONTINUOUS
62
  7
100
AcDbVertex
100
AcDb2dVertex
10
1133.243000000000
20
2257.625000000000
30
0.0
0
VERTEX
5
7c4
100
AcDbEntity
8
0-9扉体
6
CONTINUOUS
62
  7
100
AcDbVertex
100
AcDb2dVertex
10
1142.743000000000
20
2263.110000000000
30
0.0
0
VERTEX
5
7c5
100
AcDbEntity
8
0-9扉体
6
CONTINUOUS
62
  7
100
AcDbVertex
100
AcDb2dVertex
10
1142.743000000000
20
2274.079000000000
30
0.0
0
VERTEX
5
7c6
100
AcDbEntity
8
0-9扉体
6
CONTINUOUS
62
  7
100
AcDbVertex
100
AcDb2dVertex
10
1133.243000000000
20
2279.564000000000
30
0.0
0
SEQEND
5
7c7
100
AcDbEntity
8
0-9扉体
0
LINE
5
7c8
100
AcDbEntity
8
0-5基準線
6
CENTER2
62
7
100
AcDbLine
10
1133.243000000000
20
2282.594000000000
30
0.0
11
1133.243000000000
21
2254.595000000000
31
0.0
0
LINE
5
7c9
100
AcDbEntity
8
0-5基準線
6
CENTER2
62
7
100
AcDbLine
10
1119.243000000000
20
2268.594000000000
30
0.0
11
1147.243000000000
21
2268.594000000000
31
0.0
0
LINE
5
7ca
100
AcDbEntity
8
0-9扉体
6
CONTINUOUS
62
6
100
AcDbLine
10
1039.743000000000
20
2290.595000000000
30
0.0
11
1039.743000000000
21
2280.595000000000
31
0.0
0
LINE
5
7cb
100
AcDbEntity
8
0-9扉体
6
CONTINUOUS
62
3
100
AcDbLine
10
1395.444000000000
20
2310.410000000000
30
0.0
11
1391.681000000000
21
2314.173000000000
31
0.0
0
LINE
5
7cc
100
AcDbEntity
8
0-9扉体
6
CONTINUOUS
62
3
100
AcDbLine
10
1401.822000000000
20
2304.032000000000
30
0.0
11
1398.059000000000
21
2307.795000000000
31
0.0
0
LINE
5
7cd
100
AcDbEntity
8
0-9扉体
6
CONTINUOUS
62
3
100
AcDbLine
10
1390.581000000000
20
2308.202000000000
30
0.0
11
1387.653000000000
21
2311.130000000000
31
0.0
0
LINE
5
7ce
100
AcDbEntity
8
0-9扉体
6
CONTINUOUS
62
3
100
AcDbLine
10
1398.779000000000
20
2300.004000000000
30
0.0
11
1395.851000000000
21
2302.932000000000
31
0.0
0
LINE
5
7cf
100
AcDbEntity
8
0-9扉体
6
CONTINUOUS
62
3
100
AcDbLine
10
1393.117000000000
20
2298.595000000000
30
0.0
11
1386.337000000000
21
2305.375000000000
31
0.0
0
LINE
5
7d0
100
AcDbEntity
8
0-9扉体
6
CONTINUOUS
62
3
100
AcDbLine
10
1386.046000000000
20
2298.595000000000
30
0.0
11
1380.046000000000
21
2304.595000000000
31
0.0
0
LINE
5
7d1
100
AcDbEntity
8
0-9扉体
6
CONTINUOUS
62
3
100
AcDbLine
10
1378.975000000000
20
2298.595000000000
30
0.0
11
1372.975000000000
21
2304.595000000000
31
0.0
0
LINE
5
7d2
100
AcDbEntity
8
0-9扉体
6
CONTINUOUS
62
3
100
AcDbLine
10
1357.762000000000
20
2298.595000000000
30
0.0
11
1351.762000000000
21
2304.595000000000
31
0.0
0
LINE
5
7d3
100
AcDbEntity
8
0-9扉体
6
CONTINUOUS
62
3
100
AcDbLine
10
1372.243000000000
20
2304.595000000000
30
0.0
11
1372.243000000000
21
2298.595000000000
31
0.0
0
LINE
5
7d4
100
AcDbEntity
8
0-9扉体
6
CONTINUOUS
62
3
100
AcDbLine
10
1364.243000000000
20
2304.595000000000
30
0.0
11
1364.243000000000
21
2298.595000000000
31
0.0
0
LINE
5
7d5
100
AcDbEntity
8
0-9扉体
6
DOT
62
3
100
AcDbLine
10
1364.243000000000
20
2306.595000000000
30
0.0
11
1360.244000000000
21
2310.595000000000
31
0.0
0
LINE
5
7d6
100
AcDbEntity
8
0-9扉体
6
DOT
62
3
100
AcDbLine
10
1372.243000000000
20
2306.595000000000
30
0.0
11
1376.243000000000
21
2310.595000000000
31
0.0
0
LINE
5
7d7
100
AcDbEntity
8
0-9扉体
6
DOT
62
3
100
AcDbLine
10
1364.243000000000
20
2306.595000000000
30
0.0
11
1372.243000000000
21
2306.595000000000
31
0.0
0
LINE
5
7d8
100
AcDbEntity
8
0-9扉体
6
CONTINUOUS
62
3
100
AcDbLine
10
1384.244000000000
20
2304.595000000000
30
0.0
11
1384.244000000000
21
2310.595000000000
31
0.0
0
LINE
5
7d9
100
AcDbEntity
8
0-9扉体
6
CONTINUOUS
62
3
100
AcDbLine
10
1352.243000000000
20
2310.595000000000
30
0.0
11
1384.244000000000
21
2310.595000000000
31
0.0
0
LINE
5
7da
100
AcDbEntity
8
0-9扉体
6
CONTINUOUS
62
3
100
AcDbLine
10
1352.243000000000
20
2304.595000000000
30
0.0
11
1352.243000000000
21
2310.595000000000
31
0.0
0
LINE
5
7db
100
AcDbEntity
8
0-9扉体
6
DOT
62
3
100
AcDbLine
10
1372.243000000000
20
2292.595000000000
30
0.0
11
1372.243000000000
21
2306.595000000000
31
0.0
0
LINE
5
7dc
100
AcDbEntity
8
0-9扉体
6
DOT
62
3
100
AcDbLine
10
1364.243000000000
20
2292.595000000000
30
0.0
11
1364.243000000000
21
2306.595000000000
31
0.0
0
LINE
5
7dd
100
AcDbEntity
8
0-9扉体
6
CONTINUOUS
62
3
100
AcDbLine
10
1359.243000000000
20
2290.995000000000
30
0.0
11
1359.243000000000
21
2292.595000000000
31
0.0
0
LINE
5
7de
100
AcDbEntity
8
0-9扉体
6
CONTINUOUS
62
3
100
AcDbLine
10
1377.243000000000
20
2290.995000000000
30
0.0
11
1377.243000000000
21
2292.595000000000
31
0.0
0
LINE
5
7df
100
AcDbEntity
8
0-9扉体
6
CONTINUOUS
62
3
100
AcDbLine
10
1364.243000000000
20
2282.594000000000
30
0.0
11
1372.243000000000
21
2282.594000000000
31
0.0
0
LINE
5
7e0
100
AcDbEntity
8
0-9扉体
6
CONTINUOUS
62
3
100
AcDbLine
10
1377.243000000000
20
2290.995000000000
30
0.0
11
1359.243000000000
21
2290.995000000000
31
0.0
0
LINE
5
7e1
100
AcDbEntity
8
0-9扉体
6
CONTINUOUS
62
3
100
AcDbLine
10
1361.743000000000
20
2284.494000000000
30
0.0
11
1360.738000000000
21
2285.076000000000
31
0.0
0
LINE
5
7e2
100
AcDbEntity
8
0-9扉体
6
CONTINUOUS
62
3
100
AcDbLine
10
1374.743000000000
20
2284.494000000000
30
0.0
11
1375.749000000000
21
2285.076000000000
31
0.0
0
LINE
5
7e3
100
AcDbEntity
8
0-9扉体
6
CONTINUOUS
62
3
100
AcDbLine
10
1361.743000000000
20
2284.494000000000
30
0.0
11
1374.743000000000
21
2284.494000000000
31
0.0
0
LINE
5
7e4
100
AcDbEntity
8
0-9扉体
6
CONTINUOUS
62
3
100
AcDbLine
10
1375.749000000000
20
2290.995000000000
30
0.0
11
1375.749000000000
21
2285.076000000000
31
0.0
0
LINE
5
7e5
100
AcDbEntity
8
0-9扉体
6
CONTINUOUS
62
3
100
AcDbLine
10
1360.738000000000
20
2290.995000000000
30
0.0
11
1360.738000000000
21
2285.076000000000
31
0.0
0
LINE
5
7e6
100
AcDbEntity
8
0-9扉体
6
CONTINUOUS
62
3
100
AcDbLine
10
1372.243000000000
20
2284.494000000000
30
0.0
11
1372.243000000000
21
2282.594000000000
31
0.0
0
LINE
5
7e7
100
AcDbEntity
8
0-9扉体
6
CONTINUOUS
62
3
100
AcDbLine
10
1364.243000000000
20
2284.494000000000
30
0.0
11
1364.243000000000
21
2282.594000000000
31
0.0
0
LINE
5
7e8
100
AcDbEntity
8
0-9扉体
6
CONTINUOUS
62
3
100
AcDbLine
10
1364.491000000000
20
2290.995000000000
30
0.0
11
1364.491000000000
21
2285.075000000000
31
0.0
0
LINE
5
7e9
100
AcDbEntity
8
0-9扉体
6
CONTINUOUS
62
3
100
AcDbLine
10
1371.996000000000
20
2290.995000000000
30
0.0
11
1371.996000000000
21
2285.076000000000
31
0.0
0
LINE
5
7ea
100
AcDbEntity
8
0-9扉体
6
CONTINUOUS
62
3
100
AcDbLine
10
1371.243000000000
20
2284.494000000000
30
0.0
11
1371.243000000000
21
2282.594000000000
31
0.0
0
LINE
5
7eb
100
AcDbEntity
8
0-9扉体
6
CONTINUOUS
62
3
100
AcDbLine
10
1365.243000000000
20
2284.494000000000
30
0.0
11
1365.243000000000
21
2282.594000000000
31
0.0
0
LINE
5
7ec
100
AcDbEntity
8
0-9扉体
6
CONTINUOUS
62
3
100
AcDbLine
10
1359.243000000000
20
2292.595000000000
30
0.0
11
1377.243000000000
21
2292.595000000000
31
0.0
0
LINE
5
7ed
100
AcDbEntity
8
0-9扉体
6
CONTINUOUS
62
3
100
AcDbLine
10
1351.243000000000
20
2304.595000000000
30
0.0
11
1351.243000000000
21
2298.595000000000
31
0.0
0
LINE
5
7ee
100
AcDbEntity
8
0-9扉体
6
CONTINUOUS
62
3
100
AcDbLine
10
1386.497000000000
20
2304.595000000000
30
0.0
11
1351.243000000000
21
2304.595000000000
31
0.0
0
LINE
5
7ef
100
AcDbEntity
8
0-9扉体
6
CONTINUOUS
62
3
100
AcDbLine
10
1364.243000000000
20
2299.184000000000
30
0.0
11
1358.833000000000
21
2304.595000000000
31
0.0
0
LINE
5
7f0
100
AcDbEntity
8
0-8寸法
6
CONTINUOUS
62
4
100
AcDbLine
10
1551.259000000000
20
2135.135000000000
30
0.0
11
1394.561000000000
21
2306.595000000000
31
0.0
0
LINE
5
7f1
100
AcDbEntity
8
0-9扉体
6
CONTINUOUS
62
4
100
AcDbLine
10
1019.963000000000
20
2298.595000000000
30
0.0
11
1024.993000000000
21
2303.625000000000
31
0.0
0
LINE
5
7f2
100
AcDbEntity
8
0-9扉体
6
CONTINUOUS
62
4
100
AcDbLine
10
1017.134000000000
20
2298.595000000000
30
0.0
11
1024.993000000000
21
2306.454000000000
31
0.0
0
LINE
5
7f3
100
AcDbEntity
8
0-9扉体
6
CONTINUOUS
62
4
100
AcDbLine
10
991.678000000000
20
2298.595000000000
30
0.0
11
1007.678000000000
21
2314.595000000000
31
0.0
0
LINE
5
7f4
100
AcDbEntity
8
0-9扉体
6
CONTINUOUS
62
4
100
AcDbLine
10
989.380000000000
20
2299.125000000000
30
0.0
11
1004.850000000000
21
2314.595000000000
31
0.0
0
LINE
5
7f5
100
AcDbEntity
8
0-9扉体
6
CONTINUOUS
62
4
100
AcDbLine
10
1189.668000000000
20
2298.595000000000
30
0.0
11
1193.243000000000
21
2302.170000000000
31
0.0
0
LINE
5
7f6
100
AcDbEntity
8
0-9扉体
6
CONTINUOUS
62
4
100
AcDbLine
10
1186.840000000000
20
2298.595000000000
30
0.0
11
1193.243000000000
21
2304.998000000000
31
0.0
0
LINE
5
7f7
100
AcDbEntity
8
0-9扉体
6
CONTINUOUS
62
4
100
AcDbLine
10
1161.384000000000
20
2298.595000000000
30
0.0
11
1177.384000000000
21
2314.595000000000
31
0.0
0
LINE
5
7f8
100
AcDbEntity
8
0-9扉体
6
CONTINUOUS
62
4
100
AcDbLine
10
1158.556000000000
20
2298.595000000000
30
0.0
11
1174.556000000000
21
2314.595000000000
31
0.0
0
LINE
5
7f9
100
AcDbEntity
8
0-9扉体
6
CONTINUOUS
62
4
100
AcDbLine
10
1141.493000000000
20
2306.988000000000
30
0.0
11
1149.100000000000
21
2314.595000000000
31
0.0
0
LINE
5
7fa
100
AcDbEntity
8
0-9扉体
6
CONTINUOUS
62
4
100
AcDbLine
10
1141.493000000000
20
2309.816000000000
30
0.0
11
1146.271000000000
21
2314.595000000000
31
0.0
0
ARC
5
7fb
100
AcDbEntity
8
0-6戸当り
6
CONTINUOUS
62
7
100
AcDbCircle
10
2363.531000000000
20
1353.363000000000
30
0.0
40
4.856000000000
100
AcDbArc
50
154.384000000000
51
214.384000000000
0
ARC
5
7fc
100
AcDbEntity
8
0-6戸当り
6
CONTINUOUS
62
7
100
AcDbCircle
10
2363.531000000000
20
1336.908000000000
30
0.0
40
4.856000000000
100
AcDbArc
50
145.616000000000
51
205.616000000000
0
ARC
5
7fd
100
AcDbEntity
8
0-6戸当り
6
CONTINUOUS
62
7
100
AcDbCircle
10
2369.523000000000
20
1345.135000000000
30
0.0
40
18.152000000000
100
AcDbArc
50
342.412000000000
51
377.588000000000
0
ARC
5
7fe
100
AcDbEntity
8
0-6戸当り
6
CONTINUOUS
62
7
100
AcDbCircle
10
2382.819000000000
20
1336.908000000000
30
0.0
40
4.856000000000
100
AcDbArc
50
334.384000000000
51
394.384000000000
0
ARC
5
7ff
100
AcDbEntity
8
0-6戸当り
6
CONTINUOUS
62
7
100
AcDbCircle
10
2382.819000000000
20
1353.363000000000
30
0.0
40
4.856000000000
100
AcDbArc
50
325.616000000000
51
385.616000000000
0
ARC
5
800
100
AcDbEntity
8
0-6戸当り
6
CONTINUOUS
62
6
100
AcDbCircle
10
2440.675000000000
20
1345.135000000000
30
0.0
40
6.000000000000
100
AcDbArc
50
270.000000000000
51
450.000000000000
0
ARC
5
801
100
AcDbEntity
8
0-6戸当り
6
DOT
62
6
100
AcDbCircle
10
2440.675000000000
20
1345.135000000000
30
0.0
40
6.000000000000
100
AcDbArc
50
90.000000000000
51
270.000000000000
0
ARC
5
802
100
AcDbEntity
8
0-5基準線
6
CENTER2
62
7
100
AcDbCircle
10
1394.743000000000
20
2341.094000000000
30
0.0
40
13.000000000000
100
AcDbArc
50
0.000000000000
51
90.000000000000
0
ARC
5
803
100
AcDbEntity
8
0-6戸当り
6
CONTINUOUS
62
3
100
AcDbCircle
10
1394.743000000000
20
2341.094000000000
30
0.0
40
6.500000000000
100
AcDbArc
50
0.000000000000
51
90.000000000000
0
ARC
5
804
100
AcDbEntity
8
0-6戸当り
6
CONTINUOUS
62
3
100
AcDbCircle
10
1394.743000000000
20
2341.094000000000
30
0.0
40
19.500000000000
100
AcDbArc
50
0.000000000000
51
90.000000000000
0
ARC
5
805
100
AcDbEntity
8
0-6戸当り
6
CONTINUOUS
62
3
100
AcDbCircle
10
1369.743000000000
20
2360.095000000000
30
0.0
40
4.500000000000
100
AcDbArc
50
0.000000000000
51
90.000000000000
0
ARC
5
806
100
AcDbEntity
8
0-6戸当り
6
CONTINUOUS
62
3
100
AcDbCircle
10
1413.743000000000
20
2316.095000000000
30
0.0
40
4.500000000000
100
AcDbArc
50
0.000000000000
51
90.000000000000
0
ARC
5
807
100
AcDbEntity
8
0-6戸当り
6
CONTINUOUS
62
3
100
AcDbCircle
10
1380.743000000000
20
2327.095000000000
30
0.0
40
6.500000000000
100
AcDbArc
50
180.000000000000
51
270.000000000000
0
ARC
5
808
100
AcDbEntity
8
0-5基準線
6
CENTER2
62
7
100
AcDbCircle
10
991.743000000000
20
2341.094000000000
30
0.0
40
13.000000000000
100
AcDbArc
50
90.000000000000
51
180.000000000000
0
ARC
5
809
100
AcDbEntity
8
0-6戸当り
6
DOT
62
3
100
AcDbCircle
10
991.743000000000
20
2341.094000000000
30
0.0
40
6.500000000000
100
AcDbArc
50
90.000000000000
51
180.000000000000
0
ARC
5
80a
100
AcDbEntity
8
0-6戸当り
6
DOT
62
3
100
AcDbCircle
10
991.743000000000
20
2341.094000000000
30
0.0
40
19.500000000000
100
AcDbArc
50
90.000000000000
51
180.000000000000
0
ARC
5
80b
100
AcDbEntity
8
0-6戸当り
6
DOT
62
3
100
AcDbCircle
10
972.743000000000
20
2316.095000000000
30
0.0
40
4.500000000000
100
AcDbArc
50
90.000000000000
51
180.000000000000
0
ARC
5
80c
100
AcDbEntity
8
0-5基準線
6
CENTER2
62
7
100
AcDbCircle
10
2398.175000000000
20
833.635000000000
30
0.0
40
13.000000000000
100
AcDbArc
50
270.000000000000
51
360.000000000000
0
ARC
5
80d
100
AcDbEntity
8
0-6戸当り
6
CONTINUOUS
62
3
100
AcDbCircle
10
2398.175000000000
20
833.635000000000
30
0.0
40
6.500000000000
100
AcDbArc
50
270.000000000000
51
360.000000000000
0
ARC
5
80e
100
AcDbEntity
8
0-6戸当り
6
CONTINUOUS
62
3
100
AcDbCircle
10
2398.175000000000
20
833.635000000000
30
0.0
40
19.500000000000
100
AcDbArc
50
270.000000000000
51
360.000000000000
0
ARC
5
80f
100
AcDbEntity
8
0-6戸当り
6
CONTINUOUS
62
3
100
AcDbCircle
10
2417.175000000000
20
858.635000000000
30
0.0
40
4.500000000000
100
AcDbArc
50
270.000000000000
51
360.000000000000
0
ARC
5
810
100
AcDbEntity
8
0-6戸当り
6
CONTINUOUS
62
3
100
AcDbCircle
10
2373.175000000000
20
814.635000000000
30
0.0
40
4.500000000000
100
AcDbArc
50
270.000000000000
51
360.000000000000
0
ARC
5
811
100
AcDbEntity
8
0-6戸当り
6
CONTINUOUS
62
3
100
AcDbCircle
10
2384.175000000000
20
847.635000000000
30
0.0
40
6.500000000000
100
AcDbArc
50
90.000000000000
51
180.000000000000
0
ARC
5
812
100
AcDbEntity
8
0-5基準線
6
CENTER2
62
7
100
AcDbCircle
10
2398.175000000000
20
1236.635000000000
30
0.0
40
13.000000000000
100
AcDbArc
50
0.000000000000
51
90.000000000000
0
ARC
5
813
100
AcDbEntity
8
0-6戸当り
6
CONTINUOUS
62
3
100
AcDbCircle
10
2398.175000000000
20
1236.635000000000
30
0.0
40
6.500000000000
100
AcDbArc
50
0.000000000000
51
90.000000000000
0
ARC
5
814
100
AcDbEntity
8
0-6戸当り
6
CONTINUOUS
62
3
100
AcDbCircle
10
2398.175000000000
20
1236.635000000000
30
0.0
40
19.500000000000
100
AcDbArc
50
0.000000000000
51
90.000000000000
0
ARC
5
815
100
AcDbEntity
8
0-6戸当り
6
CONTINUOUS
62
3
100
AcDbCircle
10
2417.175000000000
20
1211.635000000000
30
0.0
40
4.500000000000
100
AcDbArc
50
0.000000000000
51
90.000000000000
0
ARC
5
816
100
AcDbEntity
8
0-6戸当り
6
CONTINUOUS
62
3
100
AcDbCircle
10
2384.175000000000
20
1222.635000000000
30
0.0
40
6.500000000000
100
AcDbArc
50
180.000000000000
51
270.000000000000
0
ARC
5
817
100
AcDbEntity
8
0-6戸当り
6
CONTINUOUS
62
3
100
AcDbCircle
10
2373.175000000000
20
1255.635000000000
30
0.0
40
4.500000000000
100
AcDbArc
50
0.000000000000
51
90.000000000000
0
CIRCLE
5
818
100
AcDbEntity
8
0-6戸当り
6
CONTINUOUS
62
7
100
AcDbCircle
10
1035.743000000000
20
1345.135000000000
30
0.0
40
9.500000000000
0
CIRCLE
5
819
100
AcDbEntity
8
0-6戸当り
6
CONTINUOUS
62
6
100
AcDbCircle
10
1035.743000000000
20
1345.135000000000
30
0.0
40
6.000000000000
0
CIRCLE
5
81a
100
AcDbEntity
8
0-6戸当り
6
CONTINUOUS
62
6
100
AcDbCircle
10
1035.743000000000
20
1345.135000000000
30
0.0
40
5.000000000000
0
CIRCLE
5
81b
100
AcDbEntity
8
0-6戸当り
6
CONTINUOUS
62
7
100
AcDbCircle
10
1130.743000000000
20
1345.135000000000
30
0.0
40
9.500000000000
0
CIRCLE
5
81c
100
AcDbEntity
8
0-6戸当り
6
CONTINUOUS
62
6
100
AcDbCircle
10
1130.743000000000
20
1345.135000000000
30
0.0
40
6.000000000000
0
CIRCLE
5
81d
100
AcDbEntity
8
0-6戸当り
6
CONTINUOUS
62
6
100
AcDbCircle
10
1130.743000000000
20
1345.135000000000
30
0.0
40
5.000000000000
0
ARC
5
81e
100
AcDbEntity
8
0-9扉体
6
CONTINUOUS
62
7
100
AcDbCircle
10
1028.493000000000
20
1260.715000000000
30
0.0
40
13.720000000000
100
AcDbArc
50
69.744000000000
51
110.256000000000
0
ARC
5
81f
100
AcDbEntity
8
0-9扉体
6
CONTINUOUS
62
7
100
AcDbCircle
10
1037.993000000000
20
1260.715000000000
30
0.0
40
13.720000000000
100
AcDbArc
50
69.744000000000
51
110.256000000000
0
ARC
5
820
100
AcDbEntity
8
0-9扉体
6
CONTINUOUS
62
7
100
AcDbCircle
10
1137.993000000000
20
1260.715000000000
30
0.0
40
13.720000000000
100
AcDbArc
50
69.744000000000
51
110.256000000000
0
ARC
5
821
100
AcDbEntity
8
0-9扉体
6
CONTINUOUS
62
7
100
AcDbCircle
10
1128.493000000000
20
1260.715000000000
30
0.0
40
13.720000000000
100
AcDbArc
50
69.744000000000
51
110.256000000000
0
CIRCLE
5
822
100
AcDbEntity
8
0-6戸当り
6
CONTINUOUS
62
7
100
AcDbCircle
10
1350.743000000000
20
1345.135000000000
30
0.0
40
9.500000000000
0
CIRCLE
5
823
100
AcDbEntity
8
0-6戸当り
6
CONTINUOUS
62
6
100
AcDbCircle
10
1350.743000000000
20
1345.135000000000
30
0.0
40
6.000000000000
0
CIRCLE
5
824
100
AcDbEntity
8
0-6戸当り
6
CONTINUOUS
62
6
100
AcDbCircle
10
1350.743000000000
20
1345.135000000000
30
0.0
40
5.000000000000
0
CIRCLE
5
825
100
AcDbEntity
8
0-6戸当り
6
CONTINUOUS
62
7
100
AcDbCircle
10
1255.743000000000
20
1345.135000000000
30
0.0
40
9.500000000000
0
CIRCLE
5
826
100
AcDbEntity
8
0-6戸当り
6
CONTINUOUS
62
6
100
AcDbCircle
10
1255.743000000000
20
1345.135000000000
30
0.0
40
6.000000000000
0
CIRCLE
5
827
100
AcDbEntity
8
0-6戸当り
6
CONTINUOUS
62
6
100
AcDbCircle
10
1255.743000000000
20
1345.135000000000
30
0.0
40
5.000000000000
0
ARC
5
828
100
AcDbEntity
8
0-9扉体
6
CONTINUOUS
62
7
100
AcDbCircle
10
1248.493000000000
20
1260.715000000000
30
0.0
40
13.720000000000
100
AcDbArc
50
69.744000000000
51
110.256000000000
0
ARC
5
829
100
AcDbEntity
8
0-9扉体
6
CONTINUOUS
62
7
100
AcDbCircle
10
1257.993000000000
20
1260.715000000000
30
0.0
40
13.720000000000
100
AcDbArc
50
69.744000000000
51
110.256000000000
0
ARC
5
82a
100
AcDbEntity
8
0-9扉体
6
CONTINUOUS
62
7
100
AcDbCircle
10
1357.993000000000
20
1260.715000000000
30
0.0
40
13.720000000000
100
AcDbArc
50
69.744000000000
51
110.256000000000
0
ARC
5
82b
100
AcDbEntity
8
0-9扉体
6
CONTINUOUS
62
7
100
AcDbCircle
10
1348.493000000000
20
1260.715000000000
30
0.0
40
13.720000000000
100
AcDbArc
50
69.744000000000
51
110.256000000000
0
ARC
5
82c
100
AcDbEntity
8
0-6戸当り
6
DOT
62
7
100
AcDbCircle
10
1030.993000000000
20
2316.875000000000
30
0.0
40
13.720000000000
100
AcDbArc
50
69.744000000000
51
110.256000000000
0
ARC
5
82d
100
AcDbEntity
8
0-6戸当り
6
DOT
62
7
100
AcDbCircle
10
1040.493000000000
20
2316.875000000000
30
0.0
40
13.720000000000
100
AcDbArc
50
69.744000000000
51
110.256000000000
0
ARC
5
82e
100
AcDbEntity
8
0-6戸当り
6
CONTINUOUS
62
7
100
AcDbCircle
10
1040.493000000000
20
2315.314000000000
30
0.0
40
13.720000000000
100
AcDbArc
50
249.744000000000
51
290.256000000000
0
ARC
5
82f
100
AcDbEntity
8
0-6戸当り
6
CONTINUOUS
62
7
100
AcDbCircle
10
1030.993000000000
20
2315.314000000000
30
0.0
40
13.720000000000
100
AcDbArc
50
249.744000000000
51
290.256000000000
0
ARC
5
830
100
AcDbEntity
8
0-5基準線
6
CENTER2
62
7
100
AcDbCircle
10
1047.743000000000
20
2371.595000000000
30
0.0
40
12.000000000000
100
AcDbArc
50
90.000000000000
51
180.000000000000
0
ARC
5
831
100
AcDbEntity
8
0-6戸当り
6
DOT
62
2
100
AcDbCircle
10
1047.743000000000
20
2371.595000000000
30
0.0
40
6.000000000000
100
AcDbArc
50
90.000000000000
51
180.000000000000
0
ARC
5
832
100
AcDbEntity
8
0-6戸当り
6
DOT
62
2
100
AcDbCircle
10
1047.743000000000
20
2371.595000000000
30
0.0
40
18.000000000000
100
AcDbArc
50
90.000000000000
51
180.000000000000
0
ARC
5
833
100
AcDbEntity
8
0-6戸当り
6
DOT
62
7
100
AcDbCircle
10
1135.493000000000
20
2316.875000000000
30
0.0
40
13.720000000000
100
AcDbArc
50
69.744000000000
51
110.256000000000
0
ARC
5
834
100
AcDbEntity
8
0-6戸当り
6
DOT
62
7
100
AcDbCircle
10
1125.993000000000
20
2316.875000000000
30
0.0
40
13.720000000000
100
AcDbArc
50
69.744000000000
51
110.256000000000
0
ARC
5
835
100
AcDbEntity
8
0-6戸当り
6
CONTINUOUS
62
7
100
AcDbCircle
10
1125.993000000000
20
2315.314000000000
30
0.0
40
13.720000000000
100
AcDbArc
50
249.744000000000
51
290.256000000000
0
ARC
5
836
100
AcDbEntity
8
0-6戸当り
6
CONTINUOUS
62
7
100
AcDbCircle
10
1135.493000000000
20
2315.314000000000
30
0.0
40
13.720000000000
100
AcDbArc
50
249.744000000000
51
290.256000000000
0
ARC
5
837
100
AcDbEntity
8
0-5基準線
6
CENTER2
62
7
100
AcDbCircle
10
1118.743000000000
20
2371.595000000000
30
0.0
40
12.000000000000
100
AcDbArc
50
0.000000000000
51
90.000000000000
0
ARC
5
838
100
AcDbEntity
8
0-6戸当り
6
DOT
62
2
100
AcDbCircle
10
1118.743000000000
20
2371.595000000000
30
0.0
40
6.000000000000
100
AcDbArc
50
0.000000000000
51
90.000000000000
0
ARC
5
839
100
AcDbEntity
8
0-6戸当り
6
DOT
62
2
100
AcDbCircle
10
1118.743000000000
20
2371.595000000000
30
0.0
40
18.000000000000
100
AcDbArc
50
0.000000000000
51
90.000000000000
0
ARC
5
83a
100
AcDbEntity
8
0-6戸当り
6
DOT
62
3
100
AcDbCircle
10
1005.743000000000
20
2327.095000000000
30
0.0
40
6.500000000000
100
AcDbArc
50
270.000000000000
51
360.000000000000
0
ARC
5
83b
100
AcDbEntity
8
0-6戸当り
6
DOT
62
3
100
AcDbCircle
10
1016.743000000000
20
2360.095000000000
30
0.0
40
4.500000000000
100
AcDbArc
50
90.000000000000
51
180.000000000000
0
CIRCLE
5
83c
100
AcDbEntity
8
0-9扉体
6
CONTINUOUS
62
4
100
AcDbCircle
10
2345.675000000000
20
1300.135000000000
30
0.0
40
8.000000000000
0
CIRCLE
5
83d
100
AcDbEntity
8
0-9扉体
6
CONTINUOUS
62
4
100
AcDbCircle
10
2345.675000000000
20
1300.135000000000
30
0.0
40
16.000000000000
0
ARC
5
83e
100
AcDbEntity
8
0-6戸当り
6
DOT
62
6
100
AcDbCircle
10
2327.675000000000
20
1301.135000000000
30
0.0
40
17.000000000000
100
AcDbArc
50
90.000000000000
51
95.084000000000
0
ARC
5
83f
100
AcDbEntity
8
0-9扉体
6
CONTINUOUS
62
4
100
AcDbCircle
10
2313.675000000000
20
1238.135000000000
30
0.0
40
6.000000000000
100
AcDbArc
50
90.000000000000
51
180.000000000000
0
ARC
5
840
100
AcDbEntity
8
0-9扉体
6
CONTINUOUS
62
7
100
AcDbCircle
10
2325.675000000000
20
1256.284000000000
30
0.0
40
18.152000000000
100
AcDbArc
50
72.412000000000
51
107.588000000000
0
ARC
5
841
100
AcDbEntity
8
0-9扉体
6
CONTINUOUS
62
7
100
AcDbCircle
10
2333.903000000000
20
1269.579000000000
30
0.0
40
4.856000000000
100
AcDbArc
50
64.384000000000
51
124.384000000000
0
ARC
5
842
100
AcDbEntity
8
0-9扉体
6
CONTINUOUS
62
7
100
AcDbCircle
10
2317.448000000000
20
1269.579000000000
30
0.0
40
4.856000000000
100
AcDbArc
50
55.616000000000
51
115.616000000000
0
ARC
5
843
100
AcDbEntity
8
0-9扉体
6
CONTINUOUS
62
7
100
AcDbCircle
10
2325.675000000000
20
1254.287000000000
30
0.0
40
18.152000000000
100
AcDbArc
50
252.412000000000
51
287.588000000000
0
ARC
5
844
100
AcDbEntity
8
0-9扉体
6
CONTINUOUS
62
7
100
AcDbCircle
10
2317.448000000000
20
1240.992000000000
30
0.0
40
4.856000000000
100
AcDbArc
50
244.384000000000
51
304.384000000000
0
ARC
5
845
100
AcDbEntity
8
0-9扉体
6
CONTINUOUS
62
7
100
AcDbCircle
10
2333.903000000000
20
1240.992000000000
30
0.0
40
4.856000000000
100
AcDbArc
50
235.616000000000
51
295.616000000000
0
CIRCLE
5
846
100
AcDbEntity
8
0-9扉体
6
CONTINUOUS
62
3
100
AcDbCircle
10
2363.675000000000
20
1236.135000000000
30
0.0
40
4.000000000000
0
ARC
5
847
100
AcDbEntity
8
0-9扉体
6
CONTINUOUS
62
3
100
AcDbCircle
10
2363.675000000000
20
1236.135000000000
30
0.0
40
8.000000000000
100
AcDbArc
50
255.522000000000
51
540.000000000000
0
ARC
5
848
100
AcDbEntity
8
0-9扉体
6
CONTINUOUS
62
3
100
AcDbCircle
10
2353.994000000000
20
1210.135000000000
30
0.0
40
12.419000000000
100
AcDbArc
50
162.412000000000
51
197.588000000000
0
ARC
5
849
100
AcDbEntity
8
0-9扉体
6
CONTINUOUS
62
3
100
AcDbCircle
10
2344.898000000000
20
1204.506000000000
30
0.0
40
3.323000000000
100
AcDbArc
50
145.615000000000
51
205.614000000000
0
ARC
5
84a
100
AcDbEntity
8
0-9扉体
6
CONTINUOUS
62
3
100
AcDbCircle
10
2344.898000000000
20
1215.764000000000
30
0.0
40
3.323000000000
100
AcDbArc
50
154.386000000000
51
214.385000000000
0
ARC
5
84b
100
AcDbEntity
8
0-9扉体
6
CONTINUOUS
62
4
100
AcDbCircle
10
2313.675000000000
20
832.135000000000
30
0.0
40
6.000000000000
100
AcDbArc
50
180.000000000000
51
270.000000000000
0
CIRCLE
5
84c
100
AcDbEntity
8
0-9扉体
6
CONTINUOUS
62
3
100
AcDbCircle
10
2363.675000000000
20
834.135000000000
30
0.0
40
4.000000000000
0
ARC
5
84d
100
AcDbEntity
8
0-9扉体
6
CONTINUOUS
62
3
100
AcDbCircle
10
2363.675000000000
20
834.135000000000
30
0.0
40
8.000000000000
100
AcDbArc
50
180.000000000000
51
464.478000000000
0
ARC
5
84e
100
AcDbEntity
8
0-9扉体
6
CONTINUOUS
62
3
100
AcDbCircle
10
2353.994000000000
20
860.135000000000
30
0.0
40
12.419000000000
100
AcDbArc
50
162.412000000000
51
197.588000000000
0
ARC
5
84f
100
AcDbEntity
8
0-9扉体
6
CONTINUOUS
62
3
100
AcDbCircle
10
2344.898000000000
20
865.764000000000
30
0.0
40
3.323000000000
100
AcDbArc
50
154.386000000000
51
214.385000000000
0
ARC
5
850
100
AcDbEntity
8
0-9扉体
6
CONTINUOUS
62
3
100
AcDbCircle
10
2344.898000000000
20
854.506000000000
30
0.0
40
3.323000000000
100
AcDbArc
50
145.615000000000
51
205.614000000000
0
ARC
5
851
100
AcDbEntity
8
0-9扉体
6
CONTINUOUS
62
4
100
AcDbCircle
10
1396.243000000000
20
2256.594000000000
30
0.0
40
6.000000000000
100
AcDbArc
50
270.000000000000
51
360.000000000000
0
CIRCLE
5
852
100
AcDbEntity
8
0-9扉体
6
CONTINUOUS
62
7
100
AcDbCircle
10
1033.243000000000
20
2268.594000000000
30
0.0
40
9.500000000000
0
CIRCLE
5
853
100
AcDbEntity
8
0-9扉体
6
CONTINUOUS
62
6
100
AcDbCircle
10
1033.243000000000
20
2268.594000000000
30
0.0
40
6.000000000000
0
CIRCLE
5
854
100
AcDbEntity
8
0-9扉体
6
CONTINUOUS
62
6
100
AcDbCircle
10
1033.243000000000
20
2268.594000000000
30
0.0
40
5.000000000000
0
CIRCLE
5
855
100
AcDbEntity
8
0-9扉体
6
CONTINUOUS
62
7
100
AcDbCircle
10
1133.243000000000
20
2268.594000000000
30
0.0
40
9.500000000000
0
CIRCLE
5
856
100
AcDbEntity
8
0-9扉体
6
CONTINUOUS
62
6
100
AcDbCircle
10
1133.243000000000
20
2268.594000000000
30
0.0
40
6.000000000000
0
CIRCLE
5
857
100
AcDbEntity
8
0-9扉体
6
CONTINUOUS
62
6
100
AcDbCircle
10
1133.243000000000
20
2268.594000000000
30
0.0
40
5.000000000000
0
CIRCLE
5
858
100
AcDbEntity
8
0-9扉体
6
CONTINUOUS
62
2
100
AcDbCircle
10
1033.243000000000
20
2268.594000000000
30
0.0
40
13.000000000000
0
CIRCLE
5
859
100
AcDbEntity
8
0-9扉体
6
CONTINUOUS
62
2
100
AcDbCircle
10
1133.243000000000
20
2268.594000000000
30
0.0
40
13.000000000000
0
CIRCLE
5
85a
100
AcDbEntity
8
0-9扉体
6
CONTINUOUS
62
3
100
AcDbCircle
10
1394.243000000000
20
2306.595000000000
30
0.0
40
4.000000000000
0
ARC
5
85b
100
AcDbEntity
8
0-9扉体
6
CONTINUOUS
62
3
100
AcDbCircle
10
1394.243000000000
20
2306.595000000000
30
0.0
40
8.000000000000
100
AcDbArc
50
270.000000000000
51
554.478000000000
0
ARC
5
85c
100
AcDbEntity
8
0-9扉体
6
CONTINUOUS
62
3
100
AcDbCircle
10
1368.243000000000
20
2296.914000000000
30
0.0
40
12.419000000000
100
AcDbArc
50
252.412000000000
51
287.588000000000
0
ARC
5
85d
100
AcDbEntity
8
0-9扉体
6
CONTINUOUS
62
3
100
AcDbCircle
10
1362.614000000000
20
2287.817000000000
30
0.0
40
3.323000000000
100
AcDbArc
50
244.386000000000
51
304.385000000000
0
ARC
5
85e
100
AcDbEntity
8
0-9扉体
6
CONTINUOUS
62
3
100
AcDbCircle
10
1373.872000000000
20
2287.817000000000
30
0.0
40
3.323000000000
100
AcDbArc
50
235.615000000000
51
295.614000000000
0
ARC
5
85f
100
AcDbEntity
8
0-9扉体
6
CONTINUOUS
62
3
100
AcDbCircle
10
992.243000000000
20
2306.595000000000
30
0.0
40
8.000000000000
100
AcDbArc
50
90.411000000000
51
270.000000000000
0
POLYLINE
5
860
100
AcDbEntity
  8
0-8寸法
6
CONTINUOUS
62
4
100
AcDb2dPolyline
66
1
10
0
20
0
70
1
40
4.000
41
4.000
0
VERTEX
5
861
100
AcDbEntity
  8
0-8寸法
6
CONTINUOUS
62
4
100
AcDbVertex
100
AcDb2dVertex
10
1009.123
20
902.014
30
0.0
42
1.000
0
VERTEX
5
862
100
AcDbEntity
  8
0-8寸法
6
CONTINUOUS
62
4
100
AcDbVertex
100
AcDb2dVertex
10
1013.123
20
902.014
30
0.0
42
1.000
0
SEQEND
5
863
100
AcDbEntity
  8
0-8寸法
0
POLYLINE
5
864
100
AcDbEntity
  8
0-8寸法
6
CONTINUOUS
62
4
100
AcDb2dPolyline
66
1
10
0
20
0
70
1
40
4.000
41
4.000
0
VERTEX
5
865
100
AcDbEntity
  8
0-8寸法
6
CONTINUOUS
62
4
100
AcDbVertex
100
AcDb2dVertex
10
2369.675
20
985.135
30
0.0
42
1.000
0
VERTEX
5
866
100
AcDbEntity
  8
0-8寸法
6
CONTINUOUS
62
4
100
AcDbVertex
100
AcDb2dVertex
10
2373.675
20
985.135
30
0.0
42
1.000
0
SEQEND
5
867
100
AcDbEntity
  8
0-8寸法
0
POLYLINE
5
868
100
AcDbEntity
  8
0-8寸法
6
CONTINUOUS
62
3
100
AcDb2dPolyline
66
1
10
0
20
0
70
1
40
4.000
41
4.000
0
VERTEX
5
869
100
AcDbEntity
  8
0-8寸法
6
CONTINUOUS
62
3
100
AcDbVertex
100
AcDb2dVertex
10
1280.243
20
1324.135
30
0.0
42
1.000
0
VERTEX
5
86a
100
AcDbEntity
  8
0-8寸法
6
CONTINUOUS
62
3
100
AcDbVertex
100
AcDb2dVertex
10
1284.243
20
1324.135
30
0.0
42
1.000
0
SEQEND
5
86b
100
AcDbEntity
  8
0-8寸法
0
POLYLINE
5
86c
100
AcDbEntity
  8
0-8寸法
6
CONTINUOUS
62
3
100
AcDb2dPolyline
66
1
10
0
20
0
70
1
40
4.000
41
4.000
0
VERTEX
5
86d
100
AcDbEntity
  8
0-8寸法
6
CONTINUOUS
62
3
100
AcDbVertex
100
AcDb2dVertex
10
1067.234
20
1337.116
30
0.0
42
1.000
0
VERTEX
5
86e
100
AcDbEntity
  8
0-8寸法
6
CONTINUOUS
62
3
100
AcDbVertex
100
AcDb2dVertex
10
1071.234
20
1337.116
30
0.0
42
1.000
0
SEQEND
5
86f
100
AcDbEntity
  8
0-8寸法
0
POLYLINE
5
870
100
AcDbEntity
  8
0-8寸法
6
CONTINUOUS
62
4
100
AcDb2dPolyline
66
1
10
0
20
0
70
1
40
4.000
41
4.000
0
VERTEX
5
871
100
AcDbEntity
  8
0-8寸法
6
CONTINUOUS
62
4
100
AcDbVertex
100
AcDb2dVertex
10
2199.675
20
1250.135
30
0.0
42
1.000
0
VERTEX
5
872
100
AcDbEntity
  8
0-8寸法
6
CONTINUOUS
62
4
100
AcDbVertex
100
AcDb2dVertex
10
2203.675
20
1250.135
30
0.0
42
1.000
0
SEQEND
5
873
100
AcDbEntity
  8
0-8寸法
0
POLYLINE
5
874
100
AcDbEntity
  8
0-8寸法
6
CONTINUOUS
62
4
100
AcDb2dPolyline
66
1
10
0
20
0
70
1
40
4.000
41
4.000
0
VERTEX
5
875
100
AcDbEntity
  8
0-8寸法
6
CONTINUOUS
62
4
100
AcDbVertex
100
AcDb2dVertex
10
2347.676
20
1085.135
30
0.0
42
1.000
0
VERTEX
5
876
100
AcDbEntity
  8
0-8寸法
6
CONTINUOUS
62
4
100
AcDbVertex
100
AcDb2dVertex
10
2351.676
20
1085.135
30
0.0
42
1.000
0
SEQEND
5
877
100
AcDbEntity
  8
0-8寸法
0
POLYLINE
5
878
100
AcDbEntity
  8
0-8寸法
6
CONTINUOUS
62
4
100
AcDb2dPolyline
66
1
10
0
20
0
70
1
40
4.000
41
4.000
0
VERTEX
5
879
100
AcDbEntity
  8
0-8寸法
6
CONTINUOUS
62
4
100
AcDbVertex
100
AcDb2dVertex
10
1392.561
20
2306.595
30
0.0
42
1.000
0
VERTEX
5
87a
100
AcDbEntity
  8
0-8寸法
6
CONTINUOUS
62
4
100
AcDbVertex
100
AcDb2dVertex
10
1396.561
20
2306.595
30
0.0
42
1.000
0
SEQEND
5
87b
100
AcDbEntity
  8
0-8寸法
0
TEXT
5
87c
100
AcDbEntity
8
0-A文字
62
7
370
-3
100
AcDbText
10
1962.116
20
1072.065
30
0.0
40
33.660
1
水圧方向
41
0.963
50
0.000
100
AcDbText
0
TEXT
5
87d
100
AcDbEntity
8
0-A文字
62
7
370
-3
100
AcDbText
10
1110.282
20
1079.738
30
0.0
40
33.660
1
ｽｷﾝﾌﾟﾚ-ﾄ
41
0.893
50
0.000
100
AcDbText
0
MTEXT
5
87e
100
AcDbEntity
8
0-8寸法
62
7
370
-3
100
AcDbMText
10
1955.300
20
1420.442
30
0.0
40
31.790
41
0.000
71
7
72
1
1
\W1.093;▽{\W0.787;H.W.L.}
7
STANDARD
11
1.00000
21
0.00000
31
0.0
0
MTEXT
5
87f
100
AcDbEntity
8
0-8寸法
62
7
370
-3
100
AcDbMText
10
1725.421
20
520.442
30
0.0
40
31.790
41
0.000
71
7
72
1
1
\W1.093;{\W0.787;ｱﾝｶ-   RB-}φ{\W0.787;13(SS400)}
7
STANDARD
11
1.00000
21
0.00000
31
0.0
0
MTEXT
5
880
100
AcDbEntity
8
0-8寸法
62
7
370
-3
100
AcDbMText
10
1725.421
20
420.442
30
0.0
40
31.790
41
0.000
71
7
72
1
1
\W1.093;（基礎挿筋{\W0.787; D13}～{\W0.787;D16}）
7
STANDARD
11
1.00000
21
0.00000
31
0.0
0
TEXT
5
881
100
AcDbEntity
8
0-8寸法
62
7
370
-3
100
AcDbText
10
2381.307
20
1099.182
30
0.0
40
33.660
1
6t
41
0.574
50
0.000
100
AcDbText
0
TEXT
5
882
100
AcDbEntity
8
0-8寸法
62
7
370
-3
100
AcDbText
10
1162.397
20
549.182
30
0.0
40
33.660
1
250
41
0.586
50
0.000
100
AcDbText
0
TEXT
5
883
100
AcDbEntity
8
0-8寸法
62
7
370
-3
100
AcDbText
10
1085.024
20
593.897
30
0.0
40
33.660
1
挿筋ピッチ
41
0.963
50
0.000
100
AcDbText
0
MTEXT
5
884
100
AcDbEntity
8
0-8寸法
62
7
370
-3
100
AcDbMText
10
1083.773
20
445.442
30
0.0
40
31.790
41
0.000
71
7
72
1
1
\W1.093;扉体幅{\W0.787; 430}
7
STANDARD
11
1.00000
21
0.00000
31
0.0
0
MTEXT
5
885
100
AcDbEntity
8
0-8寸法
62
7
370
-3
100
AcDbMText
10
1725.457
20
620.442
30
0.0
40
31.790
41
0.000
71
7
72
1
1
\W1.093;戸当り{\W0.787; L50x50x6(SUS304)}
7
STANDARD
11
1.00000
21
0.00000
31
0.0
0
TEXT
5
886
100
AcDbEntity
8
0-8寸法
62
7
370
-3
100
AcDbText
10
535.049
20
549.182
30
0.0
40
33.660
1
L48x60x6(A5083)
41
0.619
50
0.000
100
AcDbText
0
TEXT
5
887
100
AcDbEntity
8
0-A文字
62
7
370
-3
100
AcDbText
10
1110.264
20
969.738
30
0.0
40
33.660
1
(A5083)
41
0.659
50
0.000
100
AcDbText
0
TEXT
5
888
100
AcDbEntity
8
0-8寸法
62
7
370
-3
100
AcDbText
10
2441.864
20
999.182
30
0.0
40
33.660
1
50
41
0.626
50
0.000
100
AcDbText
0
TEXT
5
889
100
AcDbEntity
8
0-8寸法
62
7
370
-3
100
AcDbText
10
1162.397
20
1589.182
30
0.0
40
33.660
1
220
41
0.568
50
0.000
100
AcDbText
0
TEXT
5
88a
100
AcDbEntity
8
0-8寸法
62
7
370
-3
100
AcDbText
10
2187.628
20
1145.521
30
0.0
40
33.660
1
40
41
0.657
50
90.000
100
AcDbText
0
TEXT
5
88b
100
AcDbEntity
8
0-8寸法
62
7
370
-3
100
AcDbText
10
2187.628
20
1325.521
30
0.0
40
33.660
1
50
41
0.626
50
90.000
100
AcDbText
0
TEXT
5
88c
100
AcDbEntity
8
0-8寸法
62
7
370
-3
100
AcDbText
10
2229.814
20
1099.182
30
0.0
40
33.660
1
48
41
0.583
50
0.000
100
AcDbText
0
TEXT
5
88d
100
AcDbEntity
8
0-8寸法
62
7
370
-3
100
AcDbText
10
2270.397
20
1584.182
30
0.0
40
33.660
1
26
41
0.542
50
0.000
100
AcDbText
0
TEXT
5
88e
100
AcDbEntity
8
0-8寸法
62
7
370
-3
100
AcDbText
10
2284.616
20
999.182
30
0.0
40
33.660
1
16
41
0.716
50
0.000
100
AcDbText
0
MTEXT
5
88f
100
AcDbEntity
8
0-8寸法
62
7
370
-3
100
AcDbMText
10
1568.489
20
2145.442
30
0.0
40
31.790
41
0.000
71
7
72
1
1
\W1.093;水密ゴム{\W0.787; }Ｐ型{\W0.787; }φ{\W0.787;16x51x7(CRｺﾞﾑ)}
7
STANDARD
11
1.00000
21
0.00000
31
0.0
0
MTEXT
5
890
100
AcDbEntity
8
0-8寸法
62
7
370
-3
100
AcDbMText
10
1858.368
20
938.273
30
0.0
40
31.790
41
0.000
71
7
72
1
1
\W1.093;設計水深{\W0.787;  4.20 m}
7
STANDARD
11
0.00000
21
1.00000
31
0.0
0
LINE
5
891
100
AcDbEntity
8
0-8寸法
6
CONTINUOUS
62
4
100
AcDbLine
10
1768.243000000000
20
2314.595000000000
30
0.0
11
1768.243000000000
21
2439.595000000000
31
0.0
0
LINE
5
892
100
AcDbEntity
8
0-8寸法
6
CONTINUOUS
62
4
100
AcDbLine
10
1631.663000000000
20
2314.595000000000
30
0.0
11
1778.243000000000
21
2314.595000000000
31
0.0
0
LINE
5
893
100
AcDbEntity
8
0-8寸法
6
CONTINUOUS
62
4
100
AcDbLine
10
1768.243000000000
20
2314.595000000000
30
0.0
11
1763.067000000000
21
2333.913000000000
31
0.0
0
LINE
5
894
100
AcDbEntity
8
0-8寸法
6
CONTINUOUS
62
4
100
AcDbLine
10
1768.243000000000
20
2314.595000000000
30
0.0
11
1773.420000000000
21
2333.913000000000
31
0.0
0
LINE
5
895
100
AcDbEntity
8
0-8寸法
6
CONTINUOUS
62
4
100
AcDbLine
10
1768.243000000000
20
2439.595000000000
30
0.0
11
1763.067000000000
21
2420.276000000000
31
0.0
0
LINE
5
896
100
AcDbEntity
8
0-8寸法
6
CONTINUOUS
62
4
100
AcDbLine
10
1768.243000000000
20
2439.595000000000
30
0.0
11
1773.420000000000
21
2420.276000000000
31
0.0
0
LINE
5
897
100
AcDbEntity
8
0-8寸法
6
CONTINUOUS
62
4
100
AcDbLine
10
1528.996000000000
20
2439.595000000000
30
0.0
11
1778.243000000000
21
2439.595000000000
31
0.0
0
TEXT
5
898
100
AcDbEntity
8
0-8寸法
62
7
370
-3
100
AcDbText
10
1754.196
20
2346.248
30
0.0
40
33.660
1
125
41
0.633
50
90.000
100
AcDbText
0
LINE
5
899
100
AcDbEntity
8
0-8寸法
6
CONTINUOUS
62
4
100
AcDbLine
10
2371.675000000000
20
510.135000000000
30
0.0
11
2496.675000000000
21
510.135000000000
31
0.0
0
LINE
5
89a
100
AcDbEntity
8
0-8寸法
6
CONTINUOUS
62
4
100
AcDbLine
10
2371.675000000000
20
628.856000000000
30
0.0
11
2371.675000000000
21
500.135000000000
31
0.0
0
LINE
5
89b
100
AcDbEntity
8
0-8寸法
6
CONTINUOUS
62
4
100
AcDbLine
10
2371.675000000000
20
510.135000000000
30
0.0
11
2390.994000000000
21
515.311000000000
31
0.0
0
LINE
5
89c
100
AcDbEntity
8
0-8寸法
6
CONTINUOUS
62
4
100
AcDbLine
10
2371.675000000000
20
510.135000000000
30
0.0
11
2390.994000000000
21
504.959000000000
31
0.0
0
LINE
5
89d
100
AcDbEntity
8
0-8寸法
6
CONTINUOUS
62
4
100
AcDbLine
10
2496.675000000000
20
510.135000000000
30
0.0
11
2477.356000000000
21
515.311000000000
31
0.0
0
LINE
5
89e
100
AcDbEntity
8
0-8寸法
6
CONTINUOUS
62
4
100
AcDbLine
10
2496.675000000000
20
510.135000000000
30
0.0
11
2477.356000000000
21
504.959000000000
31
0.0
0
LINE
5
89f
100
AcDbEntity
8
0-8寸法
6
CONTINUOUS
62
4
100
AcDbLine
10
2496.675000000000
20
703.133000000000
30
0.0
11
2496.675000000000
21
500.135000000000
31
0.0
0
TEXT
5
8a0
100
AcDbEntity
8
0-8寸法
62
7
370
-3
100
AcDbText
10
2403.329
20
524.182
30
0.0
40
33.660
1
125
41
0.633
50
0.000
100
AcDbText
0
LINE
5
8a1
100
AcDbEntity
8
0-1_J_POINT
6
CONTINUOUS
62
4
100
AcDbLine
10
1368.243000000000
20
2416.035000000000
30
0.0
11
1391.803000000000
21
2439.595000000000
31
0.0
0
LINE
5
8a2
100
AcDbEntity
8
0-1_J_POINT
6
CONTINUOUS
62
3
100
AcDbLine
10
2446.675000000000
20
1278.635000000000
30
0.0
11
2546.675000000000
21
1278.635000000000
31
0.0
0
LINE
5
8a3
100
AcDbEntity
8
0-1_J_POINT
6
CONTINUOUS
62
3
100
AcDbLine
10
2446.675000000000
20
1278.635000000000
30
0.0
11
2446.675000000000
21
1291.635000000000
31
0.0
0
LINE
5
8a4
100
AcDbEntity
8
0-1_J_POINT
6
PHANTOM2
62
3
100
AcDbLine
10
2546.675000000000
20
1270.135000000000
30
0.0
11
2546.675000000000
21
1300.135000000000
31
0.0
0
LINE
5
8a5
100
AcDbEntity
8
0-1_J_POINT
6
CONTINUOUS
62
3
100
AcDbLine
10
2446.675000000000
20
1291.635000000000
30
0.0
11
2546.675000000000
21
1291.635000000000
31
0.0
0
LINE
5
8a6
100
AcDbEntity
8
0-1_J_POINT
6
CENTER2
62
7
100
AcDbLine
10
2440.330000000000
20
1285.135000000000
30
0.0
11
2553.134000000000
21
1285.135000000000
31
0.0
0
LINE
5
8a7
100
AcDbEntity
8
0-1_J_POINT
6
CONTINUOUS
62
3
100
AcDbLine
10
2446.675000000000
20
778.635000000000
30
0.0
11
2546.675000000000
21
778.635000000000
31
0.0
0
LINE
5
8a8
100
AcDbEntity
8
0-1_J_POINT
6
CONTINUOUS
62
3
100
AcDbLine
10
2446.675000000000
20
778.635000000000
30
0.0
11
2446.675000000000
21
791.635000000000
31
0.0
0
LINE
5
8a9
100
AcDbEntity
8
0-1_J_POINT
6
PHANTOM2
62
3
100
AcDbLine
10
2546.675000000000
20
770.135000000000
30
0.0
11
2546.675000000000
21
800.135000000000
31
0.0
0
LINE
5
8aa
100
AcDbEntity
8
0-1_J_POINT
6
CONTINUOUS
62
3
100
AcDbLine
10
2446.675000000000
20
791.635000000000
30
0.0
11
2546.675000000000
21
791.635000000000
31
0.0
0
LINE
5
8ab
100
AcDbEntity
8
0-1_J_POINT
6
CENTER2
62
7
100
AcDbLine
10
2440.330000000000
20
785.135000000000
30
0.0
11
2553.134000000000
21
785.135000000000
31
0.0
0
LINE
5
8ac
100
AcDbEntity
8
0-1_J_POINT
6
CONTINUOUS
62
3
100
AcDbLine
10
1449.743000000000
20
2389.595000000000
30
0.0
11
1449.743000000000
21
2489.595000000000
31
0.0
0
LINE
5
8ad
100
AcDbEntity
8
0-1_J_POINT
6
CONTINUOUS
62
3
100
AcDbLine
10
1449.743000000000
20
2389.595000000000
30
0.0
11
1436.743000000000
21
2389.595000000000
31
0.0
0
LINE
5
8ae
100
AcDbEntity
8
0-1_J_POINT
6
PHANTOM2
62
3
100
AcDbLine
10
1458.243000000000
20
2489.595000000000
30
0.0
11
1428.243000000000
21
2489.595000000000
31
0.0
0
LINE
5
8af
100
AcDbEntity
8
0-1_J_POINT
6
CONTINUOUS
62
3
100
AcDbLine
10
1436.743000000000
20
2389.595000000000
30
0.0
11
1436.743000000000
21
2489.595000000000
31
0.0
0
LINE
5
8b0
100
AcDbEntity
8
0-1_J_POINT
6
CENTER2
62
7
100
AcDbLine
10
1443.243000000000
20
2383.250000000000
30
0.0
11
1443.243000000000
21
2496.054000000000
31
0.0
0
LINE
5
8b1
100
AcDbEntity
8
0-1_J_POINT
6
CONTINUOUS
62
3
100
AcDbLine
10
1324.743000000000
20
2389.595000000000
30
0.0
11
1324.743000000000
21
2489.595000000000
31
0.0
0
LINE
5
8b2
100
AcDbEntity
8
0-1_J_POINT
6
CONTINUOUS
62
3
100
AcDbLine
10
1324.743000000000
20
2389.595000000000
30
0.0
11
1311.743000000000
21
2389.595000000000
31
0.0
0
LINE
5
8b3
100
AcDbEntity
8
0-1_J_POINT
6
PHANTOM2
62
3
100
AcDbLine
10
1333.243000000000
20
2489.595000000000
30
0.0
11
1303.243000000000
21
2489.595000000000
31
0.0
0
LINE
5
8b4
100
AcDbEntity
8
0-1_J_POINT
6
CONTINUOUS
62
3
100
AcDbLine
10
1311.743000000000
20
2389.595000000000
30
0.0
11
1311.743000000000
21
2489.595000000000
31
0.0
0
LINE
5
8b5
100
AcDbEntity
8
0-1_J_POINT
6
CENTER2
62
7
100
AcDbLine
10
1318.243000000000
20
2383.250000000000
30
0.0
11
1318.243000000000
21
2496.054000000000
31
0.0
0
LINE
5
8b6
100
AcDbEntity
8
0-1_J_POINT
6
CENTER2
62
7
100
AcDbLine
10
1068.243000000000
20
2383.250000000000
30
0.0
11
1068.243000000000
21
2496.054000000000
31
0.0
0
LINE
5
8b7
100
AcDbEntity
8
0-1_J_POINT
6
CENTER2
62
7
100
AcDbLine
10
943.243000000000
20
2383.250000000000
30
0.0
11
943.243000000000
21
2496.054000000000
31
0.0
0
CIRCLE
5
8b8
100
AcDbEntity
8
0-1_J_POINT
6
CONTINUOUS
62
3
100
AcDbCircle
10
1443.243000000000
20
1160.135000000000
30
0.0
40
7.500000000000
0
LINE
5
8b9
100
AcDbEntity
8
0-1_J_POINT
6
CENTER
62
7
100
AcDbLine
10
1443.243000000000
20
1160.135000000000
30
0.0
11
1430.243000000000
21
1160.135000000000
31
0.0
0
LINE
5
8ba
100
AcDbEntity
8
0-1_J_POINT
6
CENTER
62
7
100
AcDbLine
10
1443.243000000000
20
1160.135000000000
30
0.0
11
1456.243000000000
21
1160.135000000000
31
0.0
0
LINE
5
8bb
100
AcDbEntity
8
0-1_J_POINT
6
CENTER
62
7
100
AcDbLine
10
1443.243000000000
20
1160.135000000000
30
0.0
11
1443.243000000000
21
1173.135000000000
31
0.0
0
LINE
5
8bc
100
AcDbEntity
8
0-1_J_POINT
6
CENTER
62
7
100
AcDbLine
10
1443.243000000000
20
1160.135000000000
30
0.0
11
1443.243000000000
21
1147.135000000000
31
0.0
0
CIRCLE
5
8bd
100
AcDbEntity
8
0-1_J_POINT
6
CONTINUOUS
62
3
100
AcDbCircle
10
1443.243000000000
20
910.135000000000
30
0.0
40
7.500000000000
0
LINE
5
8be
100
AcDbEntity
8
0-1_J_POINT
6
CENTER
62
7
100
AcDbLine
10
1443.243000000000
20
910.135000000000
30
0.0
11
1430.243000000000
21
910.135000000000
31
0.0
0
LINE
5
8bf
100
AcDbEntity
8
0-1_J_POINT
6
CENTER
62
7
100
AcDbLine
10
1443.243000000000
20
910.135000000000
30
0.0
11
1456.243000000000
21
910.135000000000
31
0.0
0
LINE
5
8c0
100
AcDbEntity
8
0-1_J_POINT
6
CENTER
62
7
100
AcDbLine
10
1443.243000000000
20
910.135000000000
30
0.0
11
1443.243000000000
21
923.135000000000
31
0.0
0
LINE
5
8c1
100
AcDbEntity
8
0-1_J_POINT
6
CENTER
62
7
100
AcDbLine
10
1443.243000000000
20
910.135000000000
30
0.0
11
1443.243000000000
21
897.135000000000
31
0.0
0
CIRCLE
5
8c2
100
AcDbEntity
8
0-1_J_POINT
6
CONTINUOUS
62
3
100
AcDbCircle
10
1318.243000000000
20
785.135000000000
30
0.0
40
7.500000000000
0
LINE
5
8c3
100
AcDbEntity
8
0-1_J_POINT
6
CENTER
62
7
100
AcDbLine
10
1318.243000000000
20
785.135000000000
30
0.0
11
1305.243000000000
21
785.135000000000
31
0.0
0
LINE
5
8c4
100
AcDbEntity
8
0-1_J_POINT
6
CENTER
62
7
100
AcDbLine
10
1318.243000000000
20
785.135000000000
30
0.0
11
1331.243000000000
21
785.135000000000
31
0.0
0
LINE
5
8c5
100
AcDbEntity
8
0-1_J_POINT
6
CENTER
62
7
100
AcDbLine
10
1318.243000000000
20
785.135000000000
30
0.0
11
1318.243000000000
21
798.135000000000
31
0.0
0
LINE
5
8c6
100
AcDbEntity
8
0-1_J_POINT
6
CENTER
62
7
100
AcDbLine
10
1318.243000000000
20
785.135000000000
30
0.0
11
1318.243000000000
21
772.135000000000
31
0.0
0
CIRCLE
5
8c7
100
AcDbEntity
8
0-1_J_POINT
6
CONTINUOUS
62
3
100
AcDbCircle
10
1068.243000000000
20
785.135000000000
30
0.0
40
7.500000000000
0
LINE
5
8c8
100
AcDbEntity
8
0-1_J_POINT
6
CENTER
62
7
100
AcDbLine
10
1068.243000000000
20
785.135000000000
30
0.0
11
1055.243000000000
21
785.135000000000
31
0.0
0
LINE
5
8c9
100
AcDbEntity
8
0-1_J_POINT
6
CENTER
62
7
100
AcDbLine
10
1068.243000000000
20
785.135000000000
30
0.0
11
1081.243000000000
21
785.135000000000
31
0.0
0
LINE
5
8ca
100
AcDbEntity
8
0-1_J_POINT
6
CENTER
62
7
100
AcDbLine
10
1068.243000000000
20
785.135000000000
30
0.0
11
1068.243000000000
21
798.135000000000
31
0.0
0
LINE
5
8cb
100
AcDbEntity
8
0-1_J_POINT
6
CENTER
62
7
100
AcDbLine
10
1068.243000000000
20
785.135000000000
30
0.0
11
1068.243000000000
21
772.135000000000
31
0.0
0
CIRCLE
5
8cc
100
AcDbEntity
8
0-1_J_POINT
6
CONTINUOUS
62
3
100
AcDbCircle
10
943.243000000000
20
910.135000000000
30
0.0
40
7.500000000000
0
LINE
5
8cd
100
AcDbEntity
8
0-1_J_POINT
6
CENTER
62
7
100
AcDbLine
10
943.243000000000
20
910.135000000000
30
0.0
11
930.243000000000
21
910.135000000000
31
0.0
0
LINE
5
8ce
100
AcDbEntity
8
0-1_J_POINT
6
CENTER
62
7
100
AcDbLine
10
943.243000000000
20
910.135000000000
30
0.0
11
956.243000000000
21
910.135000000000
31
0.0
0
LINE
5
8cf
100
AcDbEntity
8
0-1_J_POINT
6
CENTER
62
7
100
AcDbLine
10
943.243000000000
20
910.135000000000
30
0.0
11
943.243000000000
21
923.135000000000
31
0.0
0
LINE
5
8d0
100
AcDbEntity
8
0-1_J_POINT
6
CENTER
62
7
100
AcDbLine
10
943.243000000000
20
910.135000000000
30
0.0
11
943.243000000000
21
897.135000000000
31
0.0
0
CIRCLE
5
8d1
100
AcDbEntity
8
0-1_J_POINT
6
CONTINUOUS
62
3
100
AcDbCircle
10
943.243000000000
20
1160.135000000000
30
0.0
40
7.500000000000
0
LINE
5
8d2
100
AcDbEntity
8
0-1_J_POINT
6
CENTER
62
7
100
AcDbLine
10
943.243000000000
20
1160.135000000000
30
0.0
11
930.243000000000
21
1160.135000000000
31
0.0
0
LINE
5
8d3
100
AcDbEntity
8
0-1_J_POINT
6
CENTER
62
7
100
AcDbLine
10
943.243000000000
20
1160.135000000000
30
0.0
11
956.243000000000
21
1160.135000000000
31
0.0
0
LINE
5
8d4
100
AcDbEntity
8
0-1_J_POINT
6
CENTER
62
7
100
AcDbLine
10
943.243000000000
20
1160.135000000000
30
0.0
11
943.243000000000
21
1173.135000000000
31
0.0
0
LINE
5
8d5
100
AcDbEntity
8
0-1_J_POINT
6
CENTER
62
7
100
AcDbLine
10
943.243000000000
20
1160.135000000000
30
0.0
11
943.243000000000
21
1147.135000000000
31
0.0
0
LINE
5
8d6
100
AcDbEntity
8
0-1_J_POINT
6
DOT
62
3
100
AcDbLine
10
1074.743000000000
20
2389.595000000000
30
0.0
11
1074.743000000000
21
2489.595000000000
31
0.0
0
POLYLINE
5
8d7
100
AcDbEntity
8
0-1_J_POINT
6
DOT
62
  3
100
AcDb2dPolyline
66
1
10
0.0
20
0.0
30
0.0
70
0
0
VERTEX
5
8d8
100
AcDbEntity
8
0-1_J_POINT
6
DOT
62
  3
100
AcDbVertex
100
AcDb2dVertex
10
1074.743000000000
20
2389.595000000000
30
0.0
0
VERTEX
5
8d9
100
AcDbEntity
8
0-1_J_POINT
6
DOT
62
  3
100
AcDbVertex
100
AcDb2dVertex
10
1061.743000000000
20
2389.595000000000
30
0.0
0
VERTEX
5
8da
100
AcDbEntity
8
0-1_J_POINT
6
DOT
62
  3
100
AcDbVertex
100
AcDb2dVertex
10
1061.743000000000
20
2489.595000000000
30
0.0
0
SEQEND
5
8db
100
AcDbEntity
8
0-1_J_POINT
0
LINE
5
8dc
100
AcDbEntity
8
0-1_J_POINT
6
DOT
62
3
100
AcDbLine
10
949.743000000000
20
2389.595000000000
30
0.0
11
949.743000000000
21
2489.595000000000
31
0.0
0
POLYLINE
5
8dd
100
AcDbEntity
8
0-1_J_POINT
6
DOT
62
  3
100
AcDb2dPolyline
66
1
10
0.0
20
0.0
30
0.0
70
0
0
VERTEX
5
8de
100
AcDbEntity
8
0-1_J_POINT
6
DOT
62
  3
100
AcDbVertex
100
AcDb2dVertex
10
949.743000000000
20
2389.595000000000
30
0.0
0
VERTEX
5
8df
100
AcDbEntity
8
0-1_J_POINT
6
DOT
62
  3
100
AcDbVertex
100
AcDb2dVertex
10
936.743000000000
20
2389.595000000000
30
0.0
0
VERTEX
5
8e0
100
AcDbEntity
8
0-1_J_POINT
6
DOT
62
  3
100
AcDbVertex
100
AcDb2dVertex
10
936.743000000000
20
2489.595000000000
30
0.0
0
SEQEND
5
8e1
100
AcDbEntity
8
0-1_J_POINT
0
LINE
5
8e2
100
AcDbEntity
8
0-1_J_POINT
6
DOT
62
3
100
AcDbLine
10
958.243000000000
20
2489.595000000000
30
0.0
11
928.243000000000
21
2489.595000000000
31
0.0
0
LINE
5
8e3
100
AcDbEntity
8
0-1_J_POINT
6
DOT
62
3
100
AcDbLine
10
1083.243000000000
20
2489.595000000000
30
0.0
11
1053.243000000000
21
2489.595000000000
31
0.0
0
LINE
5
8e4
100
AcDbEntity
8
0-8寸法
6
CONTINUOUS
62
4
100
AcDbLine
10
2771.675000000000
20
1210.135000000000
30
0.0
11
2771.675000000000
21
1360.135000000000
31
0.0
0
LINE
5
8e5
100
AcDbEntity
8
0-8寸法
6
CONTINUOUS
62
4
100
AcDbLine
10
2581.675000000000
20
1210.135000000000
30
0.0
11
2781.675000000000
21
1210.135000000000
31
0.0
0
LINE
5
8e6
100
AcDbEntity
8
0-8寸法
6
CONTINUOUS
62
4
100
AcDbLine
10
2771.675000000000
20
1210.135000000000
30
0.0
11
2766.499000000000
21
1229.454000000000
31
0.0
0
LINE
5
8e7
100
AcDbEntity
8
0-8寸法
6
CONTINUOUS
62
4
100
AcDbLine
10
2771.675000000000
20
1210.135000000000
30
0.0
11
2776.852000000000
21
1229.454000000000
31
0.0
0
LINE
5
8e8
100
AcDbEntity
8
0-8寸法
6
CONTINUOUS
62
4
100
AcDbLine
10
2771.675000000000
20
1360.135000000000
30
0.0
11
2766.499000000000
21
1340.817000000000
31
0.0
0
LINE
5
8e9
100
AcDbEntity
8
0-8寸法
6
CONTINUOUS
62
4
100
AcDbLine
10
2771.675000000000
20
1360.135000000000
30
0.0
11
2776.852000000000
21
1340.817000000000
31
0.0
0
LINE
5
8ea
100
AcDbEntity
8
0-8寸法
6
CONTINUOUS
62
4
100
AcDbLine
10
2387.675000000000
20
1360.135000000000
30
0.0
11
2781.675000000000
21
1360.135000000000
31
0.0
0
TEXT
5
8eb
100
AcDbEntity
8
0-8寸法
62
7
370
-3
100
AcDbText
10
2757.628
20
1254.289
30
0.0
40
33.660
1
150
41
0.710
50
90.000
100
AcDbText
0
LINE
5
8ec
100
AcDbEntity
8
0-8寸法
6
CONTINUOUS
62
4
100
AcDbLine
10
2861.675000000000
20
710.135000000000
30
0.0
11
2861.675000000000
21
860.135000000000
31
0.0
0
LINE
5
8ed
100
AcDbEntity
8
0-8寸法
6
CONTINUOUS
62
4
100
AcDbLine
10
2581.675000000000
20
860.135000000000
30
0.0
11
2871.675000000000
21
860.135000000000
31
0.0
0
LINE
5
8ee
100
AcDbEntity
8
0-8寸法
6
CONTINUOUS
62
4
100
AcDbLine
10
2861.675000000000
20
710.135000000000
30
0.0
11
2856.499000000000
21
729.453000000000
31
0.0
0
LINE
5
8ef
100
AcDbEntity
8
0-8寸法
6
CONTINUOUS
62
4
100
AcDbLine
10
2861.675000000000
20
710.135000000000
30
0.0
11
2866.852000000000
21
729.453000000000
31
0.0
0
LINE
5
8f0
100
AcDbEntity
8
0-8寸法
6
CONTINUOUS
62
4
100
AcDbLine
10
2861.675000000000
20
860.135000000000
30
0.0
11
2856.499000000000
21
840.816000000000
31
0.0
0
LINE
5
8f1
100
AcDbEntity
8
0-8寸法
6
CONTINUOUS
62
4
100
AcDbLine
10
2861.675000000000
20
860.135000000000
30
0.0
11
2866.852000000000
21
840.816000000000
31
0.0
0
LINE
5
8f2
100
AcDbEntity
8
0-8寸法
6
CONTINUOUS
62
4
100
AcDbLine
10
2861.675000000000
20
860.135000000000
30
0.0
11
2861.675000000000
21
1210.135000000000
31
0.0
0
LINE
5
8f3
100
AcDbEntity
8
0-8寸法
6
CONTINUOUS
62
4
100
AcDbLine
10
2581.675000000000
20
1210.135000000000
30
0.0
11
2871.675000000000
21
1210.135000000000
31
0.0
0
LINE
5
8f4
100
AcDbEntity
8
0-8寸法
6
CONTINUOUS
62
4
100
AcDbLine
10
2861.675000000000
20
860.135000000000
30
0.0
11
2856.499000000000
21
879.453000000000
31
0.0
0
LINE
5
8f5
100
AcDbEntity
8
0-8寸法
6
CONTINUOUS
62
4
100
AcDbLine
10
2861.675000000000
20
860.135000000000
30
0.0
11
2866.852000000000
21
879.453000000000
31
0.0
0
LINE
5
8f6
100
AcDbEntity
8
0-8寸法
6
CONTINUOUS
62
4
100
AcDbLine
10
2861.675000000000
20
1210.135000000000
30
0.0
11
2856.499000000000
21
1190.817000000000
31
0.0
0
LINE
5
8f7
100
AcDbEntity
8
0-8寸法
6
CONTINUOUS
62
4
100
AcDbLine
10
2861.675000000000
20
1210.135000000000
30
0.0
11
2866.852000000000
21
1190.817000000000
31
0.0
0
LINE
5
8f8
100
AcDbEntity
8
0-8寸法
6
CONTINUOUS
62
4
100
AcDbLine
10
2861.675000000000
20
1210.135000000000
30
0.0
11
2861.675000000000
21
1410.135000000000
31
0.0
0
LINE
5
8f9
100
AcDbEntity
8
0-8寸法
6
CONTINUOUS
62
4
100
AcDbLine
10
2861.675000000000
20
1210.135000000000
30
0.0
11
2856.499000000000
21
1229.454000000000
31
0.0
0
LINE
5
8fa
100
AcDbEntity
8
0-8寸法
6
CONTINUOUS
62
4
100
AcDbLine
10
2861.675000000000
20
1210.135000000000
30
0.0
11
2866.852000000000
21
1229.454000000000
31
0.0
0
LINE
5
8fb
100
AcDbEntity
8
0-8寸法
6
CONTINUOUS
62
4
100
AcDbLine
10
2861.675000000000
20
1410.135000000000
30
0.0
11
2856.499000000000
21
1390.817000000000
31
0.0
0
LINE
5
8fc
100
AcDbEntity
8
0-8寸法
6
CONTINUOUS
62
4
100
AcDbLine
10
2861.675000000000
20
1410.135000000000
30
0.0
11
2866.852000000000
21
1390.817000000000
31
0.0
0
LINE
5
8fd
100
AcDbEntity
8
0-8寸法
6
CONTINUOUS
62
4
100
AcDbLine
10
2506.675000000000
20
1410.135000000000
30
0.0
11
2871.675000000000
21
1410.135000000000
31
0.0
0
LINE
5
8fe
100
AcDbEntity
8
0-8寸法
6
CONTINUOUS
62
4
100
AcDbLine
10
2506.675000000000
20
710.135000000000
30
0.0
11
2871.675000000000
21
710.135000000000
31
0.0
0
TEXT
5
8ff
100
AcDbEntity
8
0-8寸法
62
7
370
-3
100
AcDbText
10
2847.628
20
754.289
30
0.0
40
33.660
1
150
41
0.710
50
90.000
100
AcDbText
0
TEXT
5
900
100
AcDbEntity
8
0-8寸法
62
7
370
-3
100
AcDbText
10
2847.628
20
1279.289
30
0.0
40
33.660
1
200
41
0.629
50
90.000
100
AcDbText
0
MTEXT
5
901
100
AcDbEntity
8
0-8寸法
62
7
370
-3
100
AcDbMText
10
2851.368
20
925.665
30
0.0
40
31.790
41
0.000
71
7
72
1
1
\W1.093;有効高{\W0.787; 350}
7
STANDARD
11
0.00000
21
1.00000
31
0.0
0
LINE
5
902
100
AcDbEntity
8
0-8寸法
6
CONTINUOUS
62
4
100
AcDbLine
10
2681.675000000000
20
1285.135000000000
30
0.0
11
2681.675000000000
21
1210.135000000000
31
0.0
0
LINE
5
903
100
AcDbEntity
8
0-8寸法
6
CONTINUOUS
62
4
100
AcDbLine
10
2681.675000000000
20
1285.135000000000
30
0.0
11
2686.851380902051
21
1265.816483474219
31
0.0
0
LINE
5
904
100
AcDbEntity
8
0-8寸法
6
CONTINUOUS
62
4
100
AcDbLine
10
2681.675000000000
20
1285.135000000000
30
0.0
11
2676.498619097950
21
1265.816483474219
31
0.0
0
LINE
5
905
100
AcDbEntity
8
0-8寸法
6
CONTINUOUS
62
4
100
AcDbLine
10
2681.675000000000
20
1210.135000000000
30
0.0
11
2676.498619097950
21
1229.453516525781
31
0.0
0
LINE
5
906
100
AcDbEntity
8
0-8寸法
6
CONTINUOUS
62
4
100
AcDbLine
10
2681.675000000000
20
1210.135000000000
30
0.0
11
2686.851380902051
21
1229.453516525781
31
0.0
0
LINE
5
907
100
AcDbEntity
8
0-8寸法
6
CONTINUOUS
62
4
100
AcDbLine
10
2691.675000000000
20
1285.135000000000
30
0.0
11
2563.134000000000
21
1285.135000000000
31
0.0
0
LINE
5
908
100
AcDbEntity
8
0-8寸法
6
CONTINUOUS
62
4
100
AcDbLine
10
2691.675000000000
20
1210.135000000000
30
0.0
11
2581.675000000000
21
1210.135000000000
31
0.0
0
TEXT
5
909
100
AcDbEntity
8
0-8寸法
62
7
370
-3
100
AcDbText
10
2665.535
20
1227.985
30
0.0
40
33.660
41
0.586
50
90.000
1
75
72
1
11
2669.275
21
1250.485
31
0.0
100
AcDbText
73
1
0
LINE
5
90a
100
AcDbEntity
8
0-8寸法
6
CONTINUOUS
62
4
100
AcDbLine
10
2681.675000000000
20
860.135000000000
30
0.0
11
2681.675000000000
21
785.135000000000
31
0.0
0
LINE
5
90b
100
AcDbEntity
8
0-8寸法
6
CONTINUOUS
62
4
100
AcDbLine
10
2681.675000000000
20
860.135000000000
30
0.0
11
2686.851380902051
21
840.816483474219
31
0.0
0
LINE
5
90c
100
AcDbEntity
8
0-8寸法
6
CONTINUOUS
62
4
100
AcDbLine
10
2681.675000000000
20
860.135000000000
30
0.0
11
2676.498619097950
21
840.816483474219
31
0.0
0
LINE
5
90d
100
AcDbEntity
8
0-8寸法
6
CONTINUOUS
62
4
100
AcDbLine
10
2681.675000000000
20
785.135000000000
30
0.0
11
2676.498619097950
21
804.453516525781
31
0.0
0
LINE
5
90e
100
AcDbEntity
8
0-8寸法
6
CONTINUOUS
62
4
100
AcDbLine
10
2681.675000000000
20
785.135000000000
30
0.0
11
2686.851380902051
21
804.453516525781
31
0.0
0
LINE
5
90f
100
AcDbEntity
8
0-8寸法
6
CONTINUOUS
62
4
100
AcDbLine
10
2691.675000000000
20
860.135000000000
30
0.0
11
2591.675000000000
21
860.135000000000
31
0.0
0
LINE
5
910
100
AcDbEntity
8
0-8寸法
6
CONTINUOUS
62
4
100
AcDbLine
10
2691.675000000000
20
785.135000000000
30
0.0
11
2563.134000000000
21
785.135000000000
31
0.0
0
TEXT
5
911
100
AcDbEntity
8
0-8寸法
62
7
370
-3
100
AcDbText
10
2665.535
20
802.985
30
0.0
40
33.660
41
0.586
50
90.000
1
75
72
1
11
2669.275
21
825.485
31
0.0
100
AcDbText
73
1
0
LINE
5
912
100
AcDbEntity
8
0-8寸法
6
CONTINUOUS
62
4
100
AcDbLine
10
1018.243000000000
20
2654.595000000000
30
0.0
11
1368.243000000000
21
2654.595000000000
31
0.0
0
LINE
5
913
100
AcDbEntity
8
0-8寸法
6
CONTINUOUS
62
4
100
AcDbLine
10
1018.243000000000
20
2524.595000000000
30
0.0
11
1018.243000000000
21
2664.595000000000
31
0.0
0
LINE
5
914
100
AcDbEntity
8
0-8寸法
6
CONTINUOUS
62
4
100
AcDbLine
10
1368.243000000000
20
2524.595000000000
30
0.0
11
1368.243000000000
21
2664.595000000000
31
0.0
0
LINE
5
915
100
AcDbEntity
8
0-8寸法
6
CONTINUOUS
62
4
100
AcDbLine
10
1018.243000000000
20
2654.595000000000
30
0.0
11
1037.562000000000
21
2659.771000000000
31
0.0
0
LINE
5
916
100
AcDbEntity
8
0-8寸法
6
CONTINUOUS
62
4
100
AcDbLine
10
1018.243000000000
20
2654.595000000000
30
0.0
11
1037.562000000000
21
2649.418000000000
31
0.0
0
LINE
5
917
100
AcDbEntity
8
0-8寸法
6
CONTINUOUS
62
4
100
AcDbLine
10
1368.243000000000
20
2654.595000000000
30
0.0
11
1348.925000000000
21
2659.771000000000
31
0.0
0
LINE
5
918
100
AcDbEntity
8
0-8寸法
6
CONTINUOUS
62
4
100
AcDbLine
10
1368.243000000000
20
2654.595000000000
30
0.0
11
1348.925000000000
21
2649.418000000000
31
0.0
0
LINE
5
919
100
AcDbEntity
8
0-8寸法
6
CONTINUOUS
62
4
100
AcDbLine
10
1368.243000000000
20
2654.595000000000
30
0.0
11
1518.243000000000
21
2654.595000000000
31
0.0
0
LINE
5
91a
100
AcDbEntity
8
0-8寸法
6
CONTINUOUS
62
4
100
AcDbLine
10
1368.243000000000
20
2654.595000000000
30
0.0
11
1387.562000000000
21
2659.771000000000
31
0.0
0
LINE
5
91b
100
AcDbEntity
8
0-8寸法
6
CONTINUOUS
62
4
100
AcDbLine
10
1368.243000000000
20
2654.595000000000
30
0.0
11
1387.562000000000
21
2649.418000000000
31
0.0
0
LINE
5
91c
100
AcDbEntity
8
0-8寸法
6
CONTINUOUS
62
4
100
AcDbLine
10
1518.243000000000
20
2654.595000000000
30
0.0
11
1498.925000000000
21
2659.771000000000
31
0.0
0
LINE
5
91d
100
AcDbEntity
8
0-8寸法
6
CONTINUOUS
62
4
100
AcDbLine
10
1518.243000000000
20
2654.595000000000
30
0.0
11
1498.925000000000
21
2649.418000000000
31
0.0
0
LINE
5
91e
100
AcDbEntity
8
0-8寸法
6
CONTINUOUS
62
4
100
AcDbLine
10
1518.243000000000
20
2449.595000000000
30
0.0
11
1518.243000000000
21
2664.595000000000
31
0.0
0
TEXT
5
91f
100
AcDbEntity
8
0-8寸法
62
7
370
-3
100
AcDbText
10
1412.397
20
2668.642
30
0.0
40
33.660
1
150
41
0.710
50
0.000
100
AcDbText
0
MTEXT
5
920
100
AcDbEntity
8
0-8寸法
62
7
370
-3
100
AcDbMText
10
1083.773
20
2664.902
30
0.0
40
31.790
41
0.000
71
7
72
1
1
\W1.093;有効幅{\W0.787; 350}
7
STANDARD
11
1.00000
21
0.00000
31
0.0
0
LINE
5
921
100
AcDbEntity
8
0-8寸法
6
CONTINUOUS
62
4
100
AcDbLine
10
1018.243000000000
20
2654.595000000000
30
0.0
11
868.243000000000
21
2654.595000000000
31
0.0
0
LINE
5
922
100
AcDbEntity
8
0-8寸法
6
CONTINUOUS
62
4
100
AcDbLine
10
1018.243000000000
20
2654.595000000000
30
0.0
11
998.924483474219
21
2649.418619097950
31
0.0
0
LINE
5
923
100
AcDbEntity
8
0-8寸法
6
CONTINUOUS
62
4
100
AcDbLine
10
1018.243000000000
20
2654.595000000000
30
0.0
11
998.924483474219
21
2659.771380902051
31
0.0
0
LINE
5
924
100
AcDbEntity
8
0-8寸法
6
CONTINUOUS
62
4
100
AcDbLine
10
868.243000000000
20
2654.595000000000
30
0.0
11
887.561516525782
21
2659.771380902051
31
0.0
0
LINE
5
925
100
AcDbEntity
8
0-8寸法
6
CONTINUOUS
62
4
100
AcDbLine
10
868.243000000000
20
2654.595000000000
30
0.0
11
887.561516525782
21
2649.418619097950
31
0.0
0
LINE
5
926
100
AcDbEntity
8
0-8寸法
6
CONTINUOUS
62
4
100
AcDbLine
10
1018.243000000000
20
2664.595000000000
30
0.0
11
1018.243000000000
21
2524.595000000000
31
0.0
0
LINE
5
927
100
AcDbEntity
8
0-8寸法
6
CONTINUOUS
62
4
100
AcDbLine
10
868.243000000000
20
2664.595000000000
30
0.0
11
868.243000000000
21
2449.595000000000
31
0.0
0
TEXT
5
928
100
AcDbEntity
8
0-8寸法
62
7
370
-3
100
AcDbText
10
912.343
20
2670.735
30
0.0
40
33.660
41
0.710
50
0.000
1
150
72
1
11
946.093
21
2666.995
31
0.0
100
AcDbText
73
1
0
LINE
5
929
100
AcDbEntity
8
0-8寸法
6
CONTINUOUS
62
4
100
AcDbLine
10
1443.243000000000
20
2569.595000000000
30
0.0
11
1368.243000000000
21
2569.595000000000
31
0.0
0
LINE
5
92a
100
AcDbEntity
8
0-8寸法
6
CONTINUOUS
62
4
100
AcDbLine
10
1443.243000000000
20
2569.595000000000
30
0.0
11
1423.924483474219
21
2564.418619097950
31
0.0
0
LINE
5
92b
100
AcDbEntity
8
0-8寸法
6
CONTINUOUS
62
4
100
AcDbLine
10
1443.243000000000
20
2569.595000000000
30
0.0
11
1423.924483474219
21
2574.771380902051
31
0.0
0
LINE
5
92c
100
AcDbEntity
8
0-8寸法
6
CONTINUOUS
62
4
100
AcDbLine
10
1368.243000000000
20
2569.595000000000
30
0.0
11
1387.561516525781
21
2574.771380902051
31
0.0
0
LINE
5
92d
100
AcDbEntity
8
0-8寸法
6
CONTINUOUS
62
4
100
AcDbLine
10
1368.243000000000
20
2569.595000000000
30
0.0
11
1387.561516525781
21
2564.418619097950
31
0.0
0
LINE
5
92e
100
AcDbEntity
8
0-8寸法
6
CONTINUOUS
62
4
100
AcDbLine
10
1443.243000000000
20
2579.595000000000
30
0.0
11
1443.243000000000
21
2506.054000000000
31
0.0
0
LINE
5
92f
100
AcDbEntity
8
0-8寸法
6
CONTINUOUS
62
4
100
AcDbLine
10
1368.243000000000
20
2579.595000000000
30
0.0
11
1368.243000000000
21
2524.595000000000
31
0.0
0
TEXT
5
930
100
AcDbEntity
8
0-8寸法
62
7
370
-3
100
AcDbText
10
1386.093
20
2585.735
30
0.0
40
33.660
41
0.586
50
0.000
1
75
72
1
11
1408.593
21
2581.995
31
0.0
100
AcDbText
73
1
0
LINE
5
931
100
AcDbEntity
8
0-8寸法
6
CONTINUOUS
62
4
100
AcDbLine
10
1068.243000000000
20
750.135000000000
30
0.0
11
1068.243000000000
21
525.135000000000
31
0.0
0
LINE
5
932
100
AcDbEntity
8
0-8寸法
6
CONTINUOUS
62
4
100
AcDbLine
10
1318.243000000000
20
750.135000000000
30
0.0
11
1318.243000000000
21
525.135000000000
31
0.0
0
LINE
5
933
100
AcDbEntity
8
0-8寸法
6
CONTINUOUS
62
4
100
AcDbLine
10
723.243000000000
20
910.135000000000
30
0.0
11
723.243000000000
21
1160.135000000000
31
0.0
0
LINE
5
934
100
AcDbEntity
8
0-8寸法
6
CONTINUOUS
62
4
100
AcDbLine
10
723.243000000000
20
910.135000000000
30
0.0
11
718.067000000000
21
929.454000000000
31
0.0
0
LINE
5
935
100
AcDbEntity
8
0-8寸法
6
CONTINUOUS
62
4
100
AcDbLine
10
723.243000000000
20
910.135000000000
30
0.0
11
728.420000000000
21
929.454000000000
31
0.0
0
LINE
5
936
100
AcDbEntity
8
0-8寸法
6
CONTINUOUS
62
4
100
AcDbLine
10
723.243000000000
20
1160.135000000000
30
0.0
11
718.067000000000
21
1140.817000000000
31
0.0
0
LINE
5
937
100
AcDbEntity
8
0-8寸法
6
CONTINUOUS
62
4
100
AcDbLine
10
723.243000000000
20
1160.135000000000
30
0.0
11
728.420000000000
21
1140.817000000000
31
0.0
0
LINE
5
938
100
AcDbEntity
8
0-8寸法
6
CONTINUOUS
62
4
100
AcDbLine
10
623.243000000000
20
820.135000000000
30
0.0
11
623.243000000000
21
1250.135000000000
31
0.0
0
LINE
5
939
100
AcDbEntity
8
0-8寸法
6
CONTINUOUS
62
4
100
AcDbLine
10
958.243000000000
20
820.135000000000
30
0.0
11
613.243000000000
21
820.135000000000
31
0.0
0
LINE
5
93a
100
AcDbEntity
8
0-8寸法
6
CONTINUOUS
62
4
100
AcDbLine
10
958.243000000000
20
1250.135000000000
30
0.0
11
613.243000000000
21
1250.135000000000
31
0.0
0
LINE
5
93b
100
AcDbEntity
8
0-8寸法
6
CONTINUOUS
62
4
100
AcDbLine
10
623.243000000000
20
820.135000000000
30
0.0
11
618.067000000000
21
839.454000000000
31
0.0
0
LINE
5
93c
100
AcDbEntity
8
0-8寸法
6
CONTINUOUS
62
4
100
AcDbLine
10
623.243000000000
20
820.135000000000
30
0.0
11
628.420000000000
21
839.454000000000
31
0.0
0
LINE
5
93d
100
AcDbEntity
8
0-8寸法
6
CONTINUOUS
62
4
100
AcDbLine
10
623.243000000000
20
1250.135000000000
30
0.0
11
618.067000000000
21
1230.817000000000
31
0.0
0
LINE
5
93e
100
AcDbEntity
8
0-8寸法
6
CONTINUOUS
62
4
100
AcDbLine
10
623.243000000000
20
1250.135000000000
30
0.0
11
628.420000000000
21
1230.817000000000
31
0.0
0
TEXT
5
93f
100
AcDbEntity
8
0-8寸法
62
7
370
-3
100
AcDbText
10
769.196
20
1004.289
30
0.0
40
33.660
1
250
41
0.586
50
90.000
100
AcDbText
0
TEXT
5
940
100
AcDbEntity
8
0-8寸法
62
7
370
-3
100
AcDbText
10
709.196
20
926.915
30
0.0
40
33.660
1
挿筋ピッチ
41
0.963
50
90.000
100
AcDbText
0
MTEXT
5
941
100
AcDbEntity
8
0-8寸法
62
7
370
-3
100
AcDbMText
10
612.936
20
925.665
30
0.0
40
31.790
41
0.000
71
7
72
1
1
\W1.093;扉体高{\W0.787; 430}
7
STANDARD
11
0.00000
21
1.00000
31
0.0
0
LINE
5
942
100
AcDbEntity
8
0-8寸法
6
CONTINUOUS
62
4
100
AcDbLine
10
908.243000000000
20
1160.135000000000
30
0.0
11
713.243000000000
21
1160.135000000000
31
0.0
0
LINE
5
943
100
AcDbEntity
8
0-8寸法
6
CONTINUOUS
62
4
100
AcDbLine
10
908.243000000000
20
910.135000000000
30
0.0
11
713.243000000000
21
910.135000000000
31
0.0
0
POLYLINE
5
944
100
AcDbEntity
8
0-3RC
6
DOT
62
  7
100
AcDb2dPolyline
66
1
10
0.0
20
0.0
30
0.0
70
0
0
VERTEX
5
945
100
AcDbEntity
8
0-3RC
6
DOT
62
  7
100
AcDbVertex
100
AcDb2dVertex
10
868.243000000000
20
2314.595000000000
30
0.0
0
VERTEX
5
946
100
AcDbEntity
8
0-3RC
6
DOT
62
  7
100
AcDbVertex
100
AcDb2dVertex
10
868.243000000000
20
2439.595000000000
30
0.0
0
VERTEX
5
947
100
AcDbEntity
8
0-3RC
6
DOT
62
  7
100
AcDbVertex
100
AcDb2dVertex
10
936.743000000000
20
2439.595000000000
30
0.0
0
SEQEND
5
948
100
AcDbEntity
8
0-3RC
0
POLYLINE
5
949
100
AcDbEntity
8
0-8寸法
6
CONTINUOUS
62
  4
100
AcDb2dPolyline
66
1
10
0.0
20
0.0
30
0.0
70
0
0
VERTEX
5
94a
100
AcDbEntity
8
0-8寸法
6
CONTINUOUS
62
  4
100
AcDbVertex
100
AcDb2dVertex
10
2271.675000000000
20
410.135000000000
30
0.0
0
VERTEX
5
94b
100
AcDbEntity
8
0-8寸法
6
CONTINUOUS
62
  4
100
AcDbVertex
100
AcDb2dVertex
10
2453.463648834019
20
778.565672153635
30
0.0
0
VERTEX
5
94c
100
AcDbEntity
8
0-8寸法
6
CONTINUOUS
62
  4
100
AcDbVertex
100
AcDb2dVertex
10
2449.557613927628
20
758.950808113575
30
0.0
0
SEQEND
5
94d
100
AcDbEntity
8
0-8寸法
0
LINE
5
94e
100
AcDbEntity
8
0-8寸法
6
CONTINUOUS
62
4
100
AcDbLine
10
2453.463648834019
20
778.565672153635
30
0.0
11
2440.273491356986
21
763.531719056361
31
0.0
0
LINE
5
94f
100
AcDbEntity
8
0-8寸法
6
CONTINUOUS
62
4
100
AcDbLine
10
1551.259000000000
20
1560.135000000000
30
0.0
11
2214.550264550265
21
1560.135000000000
31
0.0
0
LINE
5
950
100
AcDbEntity
8
0-8寸法
6
CONTINUOUS
62
4
100
AcDbLine
10
1551.259000000000
20
1660.135000000000
30
0.0
11
2214.550264550265
21
1660.135000000000
31
0.0
0
LINE
5
951
100
AcDbEntity
8
0-8寸法
6
CONTINUOUS
62
4
100
AcDbLine
10
913.243000000000
20
1560.135000000000
30
0.0
11
1069.234000000000
21
1337.116000000000
31
0.0
0
TEXT
5
952
100
AcDbEntity
8
0-A文字
62
7
370
-3
100
AcDbText
10
1139.843
20
1019.738
30
0.0
40
33.660
41
0.577
50
0.000
1
PL-6t
72
1
11
1194.493
21
1036.098
31
0.0
100
AcDbText
73
2
0
LINE
5
953
100
AcDbEntity
8
F-F_J_ADD
6
HIDDEN
62
109
100
AcDbLine
10
0.000000000000
20
2970.000000000000
30
0.0
11
4200.001000000000
21
2970.000000000000
31
0.0
0
LINE
5
954
100
AcDbEntity
8
F-F_J_ADD
6
HIDDEN
62
109
100
AcDbLine
10
4200.001000000000
20
2970.000000000000
30
0.0
11
4200.001000000000
21
0.000000000000
31
0.0
0
LINE
5
955
100
AcDbEntity
8
F-F_J_ADD
6
HIDDEN
62
109
100
AcDbLine
10
0.000000000000
20
0.000000000000
30
0.0
11
4200.001000000000
21
0.000000000000
31
0.0
0
LINE
5
956
100
AcDbEntity
8
F-F_J_ADD
6
HIDDEN
62
109
100
AcDbLine
10
0.000000000000
20
2970.000000000000
30
0.0
11
0.000000000000
21
0.000000000000
31
0.0
0
LINE
5
957
100
AcDbEntity
8
F-F_J_ADD
6
HIDDEN
62
109
100
AcDbLine
10
3200.001000000000
20
2805.000000000000
30
0.0
11
3650.001000000000
21
2805.000000000000
31
0.0
0
LINE
5
958
100
AcDbEntity
8
F-F_J_ADD
6
HIDDEN
62
109
100
AcDbLine
10
3090.001000000000
20
2805.000000000000
30
0.0
11
3200.001000000000
21
2805.000000000000
31
0.0
0
LINE
5
959
100
AcDbEntity
8
F-F_J_ADD
6
HIDDEN
62
109
100
AcDbLine
10
3650.001000000000
20
2805.000000000000
30
0.0
11
3850.001000000000
21
2805.000000000000
31
0.0
0
LINE
5
95a
100
AcDbEntity
8
F-F_J_ADD
6
HIDDEN
62
109
100
AcDbLine
10
3850.001000000000
20
2805.000000000000
30
0.0
11
4050.001000000000
21
2805.000000000000
31
0.0
0
LINE
5
95b
100
AcDbEntity
8
F-F_J_ADD
6
HIDDEN
62
109
100
AcDbLine
10
3145.001000000000
20
2840.000000000000
30
0.0
11
3145.001000000000
21
2770.000000000000
31
0.0
0
LINE
5
95c
100
AcDbEntity
8
F-F_J_ADD
6
HIDDEN
62
109
100
AcDbLine
10
3425.001000000000
20
2770.000000000000
30
0.0
11
3425.001000000000
21
2840.000000000000
31
0.0
0
LINE
5
95d
100
AcDbEntity
8
F-F_J_ADD
6
HIDDEN
62
109
100
AcDbLine
10
3750.001000000000
20
2770.000000000000
30
0.0
11
3750.001000000000
21
2840.000000000000
31
0.0
0
LINE
5
95e
100
AcDbEntity
8
F-F_J_ADD
6
HIDDEN
62
109
100
AcDbLine
10
3950.001000000000
20
2770.000000000000
30
0.0
11
3950.001000000000
21
2840.000000000000
31
0.0
0
MTEXT
5
95f
100
AcDbEntity
8
0-8寸法
62
7
370
-3
100
AcDbMText
10
1552.859
20
1573.562
30
0.0
40
31.790
41
0.000
71
7
72
1
1
\W1.093;{\W0.787; }六角{\W0.787;BT}＆{\W0.787;NT M12(SUS304}相当{\W0.787;)}
7
STANDARD
11
1.00000
21
0.00000
31
0.0
0
MTEXT
5
960
100
AcDbEntity
8
0-8寸法
62
7
370
-3
100
AcDbMText
10
1568.291
20
1945.442
30
0.0
40
31.790
41
0.000
71
7
72
1
1
\W1.093;皿{\W0.787;BT&NT  M8(SUS304}相当{\W0.787;)}
7
STANDARD
11
1.00000
21
0.00000
31
0.0
0
MTEXT
5
961
100
AcDbEntity
8
0-8寸法
62
7
370
-3
100
AcDbMText
10
1568.399
20
2045.443
30
0.0
40
31.790
41
0.000
71
7
72
1
1
\W1.093;ゴム押え{\W0.787; PL-6t(SUS304)}　
7
STANDARD
11
1.00000
21
0.00000
31
0.0
0
MTEXT
5
962
100
AcDbEntity
8
0-8寸法
62
7
370
-3
100
AcDbMText
10
1574.170
20
1672.416
30
0.0
40
31.790
41
0.000
71
7
72
1
1
\W1.093;吊り金具{\W0.787;   PL-9t(SUS304)}
7
STANDARD
11
1.00000
21
0.00000
31
0.0
0
LINE
5
963
100
AcDbEntity
8
0-8寸法
6
CONTINUOUS
62
4
100
AcDbLine
10
1551.259000000000
20
1660.135000000000
30
0.0
11
1551.259000000000
21
1560.135000000000
31
0.0
0
LINE
5
964
100
AcDbEntity
8
0-9扉体
6
CONTINUOUS
62
4
100
AcDbLine
10
2348.175000000000
20
1324.135000000000
30
0.0
11
2328.175000000000
21
1324.135000000000
31
0.0
0
LINE
5
965
100
AcDbEntity
8
0-9扉体
6
CONTINUOUS
62
4
100
AcDbLine
10
2363.175000000000
20
1309.135000000000
30
0.0
11
2363.175000000000
21
1277.635000000000
31
0.0
0
ARC
5
966
100
AcDbEntity
8
0-9扉体
6
CONTINUOUS
62
4
100
AcDbCircle
10
2348.175000000000
20
1309.135000000000
30
0.0
40
15.000000000000
100
AcDbArc
50
0.000000000000
51
90.000000000000
0
LINE
5
967
100
AcDbEntity
8
0-6戸当り
6
CONTINUOUS
62
6
100
AcDbLine
10
2363.175000000000
20
1284.135000000000
30
0.0
11
2371.675000000000
21
1284.135000000000
31
0.0
0
LINE
5
968
100
AcDbEntity
8
0-6戸当り
6
DOT
62
6
100
AcDbLine
10
2363.175000000000
20
1284.135000000000
30
0.0
11
2326.675000000000
21
1284.135000000000
31
0.0
0
LINE
5
969
100
AcDbEntity
8
0-6戸当り
6
CONTINUOUS
62
6
100
AcDbLine
10
2363.175000000000
20
1292.135000000000
30
0.0
11
2371.675000000000
21
1292.135000000000
31
0.0
0
LINE
5
96a
100
AcDbEntity
8
0-6戸当り
6
DOT
62
6
100
AcDbLine
10
2363.175000000000
20
1292.135000000000
30
0.0
11
2326.675000000000
21
1292.135000000000
31
0.0
0
LINE
5
96b
100
AcDbEntity
8
0-6戸当り
6
CONTINUOUS
62
6
100
AcDbLine
10
2363.141629547096
20
1310.135000000000
30
0.0
11
2371.675000000000
21
1310.135000000000
31
0.0
0
LINE
5
96c
100
AcDbEntity
8
0-6戸当り
6
DOT
62
6
100
AcDbLine
10
2360.175000000000
20
1318.135000000000
30
0.0
11
2326.675000000000
21
1318.135000000000
31
0.0
0
LINE
5
96d
100
AcDbEntity
8
0-6戸当り
6
CONTINUOUS
62
6
100
AcDbLine
10
2360.175000000000
20
1318.135000000000
30
0.0
11
2371.675000000000
21
1318.135000000000
31
0.0
0
ARC
5
96e
100
AcDbEntity
8
0-6戸当り
6
DOT
62
6
100
AcDbCircle
10
2326.675000000000
20
1301.135000000000
30
0.0
40
9.000000000000
100
AcDbArc
50
211.584071907751
51
270.000000000000
0
ARC
5
96f
100
AcDbEntity
8
0-6戸当り
6
DOT
62
6
100
AcDbCircle
10
2326.675000000000
20
1301.135000000000
30
0.0
40
9.000000000000
100
AcDbArc
50
90.000000000000
51
111.810675608753
0
ARC
5
970
100
AcDbEntity
8
0-6戸当り
6
CONTINUOUS
62
3
100
AcDbCircle
10
2326.675000000000
20
1301.135000000000
30
0.0
40
9.000000000000
100
AcDbArc
50
111.810675608753
51
211.584071907750
0
ARC
5
971
100
AcDbEntity
8
0-6戸当り
6
DOT
62
6
100
AcDbCircle
10
2326.675000000000
20
1301.135000000000
30
0.0
40
17.000000000000
100
AcDbArc
50
231.753428937933
51
270.000000000000
0
ARC
5
972
100
AcDbEntity
8
0-6戸当り
6
CONTINUOUS
62
6
100
AcDbCircle
10
2326.675000000000
20
1301.135000000000
30
0.0
40
17.000000000000
100
AcDbArc
50
91.713222513723
51
231.753428937933
0
MTEXT
5
973
100
AcDbEntity
8
0-7図枠
62
7
370
-3
100
AcDbMText
10
3596.602
20
485.257
30
0.0
40
31.790
41
0.000
71
7
72
1
1
\W1.093;型式{\W0.787; MFR-A035035}
7
STANDARD
11
1.00000
21
0.00000
31
0.0
0
TEXT
5
974
100
AcDbEntity
8
0-7図枠
62
7
370
-3
100
AcDbText
10
3596.602
20
434.711
30
0.0
40
33.660
1
350 Bo x 350 Ho
41
0.666
50
0.000
100
AcDbText
0
TEXT
5
975
100
AcDbEntity
8
0-7図枠
62
7
370
-3
100
AcDbText
10
3579.514
20
169.432
30
0.0
40
37.807
1
Ｋ－１１５２
41
0.856
50
0.000
100
AcDbText
0
LINE
5
976
100
AcDbEntity
8
0-A文字
6
CONTINUOUS
62
4
100
AcDbLine
10
3055.001000000000
20
970.000000000000
30
0.0
11
3984.053000000000
21
970.000000000000
31
0.0
0
LINE
5
977
100
AcDbEntity
8
0-A文字
6
CONTINUOUS
62
4
100
AcDbLine
10
3055.001000000000
20
910.000000000000
30
0.0
11
3984.053000000000
21
910.000000000000
31
0.0
0
LINE
5
978
100
AcDbEntity
8
0-A文字
6
CONTINUOUS
62
4
100
AcDbLine
10
3055.001000000000
20
850.000000000000
30
0.0
11
3984.053000000000
21
850.000000000000
31
0.0
0
LINE
5
979
100
AcDbEntity
8
0-A文字
6
CONTINUOUS
62
4
100
AcDbLine
10
3055.001000000000
20
790.000000000000
30
0.0
11
3984.053000000000
21
790.000000000000
31
0.0
0
LINE
5
97a
100
AcDbEntity
8
0-A文字
6
CONTINUOUS
62
4
100
AcDbLine
10
3055.001000000000
20
730.000000000000
30
0.0
11
3984.053000000000
21
730.000000000000
31
0.0
0
TEXT
5
97b
100
AcDbEntity
8
0-A文字
62
7
370
-3
100
AcDbText
10
3071.802
20
979.253
30
0.0
40
29.405
1
注記　１．塗装　ＡＬ部は下地処理後、ポリウレタン樹脂
41
0.856
50
0.000
100
AcDbText
0
LINE
5
97c
100
AcDbEntity
8
0-A文字
6
CONTINUOUS
62
4
100
AcDbLine
10
3055.001000000000
20
670.000000000000
30
0.0
11
3984.053000000000
21
670.000000000000
31
0.0
0
TEXT
5
97d
100
AcDbEntity
8
0-A文字
62
7
370
-3
100
AcDbText
10
3071.802
20
803.365
30
0.0
40
29.405
1
　　　　　但し、ＳＵＳ３０４部は酸洗いと致します。
41
0.856
50
0.000
100
AcDbText
0
TEXT
5
97e
100
AcDbEntity
8
0-A文字
62
7
370
-3
100
AcDbText
10
3071.802
20
683.365
30
0.0
40
29.405
1
　　　　　埋め戻しを示します。
41
0.856
50
0.000
100
AcDbText
0
TEXT
5
97f
100
AcDbEntity
8
0-A文字
62
7
370
-3
100
AcDbText
10
3071.802
20
743.365
30
0.0
40
29.405
1
　　　２．　　　　部は箱抜き後、２次コンクリ－ト
41
0.856
50
0.000
100
AcDbText
0
TEXT
5
980
100
AcDbEntity
8
0-A文字
62
7
370
-3
100
AcDbText
10
3071.802
20
863.365
30
0.0
40
29.405
1
　　　　　と致します。
41
0.856
50
0.000
100
AcDbText
0
POLYLINE
5
981
100
AcDbEntity
8
0-A文字
6
CONTINUOUS
62
  4
100
AcDb2dPolyline
66
1
10
0.0
20
0.0
30
0.0
70
0
0
VERTEX
5
982
100
AcDbEntity
8
0-A文字
6
CONTINUOUS
62
  4
100
AcDbVertex
100
AcDb2dVertex
10
3255.554482821849
20
739.988659782539
30
0.0
0
VERTEX
5
983
100
AcDbEntity
8
0-A文字
6
CONTINUOUS
62
  4
100
AcDbVertex
100
AcDb2dVertex
10
3255.554482821849
20
769.988659782539
30
0.0
0
VERTEX
5
984
100
AcDbEntity
8
0-A文字
6
CONTINUOUS
62
  4
100
AcDbVertex
100
AcDb2dVertex
10
3375.553482821849
20
769.988659782539
30
0.0
0
VERTEX
5
985
100
AcDbEntity
8
0-A文字
6
CONTINUOUS
62
  4
100
AcDbVertex
100
AcDb2dVertex
10
3375.553482821849
20
739.988659782539
30
0.0
0
VERTEX
5
986
100
AcDbEntity
8
0-A文字
6
CONTINUOUS
62
  4
100
AcDbVertex
100
AcDb2dVertex
10
3255.554482821849
20
739.988659782539
30
0.0
0
SEQEND
5
987
100
AcDbEntity
8
0-A文字
0
LINE
5
988
100
AcDbEntity
8
0-A文字
6
CONTINUOUS
62
4
100
AcDbLine
10
3366.321482821849
20
739.988659782539
30
0.0
11
3375.553482821849
21
749.220659782539
31
0.0
0
LINE
5
989
100
AcDbEntity
8
0-A文字
6
CONTINUOUS
62
4
100
AcDbLine
10
3345.107482821849
20
739.988659782539
30
0.0
11
3375.108482821849
21
769.988659782539
31
0.0
0
LINE
5
98a
100
AcDbEntity
8
0-A文字
6
CONTINUOUS
62
4
100
AcDbLine
10
3323.894482821849
20
739.988659782539
30
0.0
11
3353.894482821849
21
769.988659782539
31
0.0
0
LINE
5
98b
100
AcDbEntity
8
0-A文字
6
CONTINUOUS
62
4
100
AcDbLine
10
3302.681482821849
20
739.988659782539
30
0.0
11
3332.681482821849
21
769.988659782539
31
0.0
0
LINE
5
98c
100
AcDbEntity
8
0-A文字
6
CONTINUOUS
62
4
100
AcDbLine
10
3281.468482821849
20
739.988659782539
30
0.0
11
3311.468482821849
21
769.988659782539
31
0.0
0
LINE
5
98d
100
AcDbEntity
8
0-A文字
6
CONTINUOUS
62
4
100
AcDbLine
10
3260.254482821849
20
739.988659782539
30
0.0
11
3290.255482821849
21
769.988659782539
31
0.0
0
LINE
5
98e
100
AcDbEntity
8
0-A文字
6
CONTINUOUS
62
4
100
AcDbLine
10
3255.554482821849
20
756.500659782539
30
0.0
11
3269.041482821849
21
769.988659782539
31
0.0
0
TEXT
5
98f
100
AcDbEntity
8
0-7図枠
62
7
370
-3
100
AcDbText
10
3235.674
20
259.432
30
0.0
40
37.807
1
R5.12.1
41
0.714
50
0.000
100
AcDbText
0
TEXT
5
990
100
AcDbEntity
8
0-7図枠
62
7
370
-3
100
AcDbText
10
3290.266
20
2528.854
30
0.0
40
33.660
41
0.856
50
0.000
1
設　計　条　件
72
1
11
3428.666
21
2542.714
31
0.0
100
AcDbText
73
2
0
TEXT
5
991
100
AcDbEntity
8
0-7図枠
62
7
370
-3
100
AcDbText
10
3035.267
20
2461.354
30
0.0
40
33.660
41
0.856
50
0.000
1
通水断面
72
1
11
3113.667
21
2475.214
31
0.0
100
AcDbText
73
2
0
TEXT
5
992
100
AcDbEntity
8
0-7図枠
62
7
370
-3
100
AcDbText
10
3035.267
20
2401.354
30
0.0
40
33.660
41
0.856
50
0.000
1
扉体寸法
72
1
11
3113.667
21
2415.214
31
0.0
100
AcDbText
73
2
0
TEXT
5
993
100
AcDbEntity
8
0-7図枠
62
7
370
-3
100
AcDbText
10
3035.267
20
2341.354
30
0.0
40
33.660
41
0.856
50
0.000
1
設計水深
72
1
11
3113.667
21
2355.214
31
0.0
100
AcDbText
73
2
0
MTEXT
5
994
100
AcDbEntity
8
0-7図枠
62
7
370
-3
100
AcDbMText
10
3362.766
20
2477.614
30
0.0
40
31.790
41
0.000
71
5
72
1
1
\W0.972;有効幅{\W0.700;   0.35 m}
7
STANDARD
11
1.00000
21
0.00000
31
0.0
0
MTEXT
5
995
100
AcDbEntity
8
0-7図枠
62
7
370
-3
100
AcDbMText
10
3362.766
20
2417.614
30
0.0
40
31.790
41
0.000
71
5
72
1
1
\W0.972;扉体幅{\W0.700;   0.43 m}
7
STANDARD
11
1.00000
21
0.00000
31
0.0
0
MTEXT
5
996
100
AcDbEntity
8
0-7図枠
62
7
370
-3
100
AcDbMText
10
3362.766
20
2357.614
30
0.0
40
31.790
41
0.000
71
5
72
1
1
\W0.972;前水深{\W0.700;   4.20 m}
7
STANDARD
11
1.00000
21
0.00000
31
0.0
0
MTEXT
5
997
100
AcDbEntity
8
0-7図枠
62
7
370
-3
100
AcDbMText
10
3677.766
20
2477.614
30
0.0
40
31.790
41
0.000
71
5
72
1
1
\W0.972;有効高　{\W0.700; 0.35 m}
7
STANDARD
11
1.00000
21
0.00000
31
0.0
0
MTEXT
5
998
100
AcDbEntity
8
0-7図枠
62
7
370
-3
100
AcDbMText
10
3677.766
20
2417.614
30
0.0
40
31.790
41
0.000
71
5
72
1
1
\W0.972;扉体高{\W0.700;   0.43 m}
7
STANDARD
11
1.00000
21
0.00000
31
0.0
0
MTEXT
5
999
100
AcDbEntity
8
0-7図枠
62
7
370
-3
100
AcDbMText
10
3677.766
20
2357.614
30
0.0
40
31.790
41
0.000
71
5
72
1
1
\W0.972;後水深{\W0.700;   0.00 m}
7
STANDARD
11
1.00000
21
0.00000
31
0.0
0
TEXT
5
99a
100
AcDbEntity
8
0-A文字
62
7
370
-3
100
AcDbText
10
3071.802
20
923.365
30
0.0
40
29.405
1
　　　　　塗装とし、色調はグレー（マンセル値Ｎ７）
41
0.856
50
0.000
100
AcDbText
0
TEXT
5
99b
100
AcDbEntity
8
0-8寸法
62
7
370
-3
100
AcDbText
10
319.623
20
1774.182
30
0.0
40
33.660
1
           PL-6t(SUS304)
41
0.753
50
0.000
100
AcDbText
0
MTEXT
5
99c
100
AcDbEntity
8
0-8寸法
62
7
370
-3
100
AcDbMText
10
319.659
20
1870.442
30
0.0
40
31.790
41
0.000
71
7
72
1
1
\W1.093;吊り{\W0.787;ﾌﾞﾗｹｯﾄ PL-8t(SUS304)}
7
STANDARD
11
1.00000
21
0.00000
31
0.0
0
MTEXT
5
99d
100
AcDbEntity
8
0-8寸法
62
7
370
-3
100
AcDbMText
10
319.623
20
1570.442
30
0.0
40
31.790
41
0.000
71
7
72
1
1
\W1.093;補強材{\W0.787;     PL-6t(SS400)}
7
STANDARD
11
1.00000
21
0.00000
31
0.0
0
MTEXT
5
99e
100
AcDbEntity
8
0-8寸法
62
7
370
-3
100
AcDbMText
10
320.305
20
1670.442
30
0.0
40
31.790
41
0.000
71
7
72
1
1
\W1.093;{\W0.787;ｱﾝｶ-ﾎﾞﾙﾄ M12(SUS304}相当{\W0.787;)}
7
STANDARD
11
1.00000
21
0.00000
31
0.0
0
LINE
5
99f
100
AcDbEntity
8
0-8寸法
6
CONTINUOUS
62
4
100
AcDbLine
10
311.248341295116
20
1860.135000000000
30
0.0
11
913.243000000000
21
1860.135000000000
31
0.0
0
LINE
5
9a0
100
AcDbEntity
8
0-8寸法
6
CONTINUOUS
62
4
100
AcDbLine
10
311.248341295116
20
1760.135000000000
30
0.0
11
913.243000000000
21
1760.135000000000
31
0.0
0
LINE
5
9a1
100
AcDbEntity
8
0-8寸法
6
CONTINUOUS
62
4
100
AcDbLine
10
311.248341295116
20
1660.135000000000
30
0.0
11
913.243000000000
21
1660.135000000000
31
0.0
0
LINE
5
9a2
100
AcDbEntity
8
0-8寸法
6
CONTINUOUS
62
4
100
AcDbLine
10
311.248341295116
20
1560.135000000000
30
0.0
11
913.243000000000
21
1560.135000000000
31
0.0
0
LINE
5
9a3
100
AcDbEntity
8
0-8寸法
6
CONTINUOUS
62
4
100
AcDbLine
10
913.243000000000
20
1860.135000000000
30
0.0
11
913.243000000000
21
1560.135000000000
31
0.0
0
ENDSEC
 0
SECTION
  2
OBJECTS
 0
DICTIONARY
  5
C
100
AcDbDictionary
  3
ACAD_GROUP
350
D
  3
ACAD_MLINESTYLE
350
E
 0
DICTIONARY
  5
D
102
{ACAD_REACTORS
102
}
100
AcDbDictionary
 0
DICTIONARY
  5
E
102
{ACAD_REACTORS
102
}
100
AcDbDictionary
  3
STANDARD
350
13
0
MLINESTYLE
  5
13
102
{ACAD_REACTORS
102
}
100
AcDbMlineStyle
  2
STANDARD
 70
    0
3

62
256
51
90.0
52
90.0
71
0
0
ACDBPLACEHOLDER
  5
14
102
{ACAD_REACTORS
102
}
0
ENDSEC
0
EOF
