0
SECTION
2
HEADER
9
$ACADVER
1
AC1015
9
$ACADMAINTVER
 70
6
9
$DWGCODEPAGE
3
ANSI_932
9
$EXTMIN
10
0.000
20
0.000
30
0.0
9
$EXTMAX
10
4200.000
20
2970.000
30
0.0
9
$LIMMIN
10
0.000
20
0.000
9
$LIMMAX
10
4200.000
20
2970.000
9
$DIMSCALE
40
10.000000
9
$LTSCALE
40
10.000
9
$PDMODE
70
0
9
$PDSIZE
40
40.0
9
$HANDSEED
5
61f68
9
$UNITMODE
70
0
9
$VISRETAIN
70
0
9
$PLINEGEN
70
0
9
$PSLTSCALE
70
1
9
$TREEDEPTH
70
3020
9
$CMLSTYLE
2
STANDARD
9
$CMLJUST
70
0
9
$CMLSCALE
40
1.0
9
$PROXYGRAPHICS
70
1
9
$MEASUREMENT
70
0
9
$CELWEIGHT
370
-1
9
$ENDCAPS
280
0
9
$JOINSTYLE
280
0
9
$LWDISPLAY
290
0
9
$INSUNITS
70
0
9
$HYPERLINKBASE
1

9
$STYLESHEET
1

9
$XEDIT
290
1
9
$CEPSNTYPE
380
0
9
$PSTYLEMODE
290
1
9
$FINGERPRINTGUID
2
{5F082321-0195-11D3-BDFB-0060B0CD5109}
9
$VERSIONGUID
2
{12943756-294D-11D3-98C2-0060B087942D}
9
$EXTNAMES
290
1
9
$PSVPSCALE
40
0.0
9
$OLESTARTUP
290
0
0
ENDSEC
0
SECTION
  2
CLASSES
0
ENDSEC
0
SECTION
2
TABLES
0
TABLE
2
VPORT
5
190
100
AcDbSymbolTable
70
2
0
VPORT
5
191
100
AcDbSymbolTableRecord
100
AcDbViewportTableRecord
2
*ACTIVE
70
0
10
0.0
20
0.0
11
1.0
21
1.0
12
2100.000
22
1485.000
13
0.0
23
0.0
14
1.0
24
1.0
15
0.0
25
0.0
16
0.0
26
0.0
36
1.0
17
0.0
27
0.0
37
0.0
40
3043.478
41
2.0
42
50.0
43
0.0
44
0.0
50
0.0
51
0.0
71
0
72
1000
73
1
74
1
75
0
76
0
77
0
78
0
0
ENDTAB
0
TABLE
2
LTYPE
5
1f4
100
AcDbSymbolTable
70
9
0
LTYPE
5
1f5
100
AcDbSymbolTableRecord
100
AcDbLinetypeTableRecord
2
BYBLOCK
70
 64
3

72
 65
73
  0
40
0.0
0
LTYPE
5
1f6
100
AcDbSymbolTableRecord
100
AcDbLinetypeTableRecord
2
BYLAYER
70
 64
3

72
 65
73
  0
40
0.0
0
LTYPE
5
1f7
100
AcDbSymbolTableRecord
100
AcDbLinetypeTableRecord
2
CONTINUOUS
70
64
3
SolidLine
72
65
73
0
40
0.0
0
LTYPE
5
1f8
100
AcDbSymbolTableRecord
100
AcDbLinetypeTableRecord
2
DOT
70
64
3
--  --  --  --  --  --  --  --     
72
65
73
2
40
3.000
49
1.000
74
0
49
-2.000
74
0
0
LTYPE
5
1f9
100
AcDbSymbolTableRecord
100
AcDbLinetypeTableRecord
2
DASHED
70
64
3
----    ----    ----    ----    
72
65
73
2
40
5.000
49
2.000
74
0
49
-3.000
74
0
0
LTYPE
5
1fa
100
AcDbSymbolTableRecord
100
AcDbLinetypeTableRecord
2
DASHED2
70
64
3
------  ------  ------  ------ 
72
65
73
2
40
10.000
49
4.000
74
0
49
-6.000
74
0
0
LTYPE
5
1fb
100
AcDbSymbolTableRecord
100
AcDbLinetypeTableRecord
2
CENTER
70
64
3
----- - ----- - ----- - ----- - 
72
65
73
4
40
10.000
49
6.000
74
0
49
-3.000
74
0
49
1.000
74
0
49
-3.000
74
0
0
LTYPE
5
1fc
100
AcDbSymbolTableRecord
100
AcDbLinetypeTableRecord
2
CENTER2
70
64
3
----------  --  ----------  -- 
72
65
73
4
40
17.000
49
12.000
74
0
49
-5.000
74
0
49
2.000
74
0
49
-5.000
74
0
0
LTYPE
5
1fd
100
AcDbSymbolTableRecord
100
AcDbLinetypeTableRecord
2
PHANTOM
70
64
3
--- - - --- - - --- - - --- - -
72
65
73
6
40
13.000
49
5.000
74
0
49
-3.000
74
0
49
1.000
74
0
49
-3.000
74
0
49
1.000
74
0
49
-3.000
74
0
0
LTYPE
5
1fe
100
AcDbSymbolTableRecord
100
AcDbLinetypeTableRecord
2
PHANTOM2
70
64
3
--------  -  -  --------  -  -
72
65
73
6
40
20.000
49
6.000
74
0
49
-5.000
74
0
49
2.000
74
0
49
-5.000
74
0
49
2.000
74
0
49
-5.000
74
0
0
LTYPE
5
1ff
100
AcDbSymbolTableRecord
100
AcDbLinetypeTableRecord
2
HIDDEN
70
64
3
-   -   -   -   -   -   -   -   
72
65
73
2
40
3.000
49
0.500
74
0
49
-2.500
74
0
0
ENDTAB
0
TABLE
2
STYLE
5
200
100
AcDbSymbolTable
70
1
0
STYLE
5
201
100
AcDbSymbolTableRecord
100
AcDbTextStyleTableRecord
2
STANDARD
70
0
40
0.0
41
1.0
50
0.0
71
0
42
0.0
3
txt.shx
4
extfont.shx
0
STYLE
5
202
100
AcDbSymbolTableRecord
100
AcDbTextStyleTableRecord
2
TATEGAKI
70
4
40
0.0
41
1.0
50
0.0
71
0
42
0.0
3
txt.shx
4
extfont.shx
0
STYLE
5
203
100
AcDbSymbolTableRecord
100
AcDbTextStyleTableRecord
2
DIM
70
0
40
0.0
41
0.75
50
0.0
71
0
42
0.0
3
txt.shx
4
extfont.shx
0
STYLE
5
204
100
AcDbSymbolTableRecord
100
AcDbTextStyleTableRecord
2
_Gothic_
70
0
40
1.0
41
1.0
50
0.0
71
0
42
10.0
3

4

1001
ACAD
1000
MS Gothic
1071
32817
0
STYLE
5
205
100
AcDbSymbolTableRecord
100
AcDbTextStyleTableRecord
2
_TateGothic_
70
4
40
0.0
41
1.0
50
0.0
71
0
42
0.0
3
@MS Gothic
4

0
ENDTAB
0
TABLE
2
VIEW
5
206
100
AcDbSymbolTable
70
0
0
ENDTAB
0
TABLE
2
UCS
5
207
100
AcDbSymbolTable
70
0
0
ENDTAB
0
TABLE
2
APPID
5
208
100
AcDbSymbolTable
70
1
0
APPID
5
209
100
AcDbSymbolTableRecord
100
AcDbRegAppTableRecord
2
ACAD
70
0
0
ENDTAB
0
TABLE
2
DIMSTYLE
5
403
330
0
100
AcDbSymbolTable
70
1
100
AcDbDimStyleTable
71
0
0
DIMSTYLE
105
404
330
402
100
AcDbSymbolTableRecord
100
AcDbDimStyleTableRecord
2
JAC_DIM
70
0
41
20.000
42
0.000
44
0.0
73
0
74
0
77
1
78
8
79
2
140
0.000
170
0
171
2
172
0
173
0
174
0
175
0
176
0
177
0
178
0
270
2
271
0
272
0
273
2
274
2
340
201
275
0
280
0
281
0
282
0
283
0
284
0
285
0
286
0
287
3
288
0
0
ENDTAB
0
TABLE
2
BLOCK_RECORD
5
405
100
AcDbSymbolTable
70
0
0
BLOCK_RECORD
5
406
100
AcDbSymbolTableRecord
100
AcDbBlockTableRecord
2
*MODEL_SPACE
0
BLOCK_RECORD
5
407
100
AcDbSymbolTableRecord
100
AcDbBlockTableRecord
2
*PAPER_SPACE
0
BLOCK_RECORD
5
408
100
AcDbSymbolTableRecord
100
AcDbBlockTableRecord
2
_JACCONVERT_
0
ENDTAB
0
TABLE
2
LAYER
5
409
100
AcDbSymbolTable
70
10
0
LAYER
5
40a
100
AcDbSymbolTableRecord
100
AcDbLayerTableRecord
2
0
70
0
62
7
6
CONTINUOUS
370
-3
390
14
0
LAYER
5
40b
100
AcDbSymbolTableRecord
100
AcDbLayerTableRecord
2
0-1_J_POINT
70
0
62
7
6
CONTINUOUS
370
-3
390
14
0
LAYER
5
40c
100
AcDbSymbolTableRecord
100
AcDbLayerTableRecord
2
0-3RC
70
0
62
7
6
CONTINUOUS
370
-3
390
14
0
LAYER
5
40d
100
AcDbSymbolTableRecord
100
AcDbLayerTableRecord
2
0-4陰線
70
0
62
7
6
CONTINUOUS
370
-3
390
14
0
LAYER
5
40e
100
AcDbSymbolTableRecord
100
AcDbLayerTableRecord
2
0-5基準線
70
0
62
7
6
CONTINUOUS
370
-3
390
14
0
LAYER
5
40f
100
AcDbSymbolTableRecord
100
AcDbLayerTableRecord
2
0-6戸当り
70
0
62
7
6
CONTINUOUS
370
-3
390
14
0
LAYER
5
410
100
AcDbSymbolTableRecord
100
AcDbLayerTableRecord
2
0-7図枠
70
0
62
7
6
CONTINUOUS
370
-3
390
14
0
LAYER
5
411
100
AcDbSymbolTableRecord
100
AcDbLayerTableRecord
2
0-8寸法
70
0
62
7
6
CONTINUOUS
370
-3
390
14
0
LAYER
5
412
100
AcDbSymbolTableRecord
100
AcDbLayerTableRecord
2
0-9扉体
70
0
62
7
6
CONTINUOUS
370
-3
390
14
0
LAYER
5
413
100
AcDbSymbolTableRecord
100
AcDbLayerTableRecord
2
0-A文字
70
0
62
7
6
CONTINUOUS
370
-3
390
14
0
LAYER
5
414
100
AcDbSymbolTableRecord
100
AcDbLayerTableRecord
2
F-F_J_ADD
70
0
62
-7
6
CONTINUOUS
290
0
370
-3
390
14
0
ENDTAB
0
ENDSEC
0
SECTION
2
BLOCKS
0
BLOCK
5
415
100
AcDbEntity
67
1
8
0
100
AcDbBlockBegin
2
*MODEL_SPACE
70
0
10
0.0
20
0.0
30
0.0
3
*MODEL_SPACE
1

0
ENDBLK
5
416
100
AcDbEntity
8
0
100
AcDbBlockEnd
0
BLOCK
5
417
100
AcDbEntity
67
1
8
0
100
AcDbBlockBegin
2
*PAPER_SPACE
70
0
10
0.0
20
0.0
30
0.0
3
*PAPER_SPACE
1

0
ENDBLK
5
418
100
AcDbEntity
67
1
8
0
100
AcDbBlockEnd
0
BLOCK
5
419
100
AcDbEntity
8
0
100
AcDbBlockBegin
2
_JACCONVERT_
70
2
10
0.0
20
0.0
30
0.0
3
_JACCONVERT_
1
_JACCONVERT_
0
ATTDEF
5
41a
100
AcDbEntity
8
0
62
0
100
AcDbText
10
0.0
20
0.0
30
0.0
40
1.0
1
User:33307E08109409567083093083089083760830E50960850900C608B4808D6408F6408F4F08E
100
AcDbAttributeDefinition
3

2
USER
70
8
0
ATTDEF
5
41b
100
AcDbEntity
8
0
62
0
100
AcDbText
10
0.0
20
2.0
30
0.0
40
1.0
1
Date:24/01/30 10:44
100
AcDbAttributeDefinition
3

2
REVDATE
70
8
0
ATTDEF
5
41c
100
AcDbEntity
8
0
62
0
100
AcDbText
10
0.0
20
4.0
30
0.0
40
1.0
1
File:_MFR-A0404.dxf
100
AcDbAttributeDefinition
3

2
FNAME
70
8
0
ATTDEF
5
41d
100
AcDbEntity
8
0
62
0
100
AcDbText
10
0.0
20
6.0
30
0.0
40
1.0
1
JacConvert Version3.13p copyright (c) 2001-2021 K.Nakahara
100
AcDbAttributeDefinition
3

2
VER
70
8
0
ENDBLK
5
41e
100
AcDbEntity
67
1
8
0
100
AcDbBlockEnd
0
ENDSEC
0
SECTION
2
ENTITIES
0
TEXT
5
41f
100
AcDbEntity
8
0-7図枠
62
7
370
-3
100
AcDbText
10
3235.674
20
259.432
30
0.0
40
37.807
1
R5.12.1
41
0.714
50
0.000
100
AcDbText
0
LINE
5
420
100
AcDbEntity
8
0-7図枠
6
CONTINUOUS
62
3
100
AcDbLine
10
4050.001000000000
20
2840.000000000000
30
0.0
11
4050.001000000000
21
140.000000000000
31
0.0
0
POLYLINE
5
421
100
AcDbEntity
8
0-4陰線
6
DOT
62
109
100
AcDb2dPolyline
66
1
10
0.0
20
0.0
30
0.0
70
0
0
VERTEX
5
422
100
AcDbEntity
8
0-4陰線
6
DOT
62
109
100
AcDbVertex
100
AcDb2dVertex
10
0.000000000000
20
2970.000000000000
30
0.0
0
VERTEX
5
423
100
AcDbEntity
8
0-4陰線
6
DOT
62
109
100
AcDbVertex
100
AcDb2dVertex
10
4200.001000000000
20
2970.000000000000
30
0.0
0
VERTEX
5
424
100
AcDbEntity
8
0-4陰線
6
DOT
62
109
100
AcDbVertex
100
AcDb2dVertex
10
4200.001000000000
20
0.000000000000
30
0.0
0
SEQEND
5
425
100
AcDbEntity
8
0-4陰線
0
LINE
5
426
100
AcDbEntity
8
0-4陰線
6
DOT
62
109
100
AcDbLine
10
0.000000000000
20
0.000000000000
30
0.0
11
4200.001000000000
21
0.000000000000
31
0.0
0
LINE
5
427
100
AcDbEntity
8
0-4陰線
6
DOT
62
109
100
AcDbLine
10
0.000000000000
20
2970.000000000000
30
0.0
11
0.000000000000
21
0.000000000000
31
0.0
0
LINE
5
428
100
AcDbEntity
8
0-7図枠
6
CONTINUOUS
62
3
100
AcDbLine
10
4050.001000000000
20
140.000000000000
30
0.0
11
200.000000000000
21
140.000000000000
31
0.0
0
POLYLINE
5
429
100
AcDbEntity
8
0-7図枠
6
CONTINUOUS
62
  3
100
AcDb2dPolyline
66
1
10
0.0
20
0.0
30
0.0
70
0
0
VERTEX
5
42a
100
AcDbEntity
8
0-7図枠
6
CONTINUOUS
62
  3
100
AcDbVertex
100
AcDb2dVertex
10
4050.001000000000
20
2840.000000000000
30
0.0
0
VERTEX
5
42b
100
AcDbEntity
8
0-7図枠
6
CONTINUOUS
62
  3
100
AcDbVertex
100
AcDb2dVertex
10
200.000000000000
20
2840.000000000000
30
0.0
0
VERTEX
5
42c
100
AcDbEntity
8
0-7図枠
6
CONTINUOUS
62
  3
100
AcDbVertex
100
AcDb2dVertex
10
200.000000000000
20
140.000000000000
30
0.0
0
SEQEND
5
42d
100
AcDbEntity
8
0-7図枠
0
LINE
5
42e
100
AcDbEntity
8
0-7図枠
6
CONTINUOUS
62
3
100
AcDbLine
10
3105.001000000000
20
2765.000000000000
30
0.0
11
4050.001000000000
21
2765.000000000000
31
0.0
0
LINE
5
42f
100
AcDbEntity
8
0-7図枠
6
CONTINUOUS
62
3
100
AcDbLine
10
3105.001000000000
20
2840.000000000000
30
0.0
11
3105.001000000000
21
2765.000000000000
31
0.0
0
LINE
5
430
100
AcDbEntity
8
0-7図枠
6
CONTINUOUS
62
3
100
AcDbLine
10
3655.001000000000
20
2840.000000000000
30
0.0
11
3655.001000000000
21
2765.000000000000
31
0.0
0
LINE
5
431
100
AcDbEntity
8
0-7図枠
6
CONTINUOUS
62
3
100
AcDbLine
10
3855.001000000000
20
2840.000000000000
30
0.0
11
3855.001000000000
21
2765.000000000000
31
0.0
0
LINE
5
432
100
AcDbEntity
8
0-7図枠
6
CONTINUOUS
62
3
100
AcDbLine
10
3215.002000000000
20
2840.000000000000
30
0.0
11
3215.002000000000
21
2765.000000000000
31
0.0
0
LINE
5
433
100
AcDbEntity
8
0-7図枠
6
CONTINUOUS
62
4
100
AcDbLine
10
3055.001000000000
20
2425.001000000000
30
0.0
11
3864.999000000000
21
2425.001000000000
31
0.0
0
LINE
5
434
100
AcDbEntity
8
0-7図枠
6
CONTINUOUS
62
4
100
AcDbLine
10
3055.001000000000
20
2350.000000000000
30
0.0
11
3864.999000000000
21
2350.000000000000
31
0.0
0
LINE
5
435
100
AcDbEntity
8
0-7図枠
6
CONTINUOUS
62
4
100
AcDbLine
10
3055.001000000000
20
2290.000000000000
30
0.0
11
3864.999000000000
21
2290.000000000000
31
0.0
0
LINE
5
436
100
AcDbEntity
8
0-7図枠
6
CONTINUOUS
62
4
100
AcDbLine
10
3055.001000000000
20
2230.000000000000
30
0.0
11
3864.999000000000
21
2230.000000000000
31
0.0
0
LINE
5
437
100
AcDbEntity
8
0-7図枠
6
CONTINUOUS
62
4
100
AcDbLine
10
3055.001000000000
20
2170.000000000000
30
0.0
11
3864.999000000000
21
2170.000000000000
31
0.0
0
LINE
5
438
100
AcDbEntity
8
0-7図枠
6
CONTINUOUS
62
4
100
AcDbLine
10
3055.001000000000
20
2425.001000000000
30
0.0
11
3055.001000000000
21
2170.000000000000
31
0.0
0
LINE
5
439
100
AcDbEntity
8
0-7図枠
6
CONTINUOUS
62
4
100
AcDbLine
10
3864.999000000000
20
2425.001000000000
30
0.0
11
3864.999000000000
21
2170.000000000000
31
0.0
0
LINE
5
43a
100
AcDbEntity
8
0-7図枠
6
CONTINUOUS
62
4
100
AcDbLine
10
3235.000000000000
20
2350.000000000000
30
0.0
11
3235.000000000000
21
2170.000000000000
31
0.0
0
LINE
5
43b
100
AcDbEntity
8
0-7図枠
6
CONTINUOUS
62
4
100
AcDbLine
10
3549.999000000000
20
2350.000000000000
30
0.0
11
3549.999000000000
21
2170.000000000000
31
0.0
0
TEXT
5
43c
100
AcDbEntity
8
0-7図枠
62
7
370
-3
100
AcDbText
10
3128.899
20
2790.239
30
0.0
40
29.405
1
記号
41
0.856
50
0.000
100
AcDbText
0
TEXT
5
43d
100
AcDbEntity
8
0-7図枠
62
7
370
-3
100
AcDbText
10
3281.399
20
2790.239
30
0.0
40
29.405
1
修　　　　　　　正
41
0.856
50
0.000
100
AcDbText
0
TEXT
5
43e
100
AcDbEntity
8
0-7図枠
62
7
370
-3
100
AcDbText
10
3688.899
20
2790.239
30
0.0
40
29.405
1
日　　付
41
0.856
50
0.000
100
AcDbText
0
TEXT
5
43f
100
AcDbEntity
8
0-7図枠
62
7
370
-3
100
AcDbText
10
3886.399
20
2790.239
30
0.0
40
29.405
1
担　　当
41
0.856
50
0.000
100
AcDbText
0
LINE
5
440
100
AcDbEntity
8
F-F_J_ADD
6
HIDDEN
62
109
100
AcDbLine
10
3105.001000000000
20
2840.000000000000
30
0.0
11
3160.001000000000
21
2840.000000000000
31
0.0
0
LINE
5
441
100
AcDbEntity
8
F-F_J_ADD
6
HIDDEN
62
109
100
AcDbLine
10
3105.001000000000
20
2840.000000000000
30
0.0
11
3105.001000000000
21
2802.500000000000
31
0.0
0
LINE
5
442
100
AcDbEntity
8
F-F_J_ADD
6
HIDDEN
62
109
100
AcDbLine
10
3105.001000000000
20
2802.500000000000
30
0.0
11
4050.001000000000
21
2802.500000000000
31
0.0
0
LINE
5
443
100
AcDbEntity
8
F-F_J_ADD
6
HIDDEN
62
109
100
AcDbLine
10
3160.001000000000
20
2765.000000000000
30
0.0
11
3160.001000000000
21
2840.000000000000
31
0.0
0
LINE
5
444
100
AcDbEntity
8
F-F_J_ADD
6
HIDDEN
62
109
100
AcDbLine
10
3435.001000000000
20
2840.000000000000
30
0.0
11
3435.001000000000
21
2765.000000000000
31
0.0
0
LINE
5
445
100
AcDbEntity
8
F-F_J_ADD
6
HIDDEN
62
109
100
AcDbLine
10
3755.001000000000
20
2840.000000000000
30
0.0
11
3755.001000000000
21
2765.000000000000
31
0.0
0
LINE
5
446
100
AcDbEntity
8
F-F_J_ADD
6
HIDDEN
62
109
100
AcDbLine
10
3952.501000000000
20
2840.000000000000
30
0.0
11
3952.501000000000
21
2765.000000000000
31
0.0
0
LINE
5
447
100
AcDbEntity
8
0-6戸当り
6
CONTINUOUS
62
3
100
AcDbLine
10
1125.744000000000
20
2308.759000000000
30
0.0
11
1125.744000000000
21
2314.759000000000
31
0.0
0
POLYLINE
5
448
100
AcDbEntity
  8
0-8寸法
6
CONTINUOUS
62
4
100
AcDb2dPolyline
66
1
10
0
20
0
70
1
40
4.000
41
4.000
0
VERTEX
5
449
100
AcDbEntity
  8
0-8寸法
6
CONTINUOUS
62
4
100
AcDbVertex
100
AcDb2dVertex
10
984.600
20
888.953
30
0.0
42
1.000
0
VERTEX
5
44a
100
AcDbEntity
  8
0-8寸法
6
CONTINUOUS
62
4
100
AcDbVertex
100
AcDb2dVertex
10
988.600
20
888.953
30
0.0
42
1.000
0
SEQEND
5
44b
100
AcDbEntity
  8
0-8寸法
0
POLYLINE
5
44c
100
AcDbEntity
  8
0-8寸法
6
CONTINUOUS
62
4
100
AcDb2dPolyline
66
1
10
0
20
0
70
1
40
4.000
41
4.000
0
VERTEX
5
44d
100
AcDbEntity
  8
0-8寸法
6
CONTINUOUS
62
4
100
AcDbVertex
100
AcDb2dVertex
10
984.600
20
888.953
30
0.0
42
1.000
0
VERTEX
5
44e
100
AcDbEntity
  8
0-8寸法
6
CONTINUOUS
62
4
100
AcDbVertex
100
AcDb2dVertex
10
988.600
20
888.953
30
0.0
42
1.000
0
SEQEND
5
44f
100
AcDbEntity
  8
0-8寸法
0
LINE
5
450
100
AcDbEntity
8
0-3RC
6
CONTINUOUS
62
7
100
AcDbLine
10
2371.676000000000
20
685.299000000000
30
0.0
11
2496.676000000000
21
685.299000000000
31
0.0
0
LINE
5
451
100
AcDbEntity
8
0-3RC
6
CONTINUOUS
62
7
100
AcDbLine
10
2371.676000000000
20
1435.299000000000
30
0.0
11
2496.676000000000
21
1435.299000000000
31
0.0
0
LINE
5
452
100
AcDbEntity
8
0-3RC
6
CONTINUOUS
62
7
100
AcDbLine
10
1543.244000000000
20
2314.759000000000
30
0.0
11
1543.244000000000
21
2439.759000000000
31
0.0
0
LINE
5
453
100
AcDbEntity
8
0-3RC
6
DOT
62
7
100
AcDbLine
10
843.244000000000
20
2314.759000000000
30
0.0
11
843.244000000000
21
2439.759000000000
31
0.0
0
LINE
5
454
100
AcDbEntity
8
0-3RC
6
CONTINUOUS
62
7
100
AcDbLine
10
1193.244000000000
20
2439.759000000000
30
0.0
11
1543.244000000000
21
2439.759000000000
31
0.0
0
LINE
5
455
100
AcDbEntity
8
0-3RC
6
CONTINUOUS
62
7
100
AcDbLine
10
2496.676000000000
20
1435.299000000000
30
0.0
11
2496.676000000000
21
685.299000000000
31
0.0
0
LINE
5
456
100
AcDbEntity
8
0-3RC
6
CONTINUOUS
62
7
100
AcDbLine
10
2371.676000000000
20
1235.299000000000
30
0.0
11
2571.676000000000
21
1235.299000000000
31
0.0
0
LINE
5
457
100
AcDbEntity
8
0-3RC
6
CONTINUOUS
62
7
100
AcDbLine
10
2371.676000000000
20
835.299000000000
30
0.0
11
2571.676000000000
21
835.299000000000
31
0.0
0
LINE
5
458
100
AcDbEntity
8
0-9扉体
6
CONTINUOUS
62
4
100
AcDbLine
10
953.244000000000
20
1275.299000000000
30
0.0
11
1433.244000000000
21
1275.299000000000
31
0.0
0
LINE
5
459
100
AcDbEntity
8
0-9扉体
6
DOT
62
4
100
AcDbLine
10
959.245000000000
20
795.299000000000
30
0.0
11
959.245000000000
21
1275.299000000000
31
0.0
0
LINE
5
45a
100
AcDbEntity
8
0-9扉体
6
DOT
62
4
100
AcDbLine
10
1427.244000000000
20
1275.299000000000
30
0.0
11
1427.244000000000
21
795.299000000000
31
0.0
0
LINE
5
45b
100
AcDbEntity
8
0-9扉体
6
CONTINUOUS
62
4
100
AcDbLine
10
1373.244000000000
20
855.299000000000
30
0.0
11
1013.244000000000
21
855.299000000000
31
0.0
0
LINE
5
45c
100
AcDbEntity
8
0-9扉体
6
DOT
62
4
100
AcDbLine
10
959.245000000000
20
1269.299000000000
30
0.0
11
1427.244000000000
21
1269.299000000000
31
0.0
0
LINE
5
45d
100
AcDbEntity
8
0-9扉体
6
CONTINUOUS
62
4
100
AcDbLine
10
1013.244000000000
20
1215.299000000000
30
0.0
11
1373.244000000000
21
1215.299000000000
31
0.0
0
LINE
5
45e
100
AcDbEntity
8
0-9扉体
6
CONTINUOUS
62
4
100
AcDbLine
10
1393.244000000000
20
1280.299000000000
30
0.0
11
1438.244000000000
21
1280.299000000000
31
0.0
0
LINE
5
45f
100
AcDbEntity
8
0-9扉体
6
CONTINUOUS
62
4
100
AcDbLine
10
948.244000000000
20
1280.299000000000
30
0.0
11
993.244000000000
21
1280.299000000000
31
0.0
0
LINE
5
460
100
AcDbEntity
8
0-3RC
6
CONTINUOUS
62
7
100
AcDbLine
10
1543.244000000000
20
685.299000000000
30
0.0
11
843.244000000000
21
685.299000000000
31
0.0
0
LINE
5
461
100
AcDbEntity
8
0-3RC
6
CONTINUOUS
62
7
100
AcDbLine
10
1543.244000000000
20
1435.299000000000
30
0.0
11
1543.244000000000
21
685.299000000000
31
0.0
0
POLYLINE
5
462
100
AcDbEntity
8
0-3RC
6
CONTINUOUS
62
  7
100
AcDb2dPolyline
66
1
10
0.0
20
0.0
30
0.0
70
0
0
VERTEX
5
463
100
AcDbEntity
8
0-3RC
6
CONTINUOUS
62
  7
100
AcDbVertex
100
AcDb2dVertex
10
1543.244000000000
20
1435.299000000000
30
0.0
0
VERTEX
5
464
100
AcDbEntity
8
0-3RC
6
CONTINUOUS
62
  7
100
AcDbVertex
100
AcDb2dVertex
10
843.244000000000
20
1435.299000000000
30
0.0
0
VERTEX
5
465
100
AcDbEntity
8
0-3RC
6
CONTINUOUS
62
  7
100
AcDbVertex
100
AcDb2dVertex
10
843.244000000000
20
685.299000000000
30
0.0
0
SEQEND
5
466
100
AcDbEntity
8
0-3RC
0
LINE
5
467
100
AcDbEntity
8
0-3RC
6
CONTINUOUS
62
6
100
AcDbLine
10
2452.903000000000
20
685.299000000000
30
0.0
11
2496.676000000000
21
729.073000000000
31
0.0
0
LINE
5
468
100
AcDbEntity
8
0-3RC
6
CONTINUOUS
62
6
100
AcDbLine
10
2382.192000000000
20
685.299000000000
30
0.0
11
2496.676000000000
21
799.784000000000
31
0.0
0
LINE
5
469
100
AcDbEntity
8
0-3RC
6
CONTINUOUS
62
6
100
AcDbLine
10
2371.676000000000
20
745.494000000000
30
0.0
11
2461.481000000000
21
835.299000000000
31
0.0
0
LINE
5
46a
100
AcDbEntity
8
0-3RC
6
CONTINUOUS
62
6
100
AcDbLine
10
2478.639000000000
20
1235.299000000000
30
0.0
11
2496.676000000000
21
1253.336000000000
31
0.0
0
LINE
5
46b
100
AcDbEntity
8
0-3RC
6
CONTINUOUS
62
6
100
AcDbLine
10
2371.676000000000
20
1411.179000000000
30
0.0
11
2395.796000000000
21
1435.299000000000
31
0.0
0
LINE
5
46c
100
AcDbEntity
8
0-3RC
6
CONTINUOUS
62
6
100
AcDbLine
10
2377.676000000000
20
1346.468000000000
30
0.0
11
2466.507000000000
21
1435.299000000000
31
0.0
0
LINE
5
46d
100
AcDbEntity
8
0-3RC
6
CONTINUOUS
62
6
100
AcDbLine
10
2377.676000000000
20
1275.758000000000
30
0.0
11
2496.676000000000
21
1394.758000000000
31
0.0
0
LINE
5
46e
100
AcDbEntity
8
0-3RC
6
CONTINUOUS
62
6
100
AcDbLine
10
2413.928000000000
20
1241.299000000000
30
0.0
11
2496.676000000000
21
1324.047000000000
31
0.0
0
LINE
5
46f
100
AcDbEntity
8
0-A文字
6
CONTINUOUS
62
7
100
AcDbLine
10
1951.695000000000
20
1055.299000000000
30
0.0
11
2152.394000000000
21
1055.299000000000
31
0.0
0
LINE
5
470
100
AcDbEntity
8
0-A文字
6
CONTINUOUS
62
7
100
AcDbLine
10
1951.695000000000
20
1015.299000000000
30
0.0
11
2152.394000000000
21
1015.299000000000
31
0.0
0
LINE
5
471
100
AcDbEntity
8
0-A文字
6
CONTINUOUS
62
7
100
AcDbLine
10
1951.695000000000
20
1055.299000000000
30
0.0
11
1951.695000000000
21
1015.299000000000
31
0.0
0
LINE
5
472
100
AcDbEntity
8
0-A文字
6
CONTINUOUS
62
7
100
AcDbLine
10
2152.394000000000
20
1055.299000000000
30
0.0
11
2152.394000000000
21
1075.300000000000
31
0.0
0
LINE
5
473
100
AcDbEntity
8
0-A文字
6
CONTINUOUS
62
7
100
AcDbLine
10
2152.394000000000
20
1015.299000000000
30
0.0
11
2152.394000000000
21
995.299000000000
31
0.0
0
LINE
5
474
100
AcDbEntity
8
0-A文字
6
CONTINUOUS
62
7
100
AcDbLine
10
2152.394000000000
20
1075.300000000000
30
0.0
11
2221.676000000000
21
1035.299000000000
31
0.0
0
LINE
5
475
100
AcDbEntity
8
0-A文字
6
CONTINUOUS
62
7
100
AcDbLine
10
2152.394000000000
20
995.299000000000
30
0.0
11
2221.676000000000
21
1035.299000000000
31
0.0
0
LINE
5
476
100
AcDbEntity
8
0-8寸法
6
CONTINUOUS
62
4
100
AcDbLine
10
1043.244000000000
20
485.299000000000
30
0.0
11
1343.244000000000
21
485.299000000000
31
0.0
0
LINE
5
477
100
AcDbEntity
8
0-8寸法
6
CONTINUOUS
62
4
100
AcDbLine
10
1043.244000000000
20
485.299000000000
30
0.0
11
1062.563000000000
21
490.476000000000
31
0.0
0
LINE
5
478
100
AcDbEntity
8
0-8寸法
6
CONTINUOUS
62
4
100
AcDbLine
10
1043.244000000000
20
485.299000000000
30
0.0
11
1062.563000000000
21
480.123000000000
31
0.0
0
LINE
5
479
100
AcDbEntity
8
0-8寸法
6
CONTINUOUS
62
4
100
AcDbLine
10
1343.244000000000
20
485.299000000000
30
0.0
11
1323.926000000000
21
490.476000000000
31
0.0
0
LINE
5
47a
100
AcDbEntity
8
0-8寸法
6
CONTINUOUS
62
4
100
AcDbLine
10
1343.244000000000
20
485.299000000000
30
0.0
11
1323.926000000000
21
480.123000000000
31
0.0
0
LINE
5
47b
100
AcDbEntity
8
0-8寸法
6
CONTINUOUS
62
4
100
AcDbLine
10
953.244000000000
20
385.299000000000
30
0.0
11
1433.244000000000
21
385.299000000000
31
0.0
0
LINE
5
47c
100
AcDbEntity
8
0-8寸法
6
CONTINUOUS
62
4
100
AcDbLine
10
953.244000000000
20
385.299000000000
30
0.0
11
972.563000000000
21
390.476000000000
31
0.0
0
LINE
5
47d
100
AcDbEntity
8
0-8寸法
6
CONTINUOUS
62
4
100
AcDbLine
10
953.244000000000
20
385.299000000000
30
0.0
11
972.563000000000
21
380.123000000000
31
0.0
0
LINE
5
47e
100
AcDbEntity
8
0-8寸法
6
CONTINUOUS
62
4
100
AcDbLine
10
1433.244000000000
20
385.299000000000
30
0.0
11
1413.926000000000
21
390.476000000000
31
0.0
0
LINE
5
47f
100
AcDbEntity
8
0-8寸法
6
CONTINUOUS
62
4
100
AcDbLine
10
1433.244000000000
20
385.299000000000
30
0.0
11
1413.926000000000
21
380.123000000000
31
0.0
0
LINE
5
480
100
AcDbEntity
8
0-8寸法
6
CONTINUOUS
62
4
100
AcDbLine
10
953.244000000000
20
788.444000000000
30
0.0
11
953.244000000000
21
375.299000000000
31
0.0
0
LINE
5
481
100
AcDbEntity
8
0-8寸法
6
CONTINUOUS
62
4
100
AcDbLine
10
1433.244000000000
20
788.444000000000
30
0.0
11
1433.244000000000
21
375.299000000000
31
0.0
0
LINE
5
482
100
AcDbEntity
8
0-8寸法
6
CONTINUOUS
62
4
100
AcDbLine
10
501.484000000000
20
485.299000000000
30
0.0
11
853.244000000000
21
485.299000000000
31
0.0
0
LINE
5
483
100
AcDbEntity
8
0-8寸法
6
CONTINUOUS
62
4
100
AcDbLine
10
1063.244000000000
20
1635.299000000000
30
0.0
11
1323.244000000000
21
1635.299000000000
31
0.0
0
LINE
5
484
100
AcDbEntity
8
0-8寸法
6
CONTINUOUS
62
4
100
AcDbLine
10
1063.244000000000
20
1635.299000000000
30
0.0
11
1082.563000000000
21
1640.476000000000
31
0.0
0
LINE
5
485
100
AcDbEntity
8
0-8寸法
6
CONTINUOUS
62
4
100
AcDbLine
10
1063.244000000000
20
1635.299000000000
30
0.0
11
1082.563000000000
21
1630.123000000000
31
0.0
0
LINE
5
486
100
AcDbEntity
8
0-8寸法
6
CONTINUOUS
62
4
100
AcDbLine
10
1323.244000000000
20
1635.299000000000
30
0.0
11
1303.926000000000
21
1640.476000000000
31
0.0
0
LINE
5
487
100
AcDbEntity
8
0-8寸法
6
CONTINUOUS
62
4
100
AcDbLine
10
1323.244000000000
20
1635.299000000000
30
0.0
11
1303.926000000000
21
1630.123000000000
31
0.0
0
LINE
5
488
100
AcDbEntity
8
0-8寸法
6
CONTINUOUS
62
4
100
AcDbLine
10
853.244000000000
20
485.299000000000
30
0.0
11
1071.188000000000
21
815.964000000000
31
0.0
0
LINE
5
489
100
AcDbEntity
8
0-8寸法
6
CONTINUOUS
62
4
100
AcDbLine
10
853.244000000000
20
485.299000000000
30
0.0
11
986.600000000000
21
888.953000000000
31
0.0
0
LINE
5
48a
100
AcDbEntity
8
0-6戸当り
6
DOT
62
3
100
AcDbLine
10
993.244000000000
20
2320.759000000000
30
0.0
11
1393.244000000000
21
2320.759000000000
31
0.0
0
LINE
5
48b
100
AcDbEntity
8
0-6戸当り
6
CONTINUOUS
62
3
100
AcDbLine
10
1419.744000000000
20
2347.759000000000
30
0.0
11
1399.244000000000
21
2347.759000000000
31
0.0
0
LINE
5
48c
100
AcDbEntity
8
0-6戸当り
6
CONTINUOUS
62
3
100
AcDbLine
10
1419.744000000000
20
2360.759000000000
30
0.0
11
1399.244000000000
21
2360.759000000000
31
0.0
0
LINE
5
48d
100
AcDbEntity
8
0-6戸当り
6
CONTINUOUS
62
3
100
AcDbLine
10
1426.244000000000
20
2341.259000000000
30
0.0
11
1426.244000000000
21
2320.759000000000
31
0.0
0
LINE
5
48e
100
AcDbEntity
8
0-6戸当り
6
CONTINUOUS
62
3
100
AcDbLine
10
1439.244000000000
20
2341.259000000000
30
0.0
11
1439.244000000000
21
2320.759000000000
31
0.0
0
LINE
5
48f
100
AcDbEntity
8
0-5基準線
6
CENTER2
62
7
100
AcDbLine
10
1432.744000000000
20
2341.259000000000
30
0.0
11
1432.744000000000
21
2317.738000000000
31
0.0
0
LINE
5
490
100
AcDbEntity
8
0-5基準線
6
CENTER2
62
7
100
AcDbLine
10
1419.744000000000
20
2354.259000000000
30
0.0
11
1396.423000000000
21
2354.259000000000
31
0.0
0
LINE
5
491
100
AcDbEntity
8
0-6戸当り
6
DOT
62
2
100
AcDbLine
10
1044.244000000000
20
2254.759000000000
30
0.0
11
1082.244000000000
21
2254.759000000000
31
0.0
0
LINE
5
492
100
AcDbEntity
8
0-6戸当り
6
CONTINUOUS
62
2
100
AcDbLine
10
1044.244000000000
20
2246.759000000000
30
0.0
11
1082.244000000000
21
2246.759000000000
31
0.0
0
LINE
5
493
100
AcDbEntity
8
0-3RC
6
DOT
62
2
100
AcDbLine
10
993.244000000000
20
2314.759000000000
30
0.0
11
993.244000000000
21
2514.759000000000
31
0.0
0
LINE
5
494
100
AcDbEntity
8
0-3RC
6
CONTINUOUS
62
7
100
AcDbLine
10
1393.244000000000
20
2314.759000000000
30
0.0
11
1393.244000000000
21
2514.759000000000
31
0.0
0
LINE
5
495
100
AcDbEntity
8
0-5基準線
6
CENTER2
62
7
100
AcDbLine
10
1193.244000000000
20
2514.759000000000
30
0.0
11
1193.244000000000
21
2224.469000000000
31
0.0
0
LINE
5
496
100
AcDbEntity
8
0-5基準線
6
CENTER2
62
7
100
AcDbLine
10
1063.244000000000
20
2236.303000000000
30
0.0
11
1063.244000000000
21
2397.380000000000
31
0.0
0
LINE
5
497
100
AcDbEntity
8
0-8寸法
6
CONTINUOUS
62
4
100
AcDbLine
10
1941.468000000000
20
1385.299000000000
30
0.0
11
2139.696000000000
21
1385.299000000000
31
0.0
0
LINE
5
498
100
AcDbEntity
8
0-8寸法
6
CONTINUOUS
62
4
100
AcDbLine
10
1955.777000000000
20
1375.299000000000
30
0.0
11
2125.718000000000
21
1375.299000000000
31
0.0
0
LINE
5
499
100
AcDbEntity
8
0-8寸法
6
CONTINUOUS
62
4
100
AcDbLine
10
1974.169000000000
20
1365.299000000000
30
0.0
11
2105.119000000000
21
1365.299000000000
31
0.0
0
LINE
5
49a
100
AcDbEntity
8
0-8寸法
6
CONTINUOUS
62
4
100
AcDbLine
10
1994.032000000000
20
1355.299000000000
30
0.0
11
2086.727000000000
21
1355.299000000000
31
0.0
0
LINE
5
49b
100
AcDbEntity
8
0-8寸法
6
CONTINUOUS
62
4
100
AcDbLine
10
2012.424000000000
20
1345.299000000000
30
0.0
11
2065.393000000000
21
1345.299000000000
31
0.0
0
LINE
5
49c
100
AcDbEntity
8
0-8寸法
6
CONTINUOUS
62
4
100
AcDbLine
10
2024.930000000000
20
1335.299000000000
30
0.0
11
2050.679000000000
21
1335.299000000000
31
0.0
0
LINE
5
49d
100
AcDbEntity
8
0-8寸法
6
CONTINUOUS
62
4
100
AcDbLine
10
2371.676000000000
20
1517.189000000000
30
0.0
11
2371.676000000000
21
1645.299000000000
31
0.0
0
LINE
5
49e
100
AcDbEntity
8
0-8寸法
6
CONTINUOUS
62
4
100
AcDbLine
10
2371.676000000000
20
1635.299000000000
30
0.0
11
2390.995000000000
21
1640.476000000000
31
0.0
0
LINE
5
49f
100
AcDbEntity
8
0-8寸法
6
CONTINUOUS
62
4
100
AcDbLine
10
2371.676000000000
20
1635.299000000000
30
0.0
11
2390.995000000000
21
1630.123000000000
31
0.0
0
LINE
5
4a0
100
AcDbEntity
8
0-8寸法
6
CONTINUOUS
62
4
100
AcDbLine
10
1871.676000000000
20
795.299000000000
30
0.0
11
1871.676000000000
21
1385.299000000000
31
0.0
0
LINE
5
4a1
100
AcDbEntity
8
0-8寸法
6
CONTINUOUS
62
4
100
AcDbLine
10
1914.558000000000
20
1385.299000000000
30
0.0
11
1861.676000000000
21
1385.299000000000
31
0.0
0
LINE
5
4a2
100
AcDbEntity
8
0-8寸法
6
CONTINUOUS
62
4
100
AcDbLine
10
1871.676000000000
20
795.299000000000
30
0.0
11
1866.500000000000
21
814.618000000000
31
0.0
0
LINE
5
4a3
100
AcDbEntity
8
0-8寸法
6
CONTINUOUS
62
4
100
AcDbLine
10
1871.676000000000
20
795.299000000000
30
0.0
11
1876.853000000000
21
814.618000000000
31
0.0
0
LINE
5
4a4
100
AcDbEntity
8
0-8寸法
6
CONTINUOUS
62
4
100
AcDbLine
10
1871.676000000000
20
1385.299000000000
30
0.0
11
1866.500000000000
21
1365.981000000000
31
0.0
0
LINE
5
4a5
100
AcDbEntity
8
0-8寸法
6
CONTINUOUS
62
4
100
AcDbLine
10
1871.676000000000
20
1385.299000000000
30
0.0
11
1876.853000000000
21
1365.981000000000
31
0.0
0
LINE
5
4a6
100
AcDbEntity
8
0-8寸法
6
CONTINUOUS
62
4
100
AcDbLine
10
2279.805000000000
20
795.299000000000
30
0.0
11
1861.676000000000
21
795.299000000000
31
0.0
0
LINE
5
4a7
100
AcDbEntity
8
0-8寸法
6
CONTINUOUS
62
4
100
AcDbLine
10
1708.354000000000
20
585.299000000000
30
0.0
11
2271.676000000000
21
585.299000000000
31
0.0
0
LINE
5
4a8
100
AcDbEntity
8
0-8寸法
6
CONTINUOUS
62
4
100
AcDbLine
10
1708.354000000000
20
485.299000000000
30
0.0
11
2271.676000000000
21
485.299000000000
31
0.0
0
LINE
5
4a9
100
AcDbEntity
8
0-8寸法
6
CONTINUOUS
62
4
100
AcDbLine
10
1523.244000000000
20
2135.299000000000
30
0.0
11
2237.707000000000
21
2135.299000000000
31
0.0
0
LINE
5
4aa
100
AcDbEntity
8
0-8寸法
6
CONTINUOUS
62
4
100
AcDbLine
10
1523.244000000000
20
2035.300000000000
30
0.0
11
2237.707000000000
21
2035.300000000000
31
0.0
0
LINE
5
4ab
100
AcDbEntity
8
0-8寸法
6
CONTINUOUS
62
4
100
AcDbLine
10
1523.244000000000
20
1935.299000000000
30
0.0
11
2237.707000000000
21
1935.299000000000
31
0.0
0
LINE
5
4ac
100
AcDbEntity
8
0-8寸法
6
CONTINUOUS
62
4
100
AcDbLine
10
2271.676000000000
20
585.299000000000
30
0.0
11
2271.676000000000
21
485.299000000000
31
0.0
0
LINE
5
4ad
100
AcDbEntity
8
0-3RC
6
CONTINUOUS
62
7
100
AcDbLine
10
2371.676000000000
20
1510.299000000000
30
0.0
11
2371.676000000000
21
1095.411000000000
31
0.0
0
LINE
5
4ae
100
AcDbEntity
8
0-6戸当り
6
DOT
62
3
100
AcDbLine
10
2377.676000000000
20
1235.299000000000
30
0.0
11
2377.676000000000
21
1095.411000000000
31
0.0
0
LINE
5
4af
100
AcDbEntity
8
0-8寸法
6
CONTINUOUS
62
4
100
AcDbLine
10
2421.676000000000
20
985.299000000000
30
0.0
11
2440.995000000000
21
990.476000000000
31
0.0
0
LINE
5
4b0
100
AcDbEntity
8
0-8寸法
6
CONTINUOUS
62
4
100
AcDbLine
10
2421.676000000000
20
985.299000000000
30
0.0
11
2440.995000000000
21
980.123000000000
31
0.0
0
LINE
5
4b1
100
AcDbEntity
8
0-8寸法
6
CONTINUOUS
62
4
100
AcDbLine
10
1523.244000000000
20
2135.299000000000
30
0.0
11
1523.244000000000
21
1935.299000000000
31
0.0
0
LINE
5
4b2
100
AcDbEntity
8
0-3RC
6
CONTINUOUS
62
4
100
AcDbLine
10
1503.936000000000
20
2314.759000000000
30
0.0
11
1543.244000000000
21
2354.068000000000
31
0.0
0
LINE
5
4b3
100
AcDbEntity
8
0-3RC
6
CONTINUOUS
62
4
100
AcDbLine
10
1393.244000000000
20
2416.200000000000
30
0.0
11
1416.804000000000
21
2439.759000000000
31
0.0
0
LINE
5
4b4
100
AcDbEntity
8
0-A文字
6
CONTINUOUS
62
4
100
AcDbLine
10
1097.461000000000
20
1065.855000000000
30
0.0
11
1289.754000000000
21
1065.855000000000
31
0.0
0
LINE
5
4b5
100
AcDbEntity
8
0-5基準線
6
CENTER2
62
7
100
AcDbLine
10
1193.244000000000
20
958.823000000000
30
0.0
11
1193.244000000000
21
628.841000000000
31
0.0
0
LINE
5
4b6
100
AcDbEntity
8
0-5基準線
6
CENTER2
62
7
100
AcDbLine
10
1193.244000000000
20
1491.758000000000
30
0.0
11
1193.244000000000
21
1130.308000000000
31
0.0
0
LINE
5
4b7
100
AcDbEntity
8
0-3RC
6
CONTINUOUS
62
4
100
AcDbLine
10
843.244000000000
20
712.556000000000
30
0.0
11
870.501000000000
21
685.299000000000
31
0.0
0
LINE
5
4b8
100
AcDbEntity
8
0-3RC
6
CONTINUOUS
62
4
100
AcDbLine
10
843.244000000000
20
783.266000000000
30
0.0
11
941.212000000000
21
685.299000000000
31
0.0
0
LINE
5
4b9
100
AcDbEntity
8
0-3RC
6
CONTINUOUS
62
4
100
AcDbLine
10
843.244000000000
20
853.977000000000
30
0.0
11
1011.922000000000
21
685.299000000000
31
0.0
0
LINE
5
4ba
100
AcDbEntity
8
0-3RC
6
CONTINUOUS
62
4
100
AcDbLine
10
1458.244000000000
20
1299.638000000000
30
0.0
11
1543.244000000000
21
1214.638000000000
31
0.0
0
LINE
5
4bb
100
AcDbEntity
8
0-3RC
6
CONTINUOUS
62
4
100
AcDbLine
10
1464.005000000000
20
1435.299000000000
30
0.0
11
1543.244000000000
21
1356.060000000000
31
0.0
0
LINE
5
4bc
100
AcDbEntity
8
0-3RC
6
CONTINUOUS
62
4
100
AcDbLine
10
1534.715000000000
20
1435.299000000000
30
0.0
11
1543.244000000000
21
1426.770000000000
31
0.0
0
LINE
5
4bd
100
AcDbEntity
8
0-3RC
6
CONTINUOUS
62
4
100
AcDbLine
10
1393.294000000000
20
1435.299000000000
30
0.0
11
1543.244000000000
21
1285.349000000000
31
0.0
0
LINE
5
4be
100
AcDbEntity
8
0-3RC
6
CONTINUOUS
62
4
100
AcDbLine
10
2441.820000000000
20
1235.299000000000
30
0.0
11
2496.676000000000
21
1180.443000000000
31
0.0
0
LINE
5
4bf
100
AcDbEntity
8
0-3RC
6
CONTINUOUS
62
4
100
AcDbLine
10
1378.782000000000
20
2439.759000000000
30
0.0
11
1393.244000000000
21
2425.297000000000
31
0.0
0
LINE
5
4c0
100
AcDbEntity
8
0-3RC
6
DOT
62
4
100
AcDbLine
10
843.244000000000
20
2338.902000000000
30
0.0
11
867.387000000000
21
2314.759000000000
31
0.0
0
LINE
5
4c1
100
AcDbEntity
8
0-3RC
6
DOT
62
4
100
AcDbLine
10
843.244000000000
20
2409.612000000000
30
0.0
11
938.097000000000
21
2314.759000000000
31
0.0
0
LINE
5
4c2
100
AcDbEntity
8
0-3RC
6
DOT
62
4
100
AcDbLine
10
883.808000000000
20
2439.759000000000
30
0.0
11
1008.808000000000
21
2314.759000000000
31
0.0
0
LINE
5
4c3
100
AcDbEntity
8
0-3RC
6
DOT
62
4
100
AcDbLine
10
954.519000000000
20
2439.759000000000
30
0.0
11
1079.519000000000
21
2314.759000000000
31
0.0
0
LINE
5
4c4
100
AcDbEntity
8
0-3RC
6
DOT
62
4
100
AcDbLine
10
1025.229000000000
20
2439.759000000000
30
0.0
11
1150.229000000000
21
2314.759000000000
31
0.0
0
LINE
5
4c5
100
AcDbEntity
8
0-3RC
6
DOT
62
4
100
AcDbLine
10
1095.940000000000
20
2439.759000000000
30
0.0
11
1193.244000000000
21
2342.454000000000
31
0.0
0
LINE
5
4c6
100
AcDbEntity
8
0-3RC
6
DOT
62
4
100
AcDbLine
10
1166.650000000000
20
2439.759000000000
30
0.0
11
1193.244000000000
21
2413.165000000000
31
0.0
0
LINE
5
4c7
100
AcDbEntity
8
0-9扉体
6
CONTINUOUS
62
4
100
AcDbLine
10
1373.244000000000
20
1275.299000000000
30
0.0
11
1373.244000000000
21
795.299000000000
31
0.0
0
LINE
5
4c8
100
AcDbEntity
8
0-9扉体
6
CONTINUOUS
62
4
100
AcDbLine
10
1013.244000000000
20
795.299000000000
30
0.0
11
1013.244000000000
21
1275.299000000000
31
0.0
0
LINE
5
4c9
100
AcDbEntity
8
0-6戸当り
6
CONTINUOUS
62
3
100
AcDbLine
10
1394.744000000000
20
2364.759000000000
30
0.0
11
1193.244000000000
21
2364.759000000000
31
0.0
0
LINE
5
4ca
100
AcDbEntity
8
0-6戸当り
6
CONTINUOUS
62
3
100
AcDbLine
10
1438.744000000000
20
2320.759000000000
30
0.0
11
1405.744000000000
21
2320.759000000000
31
0.0
0
LINE
5
4cb
100
AcDbEntity
8
0-6戸当り
6
CONTINUOUS
62
3
100
AcDbLine
10
1443.244000000000
20
2316.259000000000
30
0.0
11
1443.244000000000
21
2314.759000000000
31
0.0
0
LINE
5
4cc
100
AcDbEntity
8
0-6戸当り
6
CONTINUOUS
62
3
100
AcDbLine
10
1399.244000000000
20
2360.259000000000
30
0.0
11
1399.244000000000
21
2327.259000000000
31
0.0
0
LINE
5
4cd
100
AcDbEntity
8
0-3RC
6
CONTINUOUS
62
4
100
AcDbLine
10
1308.072000000000
20
2439.759000000000
30
0.0
11
1383.072000000000
21
2364.759000000000
31
0.0
0
LINE
5
4ce
100
AcDbEntity
8
0-3RC
6
CONTINUOUS
62
4
100
AcDbLine
10
1237.361000000000
20
2439.759000000000
30
0.0
11
1312.361000000000
21
2364.759000000000
31
0.0
0
LINE
5
4cf
100
AcDbEntity
8
0-3RC
6
CONTINUOUS
62
4
100
AcDbLine
10
1193.244000000000
20
2413.165000000000
30
0.0
11
1241.651000000000
21
2364.759000000000
31
0.0
0
LINE
5
4d0
100
AcDbEntity
8
0-3RC
6
CONTINUOUS
62
4
100
AcDbLine
10
1399.244000000000
20
2351.489000000000
30
0.0
11
1487.514000000000
21
2439.759000000000
31
0.0
0
LINE
5
4d1
100
AcDbEntity
8
0-3RC
6
CONTINUOUS
62
4
100
AcDbLine
10
1439.244000000000
20
2320.778000000000
30
0.0
11
1543.244000000000
21
2424.778000000000
31
0.0
0
LINE
5
4d2
100
AcDbEntity
8
0-6戸当り
6
DOT
62
3
100
AcDbLine
10
966.744000000000
20
2347.759000000000
30
0.0
11
987.244000000000
21
2347.759000000000
31
0.0
0
LINE
5
4d3
100
AcDbEntity
8
0-6戸当り
6
DOT
62
3
100
AcDbLine
10
966.744000000000
20
2360.759000000000
30
0.0
11
987.244000000000
21
2360.759000000000
31
0.0
0
LINE
5
4d4
100
AcDbEntity
8
0-6戸当り
6
DOT
62
3
100
AcDbLine
10
960.244000000000
20
2341.259000000000
30
0.0
11
960.244000000000
21
2320.759000000000
31
0.0
0
LINE
5
4d5
100
AcDbEntity
8
0-6戸当り
6
DOT
62
3
100
AcDbLine
10
947.244000000000
20
2341.259000000000
30
0.0
11
947.244000000000
21
2320.759000000000
31
0.0
0
LINE
5
4d6
100
AcDbEntity
8
0-5基準線
6
CENTER2
62
7
100
AcDbLine
10
953.744000000000
20
2341.259000000000
30
0.0
11
953.744000000000
21
2317.738000000000
31
0.0
0
LINE
5
4d7
100
AcDbEntity
8
0-5基準線
6
CENTER2
62
7
100
AcDbLine
10
966.744000000000
20
2354.259000000000
30
0.0
11
990.065000000000
21
2354.259000000000
31
0.0
0
LINE
5
4d8
100
AcDbEntity
8
0-6戸当り
6
DOT
62
3
100
AcDbLine
10
947.744000000000
20
2320.759000000000
30
0.0
11
980.744000000000
21
2320.759000000000
31
0.0
0
LINE
5
4d9
100
AcDbEntity
8
0-6戸当り
6
DOT
62
3
100
AcDbLine
10
943.244000000000
20
2316.259000000000
30
0.0
11
943.244000000000
21
2314.759000000000
31
0.0
0
LINE
5
4da
100
AcDbEntity
8
0-6戸当り
6
DOT
62
3
100
AcDbLine
10
987.244000000000
20
2360.259000000000
30
0.0
11
987.244000000000
21
2327.259000000000
31
0.0
0
LINE
5
4db
100
AcDbEntity
8
0-6戸当り
6
DOT
62
2
100
AcDbLine
10
991.744000000000
20
2364.759000000000
30
0.0
11
1193.244000000000
21
2364.759000000000
31
0.0
0
LINE
5
4dc
100
AcDbEntity
8
0-6戸当り
6
CONTINUOUS
62
3
100
AcDbLine
10
2404.676000000000
20
808.799000000000
30
0.0
11
2404.676000000000
21
829.299000000000
31
0.0
0
LINE
5
4dd
100
AcDbEntity
8
0-6戸当り
6
CONTINUOUS
62
3
100
AcDbLine
10
2417.676000000000
20
808.799000000000
30
0.0
11
2417.676000000000
21
829.299000000000
31
0.0
0
LINE
5
4de
100
AcDbEntity
8
0-6戸当り
6
CONTINUOUS
62
3
100
AcDbLine
10
2398.176000000000
20
802.299000000000
30
0.0
11
2377.676000000000
21
802.299000000000
31
0.0
0
LINE
5
4df
100
AcDbEntity
8
0-6戸当り
6
CONTINUOUS
62
3
100
AcDbLine
10
2398.176000000000
20
789.299000000000
30
0.0
11
2377.676000000000
21
789.299000000000
31
0.0
0
LINE
5
4e0
100
AcDbEntity
8
0-6戸当り
6
CONTINUOUS
62
3
100
AcDbLine
10
2377.676000000000
20
789.799000000000
30
0.0
11
2377.676000000000
21
822.799000000000
31
0.0
0
LINE
5
4e1
100
AcDbEntity
8
0-6戸当り
6
CONTINUOUS
62
3
100
AcDbLine
10
2373.176000000000
20
785.299000000000
30
0.0
11
2371.676000000000
21
785.299000000000
31
0.0
0
LINE
5
4e2
100
AcDbEntity
8
0-6戸当り
6
CONTINUOUS
62
3
100
AcDbLine
10
2417.176000000000
20
829.299000000000
30
0.0
11
2384.176000000000
21
829.299000000000
31
0.0
0
LINE
5
4e3
100
AcDbEntity
8
0-3RC
6
CONTINUOUS
62
6
100
AcDbLine
10
2377.676000000000
20
822.205000000000
30
0.0
11
2384.770000000000
21
829.299000000000
31
0.0
0
LINE
5
4e4
100
AcDbEntity
8
0-3RC
6
CONTINUOUS
62
7
100
AcDbLine
10
2371.676000000000
20
1073.296000000000
30
0.0
11
2371.676000000000
21
610.299000000000
31
0.0
0
LINE
5
4e5
100
AcDbEntity
8
0-6戸当り
6
DOT
62
3
100
AcDbLine
10
2377.676000000000
20
1073.296000000000
30
0.0
11
2377.676000000000
21
835.299000000000
31
0.0
0
LINE
5
4e6
100
AcDbEntity
8
0-8寸法
6
CONTINUOUS
62
4
100
AcDbLine
10
2484.118000000000
20
985.299000000000
30
0.0
11
2371.676000000000
21
985.299000000000
31
0.0
0
LINE
5
4e7
100
AcDbEntity
8
0-3RC
6
CONTINUOUS
62
4
100
AcDbLine
10
2486.337000000000
20
978.651000000000
30
0.0
11
2496.676000000000
21
968.312000000000
31
0.0
0
LINE
5
4e8
100
AcDbEntity
8
0-3RC
6
CONTINUOUS
62
4
100
AcDbLine
10
2421.676000000000
20
901.891000000000
30
0.0
11
2488.267000000000
21
835.299000000000
31
0.0
0
LINE
5
4e9
100
AcDbEntity
8
0-3RC
6
CONTINUOUS
62
4
100
AcDbLine
10
2421.676000000000
20
972.601000000000
30
0.0
11
2496.676000000000
21
897.601000000000
31
0.0
0
LINE
5
4ea
100
AcDbEntity
8
0-3RC
6
CONTINUOUS
62
4
100
AcDbLine
10
2421.676000000000
20
1184.733000000000
30
0.0
11
2496.676000000000
21
1109.733000000000
31
0.0
0
LINE
5
4eb
100
AcDbEntity
8
0-3RC
6
CONTINUOUS
62
4
100
AcDbLine
10
2456.448000000000
20
1079.250000000000
30
0.0
11
2496.676000000000
21
1039.022000000000
31
0.0
0
LINE
5
4ec
100
AcDbEntity
8
0-6戸当り
6
CONTINUOUS
62
3
100
AcDbLine
10
2421.676000000000
20
1237.299000000000
30
0.0
11
2421.676000000000
21
1138.734000000000
31
0.0
0
LINE
5
4ed
100
AcDbEntity
8
0-6戸当り
6
CONTINUOUS
62
3
100
AcDbLine
10
2421.676000000000
20
1075.206000000000
30
0.0
11
2421.676000000000
21
833.799000000000
31
0.0
0
LINE
5
4ee
100
AcDbEntity
8
0-6戸当り
6
CONTINUOUS
62
3
100
AcDbLine
10
1386.244000000000
20
1285.299000000000
30
0.0
11
1443.244000000000
21
1285.299000000000
31
0.0
0
LINE
5
4ef
100
AcDbEntity
8
0-3RC
6
CONTINUOUS
62
4
100
AcDbLine
10
1443.244000000000
20
1243.928000000000
30
0.0
11
1543.244000000000
21
1143.928000000000
31
0.0
0
LINE
5
4f0
100
AcDbEntity
8
0-3RC
6
CONTINUOUS
62
4
100
AcDbLine
10
1443.244000000000
20
1173.217000000000
30
0.0
11
1543.244000000000
21
1073.217000000000
31
0.0
0
LINE
5
4f1
100
AcDbEntity
8
0-3RC
6
CONTINUOUS
62
4
100
AcDbLine
10
1443.244000000000
20
1102.506000000000
30
0.0
11
1543.244000000000
21
1002.506000000000
31
0.0
0
LINE
5
4f2
100
AcDbEntity
8
0-3RC
6
CONTINUOUS
62
4
100
AcDbLine
10
1443.244000000000
20
1031.796000000000
30
0.0
11
1543.244000000000
21
931.795000000000
31
0.0
0
LINE
5
4f3
100
AcDbEntity
8
0-3RC
6
CONTINUOUS
62
4
100
AcDbLine
10
1443.244000000000
20
961.085000000000
30
0.0
11
1543.244000000000
21
861.085000000000
31
0.0
0
LINE
5
4f4
100
AcDbEntity
8
0-3RC
6
CONTINUOUS
62
4
100
AcDbLine
10
1443.244000000000
20
890.374000000000
30
0.0
11
1543.244000000000
21
790.374000000000
31
0.0
0
LINE
5
4f5
100
AcDbEntity
8
0-6戸当り
6
DOT
62
2
100
AcDbLine
10
1438.244000000000
20
829.299000000000
30
0.0
11
1443.244000000000
21
829.299000000000
31
0.0
0
LINE
5
4f6
100
AcDbEntity
8
0-6戸当り
6
CONTINUOUS
62
2
100
AcDbLine
10
1438.244000000000
20
835.299000000000
30
0.0
11
1443.244000000000
21
835.299000000000
31
0.0
0
LINE
5
4f7
100
AcDbEntity
8
0-3RC
6
CONTINUOUS
62
4
100
AcDbLine
10
1443.244000000000
20
819.663000000000
30
0.0
11
1543.244000000000
21
719.663000000000
31
0.0
0
LINE
5
4f8
100
AcDbEntity
8
0-3RC
6
CONTINUOUS
62
4
100
AcDbLine
10
1406.897000000000
20
785.299000000000
30
0.0
11
1506.897000000000
21
685.299000000000
31
0.0
0
LINE
5
4f9
100
AcDbEntity
8
0-3RC
6
CONTINUOUS
62
4
100
AcDbLine
10
1336.187000000000
20
785.299000000000
30
0.0
11
1436.187000000000
21
685.299000000000
31
0.0
0
LINE
5
4fa
100
AcDbEntity
8
0-3RC
6
CONTINUOUS
62
4
100
AcDbLine
10
1265.476000000000
20
785.299000000000
30
0.0
11
1365.476000000000
21
685.299000000000
31
0.0
0
LINE
5
4fb
100
AcDbEntity
8
0-3RC
6
CONTINUOUS
62
4
100
AcDbLine
10
1194.765000000000
20
785.299000000000
30
0.0
11
1294.765000000000
21
685.299000000000
31
0.0
0
LINE
5
4fc
100
AcDbEntity
8
0-3RC
6
CONTINUOUS
62
4
100
AcDbLine
10
1124.054000000000
20
785.299000000000
30
0.0
11
1224.054000000000
21
685.299000000000
31
0.0
0
LINE
5
4fd
100
AcDbEntity
8
0-3RC
6
CONTINUOUS
62
4
100
AcDbLine
10
1053.344000000000
20
785.299000000000
30
0.0
11
1153.344000000000
21
685.299000000000
31
0.0
0
LINE
5
4fe
100
AcDbEntity
8
0-3RC
6
CONTINUOUS
62
4
100
AcDbLine
10
982.633000000000
20
785.299000000000
30
0.0
11
1082.633000000000
21
685.299000000000
31
0.0
0
LINE
5
4ff
100
AcDbEntity
8
0-6戸当り
6
CONTINUOUS
62
3
100
AcDbLine
10
1443.244000000000
20
785.299000000000
30
0.0
11
943.245000000000
21
785.299000000000
31
0.0
0
LINE
5
500
100
AcDbEntity
8
0-6戸当り
6
DOT
62
2
100
AcDbLine
10
948.244000000000
20
829.299000000000
30
0.0
11
943.245000000000
21
829.299000000000
31
0.0
0
LINE
5
501
100
AcDbEntity
8
0-6戸当り
6
CONTINUOUS
62
2
100
AcDbLine
10
948.244000000000
20
835.299000000000
30
0.0
11
943.245000000000
21
835.299000000000
31
0.0
0
LINE
5
502
100
AcDbEntity
8
0-3RC
6
CONTINUOUS
62
4
100
AcDbLine
10
843.244000000000
20
995.399000000000
30
0.0
11
943.245000000000
21
895.399000000000
31
0.0
0
LINE
5
503
100
AcDbEntity
8
0-3RC
6
CONTINUOUS
62
4
100
AcDbLine
10
843.244000000000
20
1066.109000000000
30
0.0
11
943.245000000000
21
966.109000000000
31
0.0
0
LINE
5
504
100
AcDbEntity
8
0-3RC
6
CONTINUOUS
62
4
100
AcDbLine
10
843.244000000000
20
1136.820000000000
30
0.0
11
943.245000000000
21
1036.820000000000
31
0.0
0
LINE
5
505
100
AcDbEntity
8
0-3RC
6
CONTINUOUS
62
4
100
AcDbLine
10
843.244000000000
20
1207.531000000000
30
0.0
11
943.245000000000
21
1107.531000000000
31
0.0
0
LINE
5
506
100
AcDbEntity
8
0-3RC
6
CONTINUOUS
62
4
100
AcDbLine
10
843.244000000000
20
1278.242000000000
30
0.0
11
943.245000000000
21
1178.242000000000
31
0.0
0
LINE
5
507
100
AcDbEntity
8
0-3RC
6
CONTINUOUS
62
4
100
AcDbLine
10
843.244000000000
20
1348.952000000000
30
0.0
11
943.245000000000
21
1248.952000000000
31
0.0
0
LINE
5
508
100
AcDbEntity
8
0-6戸当り
6
CONTINUOUS
62
3
100
AcDbLine
10
943.245000000000
20
785.299000000000
30
0.0
11
943.245000000000
21
1285.299000000000
31
0.0
0
LINE
5
509
100
AcDbEntity
8
0-3RC
6
CONTINUOUS
62
4
100
AcDbLine
10
843.244000000000
20
1419.663000000000
30
0.0
11
977.608000000000
21
1285.299000000000
31
0.0
0
LINE
5
50a
100
AcDbEntity
8
0-6戸当り
6
CONTINUOUS
62
3
100
AcDbLine
10
943.245000000000
20
1285.299000000000
30
0.0
11
1000.244000000000
21
1285.299000000000
31
0.0
0
LINE
5
50b
100
AcDbEntity
8
0-6戸当り
6
CONTINUOUS
62
3
100
AcDbLine
10
1443.244000000000
20
1285.299000000000
30
0.0
11
1443.244000000000
21
785.299000000000
31
0.0
0
LINE
5
50c
100
AcDbEntity
8
0-3RC
6
CONTINUOUS
62
4
100
AcDbLine
10
843.244000000000
20
924.688000000000
30
0.0
11
943.245000000000
21
824.688000000000
31
0.0
0
LINE
5
50d
100
AcDbEntity
8
0-3RC
6
CONTINUOUS
62
7
100
AcDbLine
10
743.244000000000
20
2314.759000000000
30
0.0
11
1643.244000000000
21
2314.759000000000
31
0.0
0
LINE
5
50e
100
AcDbEntity
8
0-8寸法
6
CONTINUOUS
62
4
100
AcDbLine
10
2371.676000000000
20
985.299000000000
30
0.0
11
2280.396000000000
21
985.299000000000
31
0.0
0
LINE
5
50f
100
AcDbEntity
8
0-6戸当り
6
CONTINUOUS
62
2
100
AcDbLine
10
1044.244000000000
20
2246.759000000000
30
0.0
11
1044.244000000000
21
2308.759000000000
31
0.0
0
LINE
5
510
100
AcDbEntity
8
0-6戸当り
6
CONTINUOUS
62
2
100
AcDbLine
10
1082.244000000000
20
2246.759000000000
30
0.0
11
1082.244000000000
21
2308.759000000000
31
0.0
0
LINE
5
511
100
AcDbEntity
8
0-8寸法
6
CONTINUOUS
62
4
100
AcDbLine
10
1063.244000000000
20
1359.939000000000
30
0.0
11
1063.244000000000
21
1645.299000000000
31
0.0
0
LINE
5
512
100
AcDbEntity
8
0-8寸法
6
CONTINUOUS
62
2
100
AcDbLine
10
1523.244000000000
20
2135.299000000000
30
0.0
11
1418.078000000000
21
2299.926000000000
31
0.0
0
LINE
5
513
100
AcDbEntity
8
0-8寸法
6
CONTINUOUS
62
4
100
AcDbLine
10
1708.354000000000
20
385.299000000000
30
0.0
11
2271.676000000000
21
385.299000000000
31
0.0
0
LINE
5
514
100
AcDbEntity
8
0-8寸法
6
CONTINUOUS
62
4
100
AcDbLine
10
2271.676000000000
20
585.299000000000
30
0.0
11
2410.699000000000
21
832.818000000000
31
0.0
0
LINE
5
515
100
AcDbEntity
8
0-5基準線
6
CENTER2
62
7
100
AcDbLine
10
2398.176000000000
20
795.799000000000
30
0.0
11
2377.676000000000
21
795.799000000000
31
0.0
0
LINE
5
516
100
AcDbEntity
8
0-5基準線
6
CENTER2
62
7
100
AcDbLine
10
2411.176000000000
20
808.799000000000
30
0.0
11
2411.176000000000
21
829.299000000000
31
0.0
0
LINE
5
517
100
AcDbEntity
8
0-6戸当り
6
CONTINUOUS
62
3
100
AcDbLine
10
2404.676000000000
20
1261.799000000000
30
0.0
11
2404.676000000000
21
1241.299000000000
31
0.0
0
LINE
5
518
100
AcDbEntity
8
0-6戸当り
6
CONTINUOUS
62
3
100
AcDbLine
10
2417.676000000000
20
1261.799000000000
30
0.0
11
2417.676000000000
21
1241.299000000000
31
0.0
0
LINE
5
519
100
AcDbEntity
8
0-6戸当り
6
CONTINUOUS
62
3
100
AcDbLine
10
2398.176000000000
20
1268.299000000000
30
0.0
11
2377.676000000000
21
1268.299000000000
31
0.0
0
LINE
5
51a
100
AcDbEntity
8
0-6戸当り
6
CONTINUOUS
62
3
100
AcDbLine
10
2398.176000000000
20
1281.299000000000
30
0.0
11
2377.676000000000
21
1281.299000000000
31
0.0
0
LINE
5
51b
100
AcDbEntity
8
0-5基準線
6
CENTER2
62
7
100
AcDbLine
10
2398.176000000000
20
1274.799000000000
30
0.0
11
2374.656000000000
21
1274.799000000000
31
0.0
0
LINE
5
51c
100
AcDbEntity
8
0-5基準線
6
CENTER2
62
7
100
AcDbLine
10
2411.176000000000
20
1261.799000000000
30
0.0
11
2411.176000000000
21
1238.478000000000
31
0.0
0
LINE
5
51d
100
AcDbEntity
8
0-6戸当り
6
CONTINUOUS
62
3
100
AcDbLine
10
2377.676000000000
20
1285.299000000000
30
0.0
11
2371.676000000000
21
1285.299000000000
31
0.0
0
LINE
5
51e
100
AcDbEntity
8
0-5基準線
6
CENTER2
62
7
100
AcDbLine
10
2302.385000000000
20
1325.299000000000
30
0.0
11
2450.676000000000
21
1325.299000000000
31
0.0
0
LINE
5
51f
100
AcDbEntity
8
0-6戸当り
6
CONTINUOUS
62
3
100
AcDbLine
10
2377.676000000000
20
1280.799000000000
30
0.0
11
2377.676000000000
21
1247.799000000000
31
0.0
0
LINE
5
520
100
AcDbEntity
8
0-6戸当り
6
CONTINUOUS
62
3
100
AcDbLine
10
2384.176000000000
20
1241.299000000000
30
0.0
11
2427.676000000000
21
1241.299000000000
31
0.0
0
LINE
5
521
100
AcDbEntity
8
0-6戸当り
6
CONTINUOUS
62
3
100
AcDbLine
10
2377.676000000000
20
1385.299000000000
30
0.0
11
2377.676000000000
21
1285.299000000000
31
0.0
0
POLYLINE
5
522
100
AcDbEntity
8
0-6戸当り
6
CONTINUOUS
62
  3
100
AcDb2dPolyline
66
1
10
0.0
20
0.0
30
0.0
70
0
0
VERTEX
5
523
100
AcDbEntity
8
0-6戸当り
6
CONTINUOUS
62
  3
100
AcDbVertex
100
AcDb2dVertex
10
2377.676000000000
20
1381.299000000000
30
0.0
0
VERTEX
5
524
100
AcDbEntity
8
0-6戸当り
6
CONTINUOUS
62
  3
100
AcDbVertex
100
AcDb2dVertex
10
2427.676000000000
20
1381.299000000000
30
0.0
0
VERTEX
5
525
100
AcDbEntity
8
0-6戸当り
6
CONTINUOUS
62
  3
100
AcDbVertex
100
AcDb2dVertex
10
2427.676000000000
20
1241.299000000000
30
0.0
0
SEQEND
5
526
100
AcDbEntity
8
0-6戸当り
0
LINE
5
527
100
AcDbEntity
8
0-5基準線
6
CENTER2
62
7
100
AcDbLine
10
2440.676000000000
20
1380.299000000000
30
0.0
11
2440.676000000000
21
1360.299000000000
31
0.0
0
LINE
5
528
100
AcDbEntity
8
0-6戸当り
6
CONTINUOUS
62
6
100
AcDbLine
10
2396.676000000000
20
1376.299000000000
30
0.0
11
2396.676000000000
21
1364.299000000000
31
0.0
0
LINE
5
529
100
AcDbEntity
8
0-6戸当り
6
CONTINUOUS
62
7
100
AcDbLine
10
2387.676000000000
20
1379.799000000000
30
0.0
11
2387.676000000000
21
1360.799000000000
31
0.0
0
LINE
5
52a
100
AcDbEntity
8
0-6戸当り
6
CONTINUOUS
62
7
100
AcDbLine
10
2387.676000000000
20
1379.799000000000
30
0.0
11
2386.827000000000
21
1381.269000000000
31
0.0
0
LINE
5
52b
100
AcDbEntity
8
0-6戸当り
6
CONTINUOUS
62
7
100
AcDbLine
10
2387.676000000000
20
1360.799000000000
30
0.0
11
2386.827000000000
21
1359.330000000000
31
0.0
0
LINE
5
52c
100
AcDbEntity
8
0-6戸当り
6
CONTINUOUS
62
7
100
AcDbLine
10
2377.676000000000
20
1381.269000000000
30
0.0
11
2386.827000000000
21
1381.269000000000
31
0.0
0
LINE
5
52d
100
AcDbEntity
8
0-6戸当り
6
CONTINUOUS
62
7
100
AcDbLine
10
2377.676000000000
20
1359.330000000000
30
0.0
11
2386.827000000000
21
1359.330000000000
31
0.0
0
LINE
5
52e
100
AcDbEntity
8
0-6戸当り
6
CONTINUOUS
62
7
100
AcDbLine
10
2377.676000000000
20
1375.784000000000
30
0.0
11
2386.827000000000
21
1375.784000000000
31
0.0
0
LINE
5
52f
100
AcDbEntity
8
0-6戸当り
6
CONTINUOUS
62
7
100
AcDbLine
10
2377.676000000000
20
1364.815000000000
30
0.0
11
2386.827000000000
21
1364.815000000000
31
0.0
0
LINE
5
530
100
AcDbEntity
8
0-6戸当り
6
CONTINUOUS
62
6
100
AcDbLine
10
2387.676000000000
20
1376.299000000000
30
0.0
11
2440.676000000000
21
1376.299000000000
31
0.0
0
LINE
5
531
100
AcDbEntity
8
0-6戸当り
6
CONTINUOUS
62
6
100
AcDbLine
10
2387.676000000000
20
1364.299000000000
30
0.0
11
2440.676000000000
21
1364.299000000000
31
0.0
0
LINE
5
532
100
AcDbEntity
8
0-6戸当り
6
CONTINUOUS
62
6
100
AcDbLine
10
2387.676000000000
20
1375.299000000000
30
0.0
11
2396.676000000000
21
1375.299000000000
31
0.0
0
LINE
5
533
100
AcDbEntity
8
0-6戸当り
6
CONTINUOUS
62
6
100
AcDbLine
10
2387.676000000000
20
1365.299000000000
30
0.0
11
2396.676000000000
21
1365.299000000000
31
0.0
0
LINE
5
534
100
AcDbEntity
8
0-6戸当り
6
CONTINUOUS
62
4
100
AcDbLine
10
2362.676000000000
20
1370.299000000000
30
0.0
11
2365.676000000000
21
1367.300000000000
31
0.0
0
LINE
5
535
100
AcDbEntity
8
0-6戸当り
6
CONTINUOUS
62
4
100
AcDbLine
10
2365.676000000000
20
1370.299000000000
30
0.0
11
2362.676000000000
21
1373.299000000000
31
0.0
0
LINE
5
536
100
AcDbEntity
8
0-6戸当り
6
CONTINUOUS
62
6
100
AcDbLine
10
2341.676000000000
20
1376.300000000000
30
0.0
11
2352.676000000000
21
1376.300000000000
31
0.0
0
LINE
5
537
100
AcDbEntity
8
0-6戸当り
6
CONTINUOUS
62
6
100
AcDbLine
10
2341.676000000000
20
1375.299000000000
30
0.0
11
2352.676000000000
21
1375.299000000000
31
0.0
0
LINE
5
538
100
AcDbEntity
8
0-6戸当り
6
CONTINUOUS
62
6
100
AcDbLine
10
2341.676000000000
20
1365.299000000000
30
0.0
11
2352.676000000000
21
1365.299000000000
31
0.0
0
LINE
5
539
100
AcDbEntity
8
0-6戸当り
6
CONTINUOUS
62
6
100
AcDbLine
10
2341.676000000000
20
1364.299000000000
30
0.0
11
2352.676000000000
21
1364.299000000000
31
0.0
0
LINE
5
53a
100
AcDbEntity
8
0-6戸当り
6
CONTINUOUS
62
7
100
AcDbLine
10
2352.676000000000
20
1360.800000000000
30
0.0
11
2362.676000000000
21
1360.800000000000
31
0.0
0
LINE
5
53b
100
AcDbEntity
8
0-6戸当り
6
CONTINUOUS
62
7
100
AcDbLine
10
2352.676000000000
20
1379.799000000000
30
0.0
11
2362.676000000000
21
1379.799000000000
31
0.0
0
LINE
5
53c
100
AcDbEntity
8
0-6戸当り
6
CONTINUOUS
62
7
100
AcDbLine
10
2352.676000000000
20
1379.799000000000
30
0.0
11
2352.676000000000
21
1360.800000000000
31
0.0
0
LINE
5
53d
100
AcDbEntity
8
0-6戸当り
6
CONTINUOUS
62
7
100
AcDbLine
10
2353.525000000000
20
1370.299000000000
30
0.0
11
2362.676000000000
21
1370.299000000000
31
0.0
0
LINE
5
53e
100
AcDbEntity
8
0-6戸当り
6
CONTINUOUS
62
4
100
AcDbLine
10
2362.676000000000
20
1381.049000000000
30
0.0
11
2365.676000000000
21
1381.049000000000
31
0.0
0
LINE
5
53f
100
AcDbEntity
8
0-6戸当り
6
CONTINUOUS
62
4
100
AcDbLine
10
2362.676000000000
20
1359.549000000000
30
0.0
11
2362.676000000000
21
1381.049000000000
31
0.0
0
LINE
5
540
100
AcDbEntity
8
0-6戸当り
6
CONTINUOUS
62
4
100
AcDbLine
10
2362.676000000000
20
1359.549000000000
30
0.0
11
2365.676000000000
21
1359.549000000000
31
0.0
0
LINE
5
541
100
AcDbEntity
8
0-5基準線
6
CENTER2
62
7
100
AcDbLine
10
2353.525000000000
20
1370.299000000000
30
0.0
11
2340.409000000000
21
1370.299000000000
31
0.0
0
LINE
5
542
100
AcDbEntity
8
0-6戸当り
6
CONTINUOUS
62
6
100
AcDbLine
10
2341.676000000000
20
1376.300000000000
30
0.0
11
2341.676000000000
21
1364.299000000000
31
0.0
0
LINE
5
543
100
AcDbEntity
8
0-9扉体
6
CONTINUOUS
62
3
100
AcDbLine
10
1133.244000000000
20
1284.299000000000
30
0.0
11
993.244000000000
21
1284.299000000000
31
0.0
0
LINE
5
544
100
AcDbEntity
8
0-9扉体
6
CONTINUOUS
62
3
100
AcDbLine
10
1133.244000000000
20
1284.299000000000
30
0.0
11
1133.244000000000
21
1275.299000000000
31
0.0
0
LINE
5
545
100
AcDbEntity
8
0-9扉体
6
CONTINUOUS
62
3
100
AcDbLine
10
993.244000000000
20
1284.299000000000
30
0.0
11
993.244000000000
21
1275.299000000000
31
0.0
0
LINE
5
546
100
AcDbEntity
8
0-6戸当り
6
DOT
62
6
100
AcDbLine
10
1044.244000000000
20
1316.299000000000
30
0.0
11
1082.244000000000
21
1316.299000000000
31
0.0
0
LINE
5
547
100
AcDbEntity
8
0-6戸当り
6
CONTINUOUS
62
6
100
AcDbLine
10
1044.244000000000
20
1308.299000000000
30
0.0
11
1082.244000000000
21
1308.299000000000
31
0.0
0
LINE
5
548
100
AcDbEntity
8
0-6戸当り
6
CONTINUOUS
62
6
100
AcDbLine
10
1044.244000000000
20
1342.299000000000
30
0.0
11
1044.244000000000
21
1308.299000000000
31
0.0
0
POLYLINE
5
549
100
AcDbEntity
8
0-6戸当り
6
CONTINUOUS
62
  6
100
AcDb2dPolyline
66
1
10
0.0
20
0.0
30
0.0
70
0
0
VERTEX
5
54a
100
AcDbEntity
8
0-6戸当り
6
CONTINUOUS
62
  6
100
AcDbVertex
100
AcDb2dVertex
10
1044.244000000000
20
1342.299000000000
30
0.0
0
VERTEX
5
54b
100
AcDbEntity
8
0-6戸当り
6
CONTINUOUS
62
  6
100
AcDbVertex
100
AcDb2dVertex
10
1082.244000000000
20
1342.299000000000
30
0.0
0
VERTEX
5
54c
100
AcDbEntity
8
0-6戸当り
6
CONTINUOUS
62
  6
100
AcDbVertex
100
AcDb2dVertex
10
1082.244000000000
20
1308.299000000000
30
0.0
0
SEQEND
5
54d
100
AcDbEntity
8
0-6戸当り
0
LINE
5
54e
100
AcDbEntity
8
0-9扉体
6
CONTINUOUS
62
6
100
AcDbLine
10
1030.644000000000
20
1341.299000000000
30
0.0
11
1030.644000000000
21
1309.299000000000
31
0.0
0
LINE
5
54f
100
AcDbEntity
8
0-9扉体
6
CONTINUOUS
62
6
100
AcDbLine
10
1030.644000000000
20
1341.299000000000
30
0.0
11
1033.244000000000
21
1341.299000000000
31
0.0
0
LINE
5
550
100
AcDbEntity
8
0-9扉体
6
CONTINUOUS
62
6
100
AcDbLine
10
1030.644000000000
20
1309.299000000000
30
0.0
11
1033.244000000000
21
1309.299000000000
31
0.0
0
LINE
5
551
100
AcDbEntity
8
0-9扉体
6
CONTINUOUS
62
6
100
AcDbLine
10
1019.744000000000
20
1333.299000000000
30
0.0
11
1019.744000000000
21
1317.299000000000
31
0.0
0
LINE
5
552
100
AcDbEntity
8
0-9扉体
6
CONTINUOUS
62
6
100
AcDbLine
10
1019.744000000000
20
1333.299000000000
30
0.0
11
1030.644000000000
21
1333.299000000000
31
0.0
0
LINE
5
553
100
AcDbEntity
8
0-9扉体
6
CONTINUOUS
62
6
100
AcDbLine
10
1019.744000000000
20
1317.299000000000
30
0.0
11
1030.644000000000
21
1317.299000000000
31
0.0
0
LINE
5
554
100
AcDbEntity
8
0-9扉体
6
CONTINUOUS
62
6
100
AcDbLine
10
1042.244000000000
20
1317.299000000000
30
0.0
11
1044.244000000000
21
1317.299000000000
31
0.0
0
LINE
5
555
100
AcDbEntity
8
0-6戸当り
6
DOT
62
6
100
AcDbLine
10
1044.244000000000
20
1334.299000000000
30
0.0
11
1082.244000000000
21
1334.299000000000
31
0.0
0
LINE
5
556
100
AcDbEntity
8
0-9扉体
6
CONTINUOUS
62
6
100
AcDbLine
10
1042.244000000000
20
1333.299000000000
30
0.0
11
1044.244000000000
21
1333.299000000000
31
0.0
0
LINE
5
557
100
AcDbEntity
8
0-9扉体
6
CONTINUOUS
62
6
100
AcDbLine
10
1095.844000000000
20
1341.299000000000
30
0.0
11
1095.844000000000
21
1309.299000000000
31
0.0
0
LINE
5
558
100
AcDbEntity
8
0-9扉体
6
CONTINUOUS
62
6
100
AcDbLine
10
1095.844000000000
20
1341.299000000000
30
0.0
11
1093.244000000000
21
1341.299000000000
31
0.0
0
LINE
5
559
100
AcDbEntity
8
0-9扉体
6
CONTINUOUS
62
6
100
AcDbLine
10
1095.844000000000
20
1309.299000000000
30
0.0
11
1093.244000000000
21
1309.299000000000
31
0.0
0
LINE
5
55a
100
AcDbEntity
8
0-9扉体
6
CONTINUOUS
62
6
100
AcDbLine
10
1106.744000000000
20
1333.299000000000
30
0.0
11
1106.744000000000
21
1317.299000000000
31
0.0
0
LINE
5
55b
100
AcDbEntity
8
0-9扉体
6
CONTINUOUS
62
6
100
AcDbLine
10
1106.744000000000
20
1333.299000000000
30
0.0
11
1095.844000000000
21
1333.299000000000
31
0.0
0
LINE
5
55c
100
AcDbEntity
8
0-9扉体
6
CONTINUOUS
62
6
100
AcDbLine
10
1106.744000000000
20
1317.299000000000
30
0.0
11
1095.844000000000
21
1317.299000000000
31
0.0
0
LINE
5
55d
100
AcDbEntity
8
0-9扉体
6
CONTINUOUS
62
6
100
AcDbLine
10
1084.244000000000
20
1317.299000000000
30
0.0
11
1082.244000000000
21
1317.299000000000
31
0.0
0
LINE
5
55e
100
AcDbEntity
8
0-9扉体
6
CONTINUOUS
62
6
100
AcDbLine
10
1084.244000000000
20
1333.299000000000
30
0.0
11
1082.244000000000
21
1333.299000000000
31
0.0
0
LINE
5
55f
100
AcDbEntity
8
0-9扉体
6
CONTINUOUS
62
7
100
AcDbLine
10
1003.744000000000
20
1299.599000000000
30
0.0
11
1003.744000000000
21
1289.599000000000
31
0.0
0
LINE
5
560
100
AcDbEntity
8
0-9扉体
6
CONTINUOUS
62
7
100
AcDbLine
10
1022.744000000000
20
1299.599000000000
30
0.0
11
1022.744000000000
21
1289.599000000000
31
0.0
0
LINE
5
561
100
AcDbEntity
8
0-9扉体
6
CONTINUOUS
62
7
100
AcDbLine
10
1022.744000000000
20
1299.599000000000
30
0.0
11
1003.744000000000
21
1299.599000000000
31
0.0
0
LINE
5
562
100
AcDbEntity
8
0-9扉体
6
CONTINUOUS
62
7
100
AcDbLine
10
1013.244000000000
20
1298.751000000000
30
0.0
11
1013.244000000000
21
1289.599000000000
31
0.0
0
LINE
5
563
100
AcDbEntity
8
0-9扉体
6
CONTINUOUS
62
4
100
AcDbLine
10
1000.244000000000
20
1286.599000000000
30
0.0
11
1026.244000000000
21
1286.599000000000
31
0.0
0
LINE
5
564
100
AcDbEntity
8
0-9扉体
6
CONTINUOUS
62
4
100
AcDbLine
10
1000.244000000000
20
1286.599000000000
30
0.0
11
1000.244000000000
21
1284.299000000000
31
0.0
0
LINE
5
565
100
AcDbEntity
8
0-9扉体
6
CONTINUOUS
62
4
100
AcDbLine
10
1026.244000000000
20
1286.599000000000
30
0.0
11
1026.244000000000
21
1284.299000000000
31
0.0
0
LINE
5
566
100
AcDbEntity
8
0-9扉体
6
CONTINUOUS
62
4
100
AcDbLine
10
1007.244000000000
20
1309.299000000000
30
0.0
11
1019.244000000000
21
1309.299000000000
31
0.0
0
LINE
5
567
100
AcDbEntity
8
0-9扉体
6
CONTINUOUS
62
4
100
AcDbLine
10
1007.244000000000
20
1309.299000000000
30
0.0
11
1007.244000000000
21
1299.599000000000
31
0.0
0
LINE
5
568
100
AcDbEntity
8
0-9扉体
6
CONTINUOUS
62
4
100
AcDbLine
10
1019.244000000000
20
1309.299000000000
30
0.0
11
1019.244000000000
21
1299.599000000000
31
0.0
0
LINE
5
569
100
AcDbEntity
8
0-9扉体
6
CONTINUOUS
62
4
100
AcDbLine
10
1008.244000000000
20
1309.299000000000
30
0.0
11
1008.244000000000
21
1299.599000000000
31
0.0
0
LINE
5
56a
100
AcDbEntity
8
0-9扉体
6
CONTINUOUS
62
4
100
AcDbLine
10
1018.244000000000
20
1309.299000000000
30
0.0
11
1018.244000000000
21
1299.599000000000
31
0.0
0
LINE
5
56b
100
AcDbEntity
8
0-9扉体
6
CONTINUOUS
62
4
100
AcDbLine
10
1013.244000000000
20
1289.599000000000
30
0.0
11
1010.244000000000
21
1286.599000000000
31
0.0
0
LINE
5
56c
100
AcDbEntity
8
0-9扉体
6
CONTINUOUS
62
4
100
AcDbLine
10
1013.244000000000
20
1286.599000000000
30
0.0
11
1016.244000000000
21
1289.599000000000
31
0.0
0
LINE
5
56d
100
AcDbEntity
8
0-9扉体
6
CONTINUOUS
62
4
100
AcDbLine
10
1002.494000000000
20
1289.599000000000
30
0.0
11
1002.494000000000
21
1286.599000000000
31
0.0
0
POLYLINE
5
56e
100
AcDbEntity
8
0-9扉体
6
CONTINUOUS
62
  4
100
AcDb2dPolyline
66
1
10
0.0
20
0.0
30
0.0
70
0
0
VERTEX
5
56f
100
AcDbEntity
8
0-9扉体
6
CONTINUOUS
62
  4
100
AcDbVertex
100
AcDb2dVertex
10
1002.494000000000
20
1289.599000000000
30
0.0
0
VERTEX
5
570
100
AcDbEntity
8
0-9扉体
6
CONTINUOUS
62
  4
100
AcDbVertex
100
AcDb2dVertex
10
1023.994000000000
20
1289.599000000000
30
0.0
0
VERTEX
5
571
100
AcDbEntity
8
0-9扉体
6
CONTINUOUS
62
  4
100
AcDbVertex
100
AcDb2dVertex
10
1023.994000000000
20
1286.599000000000
30
0.0
0
SEQEND
5
572
100
AcDbEntity
8
0-9扉体
0
LINE
5
573
100
AcDbEntity
8
0-5基準線
6
CENTER2
62
7
100
AcDbLine
10
1013.244000000000
20
1312.254000000000
30
0.0
11
1013.244000000000
21
1298.751000000000
31
0.0
0
LINE
5
574
100
AcDbEntity
8
0-9扉体
6
CONTINUOUS
62
7
100
AcDbLine
10
1122.744000000000
20
1299.599000000000
30
0.0
11
1122.744000000000
21
1289.599000000000
31
0.0
0
LINE
5
575
100
AcDbEntity
8
0-9扉体
6
CONTINUOUS
62
7
100
AcDbLine
10
1103.744000000000
20
1299.599000000000
30
0.0
11
1103.744000000000
21
1289.599000000000
31
0.0
0
LINE
5
576
100
AcDbEntity
8
0-9扉体
6
CONTINUOUS
62
7
100
AcDbLine
10
1103.744000000000
20
1299.599000000000
30
0.0
11
1122.744000000000
21
1299.599000000000
31
0.0
0
LINE
5
577
100
AcDbEntity
8
0-9扉体
6
CONTINUOUS
62
7
100
AcDbLine
10
1113.244000000000
20
1298.751000000000
30
0.0
11
1113.244000000000
21
1289.599000000000
31
0.0
0
LINE
5
578
100
AcDbEntity
8
0-9扉体
6
CONTINUOUS
62
4
100
AcDbLine
10
1126.244000000000
20
1286.599000000000
30
0.0
11
1100.244000000000
21
1286.599000000000
31
0.0
0
LINE
5
579
100
AcDbEntity
8
0-9扉体
6
CONTINUOUS
62
4
100
AcDbLine
10
1126.244000000000
20
1286.599000000000
30
0.0
11
1126.244000000000
21
1284.299000000000
31
0.0
0
LINE
5
57a
100
AcDbEntity
8
0-9扉体
6
CONTINUOUS
62
4
100
AcDbLine
10
1100.244000000000
20
1286.599000000000
30
0.0
11
1100.244000000000
21
1284.299000000000
31
0.0
0
LINE
5
57b
100
AcDbEntity
8
0-9扉体
6
CONTINUOUS
62
4
100
AcDbLine
10
1119.244000000000
20
1309.299000000000
30
0.0
11
1107.244000000000
21
1309.299000000000
31
0.0
0
LINE
5
57c
100
AcDbEntity
8
0-9扉体
6
CONTINUOUS
62
4
100
AcDbLine
10
1119.244000000000
20
1309.299000000000
30
0.0
11
1119.244000000000
21
1299.599000000000
31
0.0
0
LINE
5
57d
100
AcDbEntity
8
0-9扉体
6
CONTINUOUS
62
4
100
AcDbLine
10
1107.244000000000
20
1309.299000000000
30
0.0
11
1107.244000000000
21
1299.599000000000
31
0.0
0
LINE
5
57e
100
AcDbEntity
8
0-9扉体
6
CONTINUOUS
62
4
100
AcDbLine
10
1118.244000000000
20
1309.299000000000
30
0.0
11
1118.244000000000
21
1299.599000000000
31
0.0
0
LINE
5
57f
100
AcDbEntity
8
0-9扉体
6
CONTINUOUS
62
4
100
AcDbLine
10
1108.244000000000
20
1309.299000000000
30
0.0
11
1108.244000000000
21
1299.599000000000
31
0.0
0
LINE
5
580
100
AcDbEntity
8
0-9扉体
6
CONTINUOUS
62
4
100
AcDbLine
10
1113.244000000000
20
1289.599000000000
30
0.0
11
1116.244000000000
21
1286.599000000000
31
0.0
0
LINE
5
581
100
AcDbEntity
8
0-9扉体
6
CONTINUOUS
62
4
100
AcDbLine
10
1113.244000000000
20
1286.599000000000
30
0.0
11
1110.244000000000
21
1289.599000000000
31
0.0
0
LINE
5
582
100
AcDbEntity
8
0-9扉体
6
CONTINUOUS
62
4
100
AcDbLine
10
1123.994000000000
20
1289.599000000000
30
0.0
11
1123.994000000000
21
1286.599000000000
31
0.0
0
POLYLINE
5
583
100
AcDbEntity
8
0-9扉体
6
CONTINUOUS
62
  4
100
AcDb2dPolyline
66
1
10
0.0
20
0.0
30
0.0
70
0
0
VERTEX
5
584
100
AcDbEntity
8
0-9扉体
6
CONTINUOUS
62
  4
100
AcDbVertex
100
AcDb2dVertex
10
1123.994000000000
20
1289.599000000000
30
0.0
0
VERTEX
5
585
100
AcDbEntity
8
0-9扉体
6
CONTINUOUS
62
  4
100
AcDbVertex
100
AcDb2dVertex
10
1102.494000000000
20
1289.599000000000
30
0.0
0
VERTEX
5
586
100
AcDbEntity
8
0-9扉体
6
CONTINUOUS
62
  4
100
AcDbVertex
100
AcDb2dVertex
10
1102.494000000000
20
1286.599000000000
30
0.0
0
SEQEND
5
587
100
AcDbEntity
8
0-9扉体
0
LINE
5
588
100
AcDbEntity
8
0-5基準線
6
CENTER2
62
7
100
AcDbLine
10
1113.244000000000
20
1312.254000000000
30
0.0
11
1113.244000000000
21
1298.751000000000
31
0.0
0
LINE
5
589
100
AcDbEntity
8
0-9扉体
6
CONTINUOUS
62
3
100
AcDbLine
10
1084.244000000000
20
1285.299000000000
30
0.0
11
1042.244000000000
21
1285.299000000000
31
0.0
0
LINE
5
58a
100
AcDbEntity
8
0-6戸当り
6
DOT
62
2
100
AcDbLine
10
992.245000000000
20
1280.299000000000
30
0.0
11
992.245000000000
21
1285.299000000000
31
0.0
0
LINE
5
58b
100
AcDbEntity
8
0-6戸当り
6
CONTINUOUS
62
2
100
AcDbLine
10
998.244000000000
20
1284.299000000000
30
0.0
11
998.244000000000
21
1285.299000000000
31
0.0
0
LINE
5
58c
100
AcDbEntity
8
0-9扉体
6
CONTINUOUS
62
3
100
AcDbLine
10
1100.244000000000
20
1285.299000000000
30
0.0
11
1093.244000000000
21
1285.299000000000
31
0.0
0
LINE
5
58d
100
AcDbEntity
8
0-9扉体
6
CONTINUOUS
62
3
100
AcDbLine
10
1033.244000000000
20
1285.299000000000
30
0.0
11
1026.244000000000
21
1285.299000000000
31
0.0
0
LINE
5
58e
100
AcDbEntity
8
0-5基準線
6
CENTER2
62
7
100
AcDbLine
10
991.563000000000
20
1325.299000000000
30
0.0
11
1135.244000000000
21
1325.299000000000
31
0.0
0
LINE
5
58f
100
AcDbEntity
8
0-5基準線
6
CENTER2
62
7
100
AcDbLine
10
1113.244000000000
20
1289.599000000000
30
0.0
11
1113.244000000000
21
1257.077000000000
31
0.0
0
LINE
5
590
100
AcDbEntity
8
0-5基準線
6
CENTER2
62
7
100
AcDbLine
10
1013.244000000000
20
1289.599000000000
30
0.0
11
1013.244000000000
21
1257.077000000000
31
0.0
0
LINE
5
591
100
AcDbEntity
8
0-5基準線
6
CENTER2
62
7
100
AcDbLine
10
1063.244000000000
20
1360.845000000000
30
0.0
11
1063.244000000000
21
1257.077000000000
31
0.0
0
LINE
5
592
100
AcDbEntity
8
0-9扉体
6
CONTINUOUS
62
3
100
AcDbLine
10
1033.244000000000
20
1345.299000000000
30
0.0
11
1033.244000000000
21
1284.299000000000
31
0.0
0
POLYLINE
5
593
100
AcDbEntity
8
0-9扉体
6
CONTINUOUS
62
  3
100
AcDb2dPolyline
66
1
10
0.0
20
0.0
30
0.0
70
0
0
VERTEX
5
594
100
AcDbEntity
8
0-9扉体
6
CONTINUOUS
62
  3
100
AcDbVertex
100
AcDb2dVertex
10
1033.244000000000
20
1345.299000000000
30
0.0
0
VERTEX
5
595
100
AcDbEntity
8
0-9扉体
6
CONTINUOUS
62
  3
100
AcDbVertex
100
AcDb2dVertex
10
1042.244000000000
20
1345.299000000000
30
0.0
0
VERTEX
5
596
100
AcDbEntity
8
0-9扉体
6
CONTINUOUS
62
  3
100
AcDbVertex
100
AcDb2dVertex
10
1042.244000000000
20
1284.299000000000
30
0.0
0
SEQEND
5
597
100
AcDbEntity
8
0-9扉体
0
LINE
5
598
100
AcDbEntity
8
0-9扉体
6
CONTINUOUS
62
3
100
AcDbLine
10
1084.244000000000
20
1345.299000000000
30
0.0
11
1084.244000000000
21
1284.299000000000
31
0.0
0
LINE
5
599
100
AcDbEntity
8
0-9扉体
6
CONTINUOUS
62
3
100
AcDbLine
10
1093.244000000000
20
1345.299000000000
30
0.0
11
1084.244000000000
21
1345.299000000000
31
0.0
0
LINE
5
59a
100
AcDbEntity
8
0-9扉体
6
CONTINUOUS
62
3
100
AcDbLine
10
1093.244000000000
20
1345.299000000000
30
0.0
11
1093.244000000000
21
1284.299000000000
31
0.0
0
LINE
5
59b
100
AcDbEntity
8
0-6戸当り
6
CONTINUOUS
62
3
100
AcDbLine
10
1003.244000000000
20
1385.299000000000
30
0.0
11
1123.244000000000
21
1385.299000000000
31
0.0
0
LINE
5
59c
100
AcDbEntity
8
0-6戸当り
6
CONTINUOUS
62
7
100
AcDbLine
10
1025.244000000000
20
1375.784000000000
30
0.0
11
1015.744000000000
21
1381.269000000000
31
0.0
0
LINE
5
59d
100
AcDbEntity
8
0-6戸当り
6
CONTINUOUS
62
7
100
AcDbLine
10
1025.244000000000
20
1375.784000000000
30
0.0
11
1025.244000000000
21
1364.814000000000
31
0.0
0
LINE
5
59e
100
AcDbEntity
8
0-6戸当り
6
CONTINUOUS
62
7
100
AcDbLine
10
1015.744000000000
20
1359.330000000000
30
0.0
11
1025.244000000000
21
1364.814000000000
31
0.0
0
POLYLINE
5
59f
100
AcDbEntity
8
0-6戸当り
6
CONTINUOUS
62
  7
100
AcDb2dPolyline
66
1
10
0.0
20
0.0
30
0.0
70
0
0
VERTEX
5
5a0
100
AcDbEntity
8
0-6戸当り
6
CONTINUOUS
62
  7
100
AcDbVertex
100
AcDb2dVertex
10
1015.744000000000
20
1359.330000000000
30
0.0
0
VERTEX
5
5a1
100
AcDbEntity
8
0-6戸当り
6
CONTINUOUS
62
  7
100
AcDbVertex
100
AcDb2dVertex
10
1006.244000000000
20
1364.814000000000
30
0.0
0
VERTEX
5
5a2
100
AcDbEntity
8
0-6戸当り
6
CONTINUOUS
62
  7
100
AcDbVertex
100
AcDb2dVertex
10
1006.244000000000
20
1375.784000000000
30
0.0
0
VERTEX
5
5a3
100
AcDbEntity
8
0-6戸当り
6
CONTINUOUS
62
  7
100
AcDbVertex
100
AcDb2dVertex
10
1015.744000000000
20
1381.269000000000
30
0.0
0
SEQEND
5
5a4
100
AcDbEntity
8
0-6戸当り
0
LINE
5
5a5
100
AcDbEntity
8
0-5基準線
6
CENTER2
62
7
100
AcDbLine
10
1015.744000000000
20
1382.299000000000
30
0.0
11
1015.744000000000
21
1358.299000000000
31
0.0
0
LINE
5
5a6
100
AcDbEntity
8
0-5基準線
6
CENTER2
62
7
100
AcDbLine
10
1001.964000000000
20
1370.299000000000
30
0.0
11
1031.497000000000
21
1370.299000000000
31
0.0
0
LINE
5
5a7
100
AcDbEntity
8
0-6戸当り
6
CONTINUOUS
62
7
100
AcDbLine
10
1101.244000000000
20
1375.784000000000
30
0.0
11
1110.744000000000
21
1381.269000000000
31
0.0
0
LINE
5
5a8
100
AcDbEntity
8
0-6戸当り
6
CONTINUOUS
62
7
100
AcDbLine
10
1101.244000000000
20
1375.784000000000
30
0.0
11
1101.244000000000
21
1364.814000000000
31
0.0
0
LINE
5
5a9
100
AcDbEntity
8
0-6戸当り
6
CONTINUOUS
62
7
100
AcDbLine
10
1110.744000000000
20
1359.330000000000
30
0.0
11
1101.244000000000
21
1364.814000000000
31
0.0
0
POLYLINE
5
5aa
100
AcDbEntity
8
0-6戸当り
6
CONTINUOUS
62
  7
100
AcDb2dPolyline
66
1
10
0.0
20
0.0
30
0.0
70
0
0
VERTEX
5
5ab
100
AcDbEntity
8
0-6戸当り
6
CONTINUOUS
62
  7
100
AcDbVertex
100
AcDb2dVertex
10
1110.744000000000
20
1359.330000000000
30
0.0
0
VERTEX
5
5ac
100
AcDbEntity
8
0-6戸当り
6
CONTINUOUS
62
  7
100
AcDbVertex
100
AcDb2dVertex
10
1120.244000000000
20
1364.814000000000
30
0.0
0
VERTEX
5
5ad
100
AcDbEntity
8
0-6戸当り
6
CONTINUOUS
62
  7
100
AcDbVertex
100
AcDb2dVertex
10
1120.244000000000
20
1375.784000000000
30
0.0
0
VERTEX
5
5ae
100
AcDbEntity
8
0-6戸当り
6
CONTINUOUS
62
  7
100
AcDbVertex
100
AcDb2dVertex
10
1110.744000000000
20
1381.269000000000
30
0.0
0
SEQEND
5
5af
100
AcDbEntity
8
0-6戸当り
0
LINE
5
5b0
100
AcDbEntity
8
0-5基準線
6
CENTER2
62
7
100
AcDbLine
10
1110.744000000000
20
1382.299000000000
30
0.0
11
1110.744000000000
21
1358.299000000000
31
0.0
0
LINE
5
5b1
100
AcDbEntity
8
0-5基準線
6
CENTER2
62
7
100
AcDbLine
10
1124.525000000000
20
1370.299000000000
30
0.0
11
1094.991000000000
21
1370.299000000000
31
0.0
0
LINE
5
5b2
100
AcDbEntity
8
0-6戸当り
6
CONTINUOUS
62
3
100
AcDbLine
10
1003.244000000000
20
1385.299000000000
30
0.0
11
1003.244000000000
21
1302.302000000000
31
0.0
0
LINE
5
5b3
100
AcDbEntity
8
0-6戸当り
6
CONTINUOUS
62
3
100
AcDbLine
10
1123.244000000000
20
1385.299000000000
30
0.0
11
1123.244000000000
21
1303.572000000000
31
0.0
0
LINE
5
5b4
100
AcDbEntity
8
0-9扉体
6
CONTINUOUS
62
3
100
AcDbLine
10
1393.244000000000
20
1284.299000000000
30
0.0
11
1253.244000000000
21
1284.299000000000
31
0.0
0
LINE
5
5b5
100
AcDbEntity
8
0-9扉体
6
CONTINUOUS
62
3
100
AcDbLine
10
1393.244000000000
20
1284.299000000000
30
0.0
11
1393.244000000000
21
1275.299000000000
31
0.0
0
LINE
5
5b6
100
AcDbEntity
8
0-9扉体
6
CONTINUOUS
62
3
100
AcDbLine
10
1253.244000000000
20
1284.299000000000
30
0.0
11
1253.244000000000
21
1275.299000000000
31
0.0
0
LINE
5
5b7
100
AcDbEntity
8
0-6戸当り
6
DOT
62
6
100
AcDbLine
10
1304.244000000000
20
1316.299000000000
30
0.0
11
1342.244000000000
21
1316.299000000000
31
0.0
0
LINE
5
5b8
100
AcDbEntity
8
0-6戸当り
6
CONTINUOUS
62
6
100
AcDbLine
10
1304.244000000000
20
1308.299000000000
30
0.0
11
1342.244000000000
21
1308.299000000000
31
0.0
0
LINE
5
5b9
100
AcDbEntity
8
0-6戸当り
6
CONTINUOUS
62
6
100
AcDbLine
10
1304.244000000000
20
1342.299000000000
30
0.0
11
1304.244000000000
21
1308.299000000000
31
0.0
0
POLYLINE
5
5ba
100
AcDbEntity
8
0-6戸当り
6
CONTINUOUS
62
  6
100
AcDb2dPolyline
66
1
10
0.0
20
0.0
30
0.0
70
0
0
VERTEX
5
5bb
100
AcDbEntity
8
0-6戸当り
6
CONTINUOUS
62
  6
100
AcDbVertex
100
AcDb2dVertex
10
1304.244000000000
20
1342.299000000000
30
0.0
0
VERTEX
5
5bc
100
AcDbEntity
8
0-6戸当り
6
CONTINUOUS
62
  6
100
AcDbVertex
100
AcDb2dVertex
10
1342.244000000000
20
1342.299000000000
30
0.0
0
VERTEX
5
5bd
100
AcDbEntity
8
0-6戸当り
6
CONTINUOUS
62
  6
100
AcDbVertex
100
AcDb2dVertex
10
1342.244000000000
20
1308.299000000000
30
0.0
0
SEQEND
5
5be
100
AcDbEntity
8
0-6戸当り
0
LINE
5
5bf
100
AcDbEntity
8
0-9扉体
6
CONTINUOUS
62
6
100
AcDbLine
10
1290.644000000000
20
1341.299000000000
30
0.0
11
1290.644000000000
21
1309.299000000000
31
0.0
0
LINE
5
5c0
100
AcDbEntity
8
0-9扉体
6
CONTINUOUS
62
6
100
AcDbLine
10
1290.644000000000
20
1341.299000000000
30
0.0
11
1293.244000000000
21
1341.299000000000
31
0.0
0
LINE
5
5c1
100
AcDbEntity
8
0-9扉体
6
CONTINUOUS
62
6
100
AcDbLine
10
1290.644000000000
20
1309.299000000000
30
0.0
11
1293.244000000000
21
1309.299000000000
31
0.0
0
LINE
5
5c2
100
AcDbEntity
8
0-9扉体
6
CONTINUOUS
62
6
100
AcDbLine
10
1279.744000000000
20
1333.299000000000
30
0.0
11
1279.744000000000
21
1317.299000000000
31
0.0
0
LINE
5
5c3
100
AcDbEntity
8
0-9扉体
6
CONTINUOUS
62
6
100
AcDbLine
10
1279.744000000000
20
1333.299000000000
30
0.0
11
1290.644000000000
21
1333.299000000000
31
0.0
0
LINE
5
5c4
100
AcDbEntity
8
0-9扉体
6
CONTINUOUS
62
6
100
AcDbLine
10
1279.744000000000
20
1317.299000000000
30
0.0
11
1290.644000000000
21
1317.299000000000
31
0.0
0
LINE
5
5c5
100
AcDbEntity
8
0-9扉体
6
CONTINUOUS
62
6
100
AcDbLine
10
1302.244000000000
20
1317.299000000000
30
0.0
11
1304.244000000000
21
1317.299000000000
31
0.0
0
LINE
5
5c6
100
AcDbEntity
8
0-6戸当り
6
DOT
62
6
100
AcDbLine
10
1304.244000000000
20
1334.299000000000
30
0.0
11
1342.244000000000
21
1334.299000000000
31
0.0
0
LINE
5
5c7
100
AcDbEntity
8
0-9扉体
6
CONTINUOUS
62
6
100
AcDbLine
10
1302.244000000000
20
1333.299000000000
30
0.0
11
1304.244000000000
21
1333.299000000000
31
0.0
0
LINE
5
5c8
100
AcDbEntity
8
0-9扉体
6
CONTINUOUS
62
6
100
AcDbLine
10
1355.844000000000
20
1341.299000000000
30
0.0
11
1355.844000000000
21
1309.299000000000
31
0.0
0
LINE
5
5c9
100
AcDbEntity
8
0-9扉体
6
CONTINUOUS
62
6
100
AcDbLine
10
1355.844000000000
20
1341.299000000000
30
0.0
11
1353.244000000000
21
1341.299000000000
31
0.0
0
LINE
5
5ca
100
AcDbEntity
8
0-9扉体
6
CONTINUOUS
62
6
100
AcDbLine
10
1355.844000000000
20
1309.299000000000
30
0.0
11
1353.244000000000
21
1309.299000000000
31
0.0
0
LINE
5
5cb
100
AcDbEntity
8
0-9扉体
6
CONTINUOUS
62
6
100
AcDbLine
10
1366.744000000000
20
1333.299000000000
30
0.0
11
1366.744000000000
21
1317.299000000000
31
0.0
0
LINE
5
5cc
100
AcDbEntity
8
0-9扉体
6
CONTINUOUS
62
6
100
AcDbLine
10
1366.744000000000
20
1333.299000000000
30
0.0
11
1355.844000000000
21
1333.299000000000
31
0.0
0
LINE
5
5cd
100
AcDbEntity
8
0-9扉体
6
CONTINUOUS
62
6
100
AcDbLine
10
1366.744000000000
20
1317.299000000000
30
0.0
11
1355.844000000000
21
1317.299000000000
31
0.0
0
LINE
5
5ce
100
AcDbEntity
8
0-9扉体
6
CONTINUOUS
62
6
100
AcDbLine
10
1344.244000000000
20
1317.299000000000
30
0.0
11
1342.244000000000
21
1317.299000000000
31
0.0
0
LINE
5
5cf
100
AcDbEntity
8
0-9扉体
6
CONTINUOUS
62
6
100
AcDbLine
10
1344.244000000000
20
1333.299000000000
30
0.0
11
1342.244000000000
21
1333.299000000000
31
0.0
0
LINE
5
5d0
100
AcDbEntity
8
0-9扉体
6
CONTINUOUS
62
7
100
AcDbLine
10
1263.744000000000
20
1299.599000000000
30
0.0
11
1263.744000000000
21
1289.599000000000
31
0.0
0
LINE
5
5d1
100
AcDbEntity
8
0-9扉体
6
CONTINUOUS
62
7
100
AcDbLine
10
1282.744000000000
20
1299.599000000000
30
0.0
11
1282.744000000000
21
1289.599000000000
31
0.0
0
LINE
5
5d2
100
AcDbEntity
8
0-9扉体
6
CONTINUOUS
62
7
100
AcDbLine
10
1282.744000000000
20
1299.599000000000
30
0.0
11
1263.744000000000
21
1299.599000000000
31
0.0
0
LINE
5
5d3
100
AcDbEntity
8
0-9扉体
6
CONTINUOUS
62
7
100
AcDbLine
10
1273.244000000000
20
1298.751000000000
30
0.0
11
1273.244000000000
21
1289.599000000000
31
0.0
0
LINE
5
5d4
100
AcDbEntity
8
0-9扉体
6
CONTINUOUS
62
4
100
AcDbLine
10
1260.244000000000
20
1286.599000000000
30
0.0
11
1286.244000000000
21
1286.599000000000
31
0.0
0
LINE
5
5d5
100
AcDbEntity
8
0-9扉体
6
CONTINUOUS
62
4
100
AcDbLine
10
1260.244000000000
20
1286.599000000000
30
0.0
11
1260.244000000000
21
1284.299000000000
31
0.0
0
LINE
5
5d6
100
AcDbEntity
8
0-9扉体
6
CONTINUOUS
62
4
100
AcDbLine
10
1286.244000000000
20
1286.599000000000
30
0.0
11
1286.244000000000
21
1284.299000000000
31
0.0
0
LINE
5
5d7
100
AcDbEntity
8
0-9扉体
6
CONTINUOUS
62
4
100
AcDbLine
10
1267.244000000000
20
1309.299000000000
30
0.0
11
1279.244000000000
21
1309.299000000000
31
0.0
0
LINE
5
5d8
100
AcDbEntity
8
0-9扉体
6
CONTINUOUS
62
4
100
AcDbLine
10
1267.244000000000
20
1309.299000000000
30
0.0
11
1267.244000000000
21
1299.599000000000
31
0.0
0
LINE
5
5d9
100
AcDbEntity
8
0-9扉体
6
CONTINUOUS
62
4
100
AcDbLine
10
1279.244000000000
20
1309.299000000000
30
0.0
11
1279.244000000000
21
1299.599000000000
31
0.0
0
LINE
5
5da
100
AcDbEntity
8
0-9扉体
6
CONTINUOUS
62
4
100
AcDbLine
10
1268.244000000000
20
1309.299000000000
30
0.0
11
1268.244000000000
21
1299.599000000000
31
0.0
0
LINE
5
5db
100
AcDbEntity
8
0-9扉体
6
CONTINUOUS
62
4
100
AcDbLine
10
1278.244000000000
20
1309.299000000000
30
0.0
11
1278.244000000000
21
1299.599000000000
31
0.0
0
LINE
5
5dc
100
AcDbEntity
8
0-9扉体
6
CONTINUOUS
62
4
100
AcDbLine
10
1273.244000000000
20
1289.599000000000
30
0.0
11
1270.244000000000
21
1286.599000000000
31
0.0
0
LINE
5
5dd
100
AcDbEntity
8
0-9扉体
6
CONTINUOUS
62
4
100
AcDbLine
10
1273.244000000000
20
1286.599000000000
30
0.0
11
1276.244000000000
21
1289.599000000000
31
0.0
0
LINE
5
5de
100
AcDbEntity
8
0-9扉体
6
CONTINUOUS
62
4
100
AcDbLine
10
1262.494000000000
20
1289.599000000000
30
0.0
11
1262.494000000000
21
1286.599000000000
31
0.0
0
POLYLINE
5
5df
100
AcDbEntity
8
0-9扉体
6
CONTINUOUS
62
  4
100
AcDb2dPolyline
66
1
10
0.0
20
0.0
30
0.0
70
0
0
VERTEX
5
5e0
100
AcDbEntity
8
0-9扉体
6
CONTINUOUS
62
  4
100
AcDbVertex
100
AcDb2dVertex
10
1262.494000000000
20
1289.599000000000
30
0.0
0
VERTEX
5
5e1
100
AcDbEntity
8
0-9扉体
6
CONTINUOUS
62
  4
100
AcDbVertex
100
AcDb2dVertex
10
1283.994000000000
20
1289.599000000000
30
0.0
0
VERTEX
5
5e2
100
AcDbEntity
8
0-9扉体
6
CONTINUOUS
62
  4
100
AcDbVertex
100
AcDb2dVertex
10
1283.994000000000
20
1286.599000000000
30
0.0
0
SEQEND
5
5e3
100
AcDbEntity
8
0-9扉体
0
LINE
5
5e4
100
AcDbEntity
8
0-5基準線
6
CENTER2
62
7
100
AcDbLine
10
1273.244000000000
20
1312.254000000000
30
0.0
11
1273.244000000000
21
1298.751000000000
31
0.0
0
LINE
5
5e5
100
AcDbEntity
8
0-9扉体
6
CONTINUOUS
62
7
100
AcDbLine
10
1382.744000000000
20
1299.599000000000
30
0.0
11
1382.744000000000
21
1289.599000000000
31
0.0
0
LINE
5
5e6
100
AcDbEntity
8
0-9扉体
6
CONTINUOUS
62
7
100
AcDbLine
10
1363.744000000000
20
1299.599000000000
30
0.0
11
1363.744000000000
21
1289.599000000000
31
0.0
0
LINE
5
5e7
100
AcDbEntity
8
0-9扉体
6
CONTINUOUS
62
7
100
AcDbLine
10
1363.744000000000
20
1299.599000000000
30
0.0
11
1382.744000000000
21
1299.599000000000
31
0.0
0
LINE
5
5e8
100
AcDbEntity
8
0-9扉体
6
CONTINUOUS
62
7
100
AcDbLine
10
1373.244000000000
20
1298.751000000000
30
0.0
11
1373.244000000000
21
1289.599000000000
31
0.0
0
LINE
5
5e9
100
AcDbEntity
8
0-9扉体
6
CONTINUOUS
62
4
100
AcDbLine
10
1386.244000000000
20
1286.599000000000
30
0.0
11
1360.244000000000
21
1286.599000000000
31
0.0
0
LINE
5
5ea
100
AcDbEntity
8
0-9扉体
6
CONTINUOUS
62
4
100
AcDbLine
10
1386.244000000000
20
1286.599000000000
30
0.0
11
1386.244000000000
21
1284.299000000000
31
0.0
0
LINE
5
5eb
100
AcDbEntity
8
0-9扉体
6
CONTINUOUS
62
4
100
AcDbLine
10
1360.244000000000
20
1286.599000000000
30
0.0
11
1360.244000000000
21
1284.299000000000
31
0.0
0
LINE
5
5ec
100
AcDbEntity
8
0-9扉体
6
CONTINUOUS
62
4
100
AcDbLine
10
1379.244000000000
20
1309.299000000000
30
0.0
11
1367.245000000000
21
1309.299000000000
31
0.0
0
LINE
5
5ed
100
AcDbEntity
8
0-9扉体
6
CONTINUOUS
62
4
100
AcDbLine
10
1379.244000000000
20
1309.299000000000
30
0.0
11
1379.244000000000
21
1299.599000000000
31
0.0
0
LINE
5
5ee
100
AcDbEntity
8
0-9扉体
6
CONTINUOUS
62
4
100
AcDbLine
10
1367.245000000000
20
1309.299000000000
30
0.0
11
1367.245000000000
21
1299.599000000000
31
0.0
0
LINE
5
5ef
100
AcDbEntity
8
0-9扉体
6
CONTINUOUS
62
4
100
AcDbLine
10
1378.244000000000
20
1309.299000000000
30
0.0
11
1378.244000000000
21
1299.599000000000
31
0.0
0
LINE
5
5f0
100
AcDbEntity
8
0-9扉体
6
CONTINUOUS
62
4
100
AcDbLine
10
1368.244000000000
20
1309.299000000000
30
0.0
11
1368.244000000000
21
1299.599000000000
31
0.0
0
LINE
5
5f1
100
AcDbEntity
8
0-9扉体
6
CONTINUOUS
62
4
100
AcDbLine
10
1373.244000000000
20
1289.599000000000
30
0.0
11
1376.244000000000
21
1286.599000000000
31
0.0
0
LINE
5
5f2
100
AcDbEntity
8
0-9扉体
6
CONTINUOUS
62
4
100
AcDbLine
10
1373.244000000000
20
1286.599000000000
30
0.0
11
1370.244000000000
21
1289.599000000000
31
0.0
0
LINE
5
5f3
100
AcDbEntity
8
0-9扉体
6
CONTINUOUS
62
4
100
AcDbLine
10
1383.994000000000
20
1289.599000000000
30
0.0
11
1383.994000000000
21
1286.599000000000
31
0.0
0
POLYLINE
5
5f4
100
AcDbEntity
8
0-9扉体
6
CONTINUOUS
62
  4
100
AcDb2dPolyline
66
1
10
0.0
20
0.0
30
0.0
70
0
0
VERTEX
5
5f5
100
AcDbEntity
8
0-9扉体
6
CONTINUOUS
62
  4
100
AcDbVertex
100
AcDb2dVertex
10
1383.994000000000
20
1289.599000000000
30
0.0
0
VERTEX
5
5f6
100
AcDbEntity
8
0-9扉体
6
CONTINUOUS
62
  4
100
AcDbVertex
100
AcDb2dVertex
10
1362.494000000000
20
1289.599000000000
30
0.0
0
VERTEX
5
5f7
100
AcDbEntity
8
0-9扉体
6
CONTINUOUS
62
  4
100
AcDbVertex
100
AcDb2dVertex
10
1362.494000000000
20
1286.599000000000
30
0.0
0
SEQEND
5
5f8
100
AcDbEntity
8
0-9扉体
0
LINE
5
5f9
100
AcDbEntity
8
0-5基準線
6
CENTER2
62
7
100
AcDbLine
10
1373.244000000000
20
1312.254000000000
30
0.0
11
1373.244000000000
21
1298.751000000000
31
0.0
0
LINE
5
5fa
100
AcDbEntity
8
0-9扉体
6
CONTINUOUS
62
3
100
AcDbLine
10
1344.244000000000
20
1285.299000000000
30
0.0
11
1302.244000000000
21
1285.299000000000
31
0.0
0
LINE
5
5fb
100
AcDbEntity
8
0-6戸当り
6
DOT
62
2
100
AcDbLine
10
1394.244000000000
20
1280.299000000000
30
0.0
11
1394.244000000000
21
1285.299000000000
31
0.0
0
LINE
5
5fc
100
AcDbEntity
8
0-6戸当り
6
CONTINUOUS
62
2
100
AcDbLine
10
1388.244000000000
20
1284.299000000000
30
0.0
11
1388.244000000000
21
1285.299000000000
31
0.0
0
LINE
5
5fd
100
AcDbEntity
8
0-9扉体
6
CONTINUOUS
62
3
100
AcDbLine
10
1360.244000000000
20
1285.299000000000
30
0.0
11
1353.244000000000
21
1285.299000000000
31
0.0
0
LINE
5
5fe
100
AcDbEntity
8
0-9扉体
6
CONTINUOUS
62
3
100
AcDbLine
10
1293.244000000000
20
1285.299000000000
30
0.0
11
1286.244000000000
21
1285.299000000000
31
0.0
0
LINE
5
5ff
100
AcDbEntity
8
0-5基準線
6
CENTER2
62
7
100
AcDbLine
10
1251.563000000000
20
1325.299000000000
30
0.0
11
1395.244000000000
21
1325.299000000000
31
0.0
0
LINE
5
600
100
AcDbEntity
8
0-5基準線
6
CENTER2
62
7
100
AcDbLine
10
1373.244000000000
20
1289.599000000000
30
0.0
11
1373.244000000000
21
1257.077000000000
31
0.0
0
LINE
5
601
100
AcDbEntity
8
0-5基準線
6
CENTER2
62
7
100
AcDbLine
10
1273.244000000000
20
1289.599000000000
30
0.0
11
1273.244000000000
21
1257.077000000000
31
0.0
0
LINE
5
602
100
AcDbEntity
8
0-5基準線
6
CENTER2
62
7
100
AcDbLine
10
1323.245000000000
20
1360.845000000000
30
0.0
11
1323.245000000000
21
1257.077000000000
31
0.0
0
LINE
5
603
100
AcDbEntity
8
0-9扉体
6
CONTINUOUS
62
3
100
AcDbLine
10
1293.244000000000
20
1345.299000000000
30
0.0
11
1293.244000000000
21
1284.299000000000
31
0.0
0
POLYLINE
5
604
100
AcDbEntity
8
0-9扉体
6
CONTINUOUS
62
  3
100
AcDb2dPolyline
66
1
10
0.0
20
0.0
30
0.0
70
0
0
VERTEX
5
605
100
AcDbEntity
8
0-9扉体
6
CONTINUOUS
62
  3
100
AcDbVertex
100
AcDb2dVertex
10
1293.244000000000
20
1345.299000000000
30
0.0
0
VERTEX
5
606
100
AcDbEntity
8
0-9扉体
6
CONTINUOUS
62
  3
100
AcDbVertex
100
AcDb2dVertex
10
1302.244000000000
20
1345.299000000000
30
0.0
0
VERTEX
5
607
100
AcDbEntity
8
0-9扉体
6
CONTINUOUS
62
  3
100
AcDbVertex
100
AcDb2dVertex
10
1302.244000000000
20
1284.299000000000
30
0.0
0
SEQEND
5
608
100
AcDbEntity
8
0-9扉体
0
LINE
5
609
100
AcDbEntity
8
0-9扉体
6
CONTINUOUS
62
3
100
AcDbLine
10
1344.244000000000
20
1345.299000000000
30
0.0
11
1344.244000000000
21
1284.299000000000
31
0.0
0
LINE
5
60a
100
AcDbEntity
8
0-9扉体
6
CONTINUOUS
62
3
100
AcDbLine
10
1353.244000000000
20
1345.299000000000
30
0.0
11
1344.244000000000
21
1345.299000000000
31
0.0
0
LINE
5
60b
100
AcDbEntity
8
0-9扉体
6
CONTINUOUS
62
3
100
AcDbLine
10
1353.244000000000
20
1345.299000000000
30
0.0
11
1353.244000000000
21
1284.299000000000
31
0.0
0
LINE
5
60c
100
AcDbEntity
8
0-6戸当り
6
CONTINUOUS
62
3
100
AcDbLine
10
1263.245000000000
20
1385.299000000000
30
0.0
11
1383.245000000000
21
1385.299000000000
31
0.0
0
LINE
5
60d
100
AcDbEntity
8
0-6戸当り
6
CONTINUOUS
62
7
100
AcDbLine
10
1285.244000000000
20
1375.784000000000
30
0.0
11
1275.745000000000
21
1381.269000000000
31
0.0
0
LINE
5
60e
100
AcDbEntity
8
0-6戸当り
6
CONTINUOUS
62
7
100
AcDbLine
10
1285.244000000000
20
1375.784000000000
30
0.0
11
1285.244000000000
21
1364.814000000000
31
0.0
0
LINE
5
60f
100
AcDbEntity
8
0-6戸当り
6
CONTINUOUS
62
7
100
AcDbLine
10
1275.745000000000
20
1359.330000000000
30
0.0
11
1285.244000000000
21
1364.814000000000
31
0.0
0
POLYLINE
5
610
100
AcDbEntity
8
0-6戸当り
6
CONTINUOUS
62
  7
100
AcDb2dPolyline
66
1
10
0.0
20
0.0
30
0.0
70
0
0
VERTEX
5
611
100
AcDbEntity
8
0-6戸当り
6
CONTINUOUS
62
  7
100
AcDbVertex
100
AcDb2dVertex
10
1275.745000000000
20
1359.330000000000
30
0.0
0
VERTEX
5
612
100
AcDbEntity
8
0-6戸当り
6
CONTINUOUS
62
  7
100
AcDbVertex
100
AcDb2dVertex
10
1266.245000000000
20
1364.814000000000
30
0.0
0
VERTEX
5
613
100
AcDbEntity
8
0-6戸当り
6
CONTINUOUS
62
  7
100
AcDbVertex
100
AcDb2dVertex
10
1266.245000000000
20
1375.784000000000
30
0.0
0
VERTEX
5
614
100
AcDbEntity
8
0-6戸当り
6
CONTINUOUS
62
  7
100
AcDbVertex
100
AcDb2dVertex
10
1275.745000000000
20
1381.269000000000
30
0.0
0
SEQEND
5
615
100
AcDbEntity
8
0-6戸当り
0
LINE
5
616
100
AcDbEntity
8
0-5基準線
6
CENTER2
62
7
100
AcDbLine
10
1275.745000000000
20
1382.299000000000
30
0.0
11
1275.745000000000
21
1358.299000000000
31
0.0
0
LINE
5
617
100
AcDbEntity
8
0-5基準線
6
CENTER2
62
7
100
AcDbLine
10
1261.964000000000
20
1370.299000000000
30
0.0
11
1291.497000000000
21
1370.299000000000
31
0.0
0
LINE
5
618
100
AcDbEntity
8
0-6戸当り
6
CONTINUOUS
62
7
100
AcDbLine
10
1361.244000000000
20
1375.784000000000
30
0.0
11
1370.744000000000
21
1381.269000000000
31
0.0
0
LINE
5
619
100
AcDbEntity
8
0-6戸当り
6
CONTINUOUS
62
7
100
AcDbLine
10
1361.244000000000
20
1375.784000000000
30
0.0
11
1361.244000000000
21
1364.814000000000
31
0.0
0
LINE
5
61a
100
AcDbEntity
8
0-6戸当り
6
CONTINUOUS
62
7
100
AcDbLine
10
1370.744000000000
20
1359.330000000000
30
0.0
11
1361.244000000000
21
1364.814000000000
31
0.0
0
POLYLINE
5
61b
100
AcDbEntity
8
0-6戸当り
6
CONTINUOUS
62
  7
100
AcDb2dPolyline
66
1
10
0.0
20
0.0
30
0.0
70
0
0
VERTEX
5
61c
100
AcDbEntity
8
0-6戸当り
6
CONTINUOUS
62
  7
100
AcDbVertex
100
AcDb2dVertex
10
1370.744000000000
20
1359.330000000000
30
0.0
0
VERTEX
5
61d
100
AcDbEntity
8
0-6戸当り
6
CONTINUOUS
62
  7
100
AcDbVertex
100
AcDb2dVertex
10
1380.244000000000
20
1364.814000000000
30
0.0
0
VERTEX
5
61e
100
AcDbEntity
8
0-6戸当り
6
CONTINUOUS
62
  7
100
AcDbVertex
100
AcDb2dVertex
10
1380.244000000000
20
1375.784000000000
30
0.0
0
VERTEX
5
61f
100
AcDbEntity
8
0-6戸当り
6
CONTINUOUS
62
  7
100
AcDbVertex
100
AcDb2dVertex
10
1370.744000000000
20
1381.269000000000
30
0.0
0
SEQEND
5
620
100
AcDbEntity
8
0-6戸当り
0
LINE
5
621
100
AcDbEntity
8
0-5基準線
6
CENTER2
62
7
100
AcDbLine
10
1370.744000000000
20
1382.299000000000
30
0.0
11
1370.744000000000
21
1358.299000000000
31
0.0
0
LINE
5
622
100
AcDbEntity
8
0-5基準線
6
CENTER2
62
7
100
AcDbLine
10
1384.525000000000
20
1370.299000000000
30
0.0
11
1354.991000000000
21
1370.299000000000
31
0.0
0
LINE
5
623
100
AcDbEntity
8
0-6戸当り
6
CONTINUOUS
62
3
100
AcDbLine
10
1263.245000000000
20
1385.299000000000
30
0.0
11
1263.245000000000
21
1302.302000000000
31
0.0
0
LINE
5
624
100
AcDbEntity
8
0-6戸当り
6
CONTINUOUS
62
3
100
AcDbLine
10
1383.245000000000
20
1385.299000000000
30
0.0
11
1383.245000000000
21
1303.572000000000
31
0.0
0
LINE
5
625
100
AcDbEntity
8
0-8寸法
6
CONTINUOUS
62
4
100
AcDbLine
10
963.244000000000
20
1635.299000000000
30
0.0
11
1040.353000000000
21
1370.325000000000
31
0.0
0
LINE
5
626
100
AcDbEntity
8
0-3RC
6
CONTINUOUS
62
4
100
AcDbLine
10
969.030000000000
20
1435.299000000000
30
0.0
11
1019.030000000000
21
1385.299000000000
31
0.0
0
LINE
5
627
100
AcDbEntity
8
0-3RC
6
CONTINUOUS
62
4
100
AcDbLine
10
898.319000000000
20
1435.299000000000
30
0.0
11
1002.385000000000
21
1331.234000000000
31
0.0
0
LINE
5
628
100
AcDbEntity
8
0-3RC
6
CONTINUOUS
62
4
100
AcDbLine
10
1039.740000000000
20
1435.299000000000
30
0.0
11
1089.741000000000
21
1385.299000000000
31
0.0
0
LINE
5
629
100
AcDbEntity
8
0-3RC
6
CONTINUOUS
62
4
100
AcDbLine
10
1123.244000000000
20
1351.795000000000
30
0.0
11
1189.741000000000
21
1285.299000000000
31
0.0
0
LINE
5
62a
100
AcDbEntity
8
0-3RC
6
CONTINUOUS
62
4
100
AcDbLine
10
1110.451000000000
20
1435.299000000000
30
0.0
11
1257.738000000000
21
1288.013000000000
31
0.0
0
LINE
5
62b
100
AcDbEntity
8
0-3RC
6
CONTINUOUS
62
4
100
AcDbLine
10
1181.162000000000
20
1435.299000000000
30
0.0
11
1263.244000000000
21
1353.217000000000
31
0.0
0
LINE
5
62c
100
AcDbEntity
8
0-3RC
6
CONTINUOUS
62
4
100
AcDbLine
10
1251.873000000000
20
1435.299000000000
30
0.0
11
1301.873000000000
21
1385.299000000000
31
0.0
0
LINE
5
62d
100
AcDbEntity
8
0-3RC
6
CONTINUOUS
62
4
100
AcDbLine
10
1399.330000000000
20
1358.553000000000
30
0.0
11
1457.583000000000
21
1300.299000000000
31
0.0
0
LINE
5
62e
100
AcDbEntity
8
0-3RC
6
CONTINUOUS
62
4
100
AcDbLine
10
1322.583000000000
20
1435.299000000000
30
0.0
11
1372.583000000000
21
1385.299000000000
31
0.0
0
LINE
5
62f
100
AcDbEntity
8
0-3RC
6
CONTINUOUS
62
4
100
AcDbLine
10
1383.245000000000
20
1374.638000000000
30
0.0
11
1399.330000000000
21
1358.553000000000
31
0.0
0
LINE
5
630
100
AcDbEntity
8
0-8寸法
6
CONTINUOUS
62
4
100
AcDbLine
10
1323.244000000000
20
1359.939000000000
30
0.0
11
1323.244000000000
21
1645.299000000000
31
0.0
0
LINE
5
631
100
AcDbEntity
8
0-6戸当り
6
CONTINUOUS
62
3
100
AcDbLine
10
1000.744000000000
20
2308.759000000000
30
0.0
11
1000.744000000000
21
2314.759000000000
31
0.0
0
LINE
5
632
100
AcDbEntity
8
0-6戸当り
6
CONTINUOUS
62
6
100
AcDbLine
10
1009.744000000000
20
2284.759000000000
30
0.0
11
1021.744000000000
21
2284.759000000000
31
0.0
0
LINE
5
633
100
AcDbEntity
8
0-6戸当り
6
CONTINUOUS
62
4
100
AcDbLine
10
1015.744000000000
20
2305.759000000000
30
0.0
11
1018.744000000000
21
2308.759000000000
31
0.0
0
LINE
5
634
100
AcDbEntity
8
0-6戸当り
6
CONTINUOUS
62
4
100
AcDbLine
10
1015.744000000000
20
2308.759000000000
30
0.0
11
1012.744000000000
21
2305.759000000000
31
0.0
0
LINE
5
635
100
AcDbEntity
8
0-6戸当り
6
CONTINUOUS
62
6
100
AcDbLine
10
1009.744000000000
20
2284.759000000000
30
0.0
11
1009.744000000000
21
2295.759000000000
31
0.0
0
LINE
5
636
100
AcDbEntity
8
0-6戸当り
6
CONTINUOUS
62
6
100
AcDbLine
10
1010.744000000000
20
2284.759000000000
30
0.0
11
1010.744000000000
21
2295.759000000000
31
0.0
0
LINE
5
637
100
AcDbEntity
8
0-6戸当り
6
CONTINUOUS
62
6
100
AcDbLine
10
1020.744000000000
20
2284.759000000000
30
0.0
11
1020.744000000000
21
2295.759000000000
31
0.0
0
LINE
5
638
100
AcDbEntity
8
0-6戸当り
6
CONTINUOUS
62
6
100
AcDbLine
10
1021.744000000000
20
2284.759000000000
30
0.0
11
1021.744000000000
21
2295.759000000000
31
0.0
0
LINE
5
639
100
AcDbEntity
8
0-6戸当り
6
DOT
62
2
100
AcDbLine
10
1009.744000000000
20
2339.759000000000
30
0.0
11
1021.744000000000
21
2339.759000000000
31
0.0
0
LINE
5
63a
100
AcDbEntity
8
0-6戸当り
6
DOT
62
2
100
AcDbLine
10
1010.744000000000
20
2330.759000000000
30
0.0
11
1010.744000000000
21
2339.759000000000
31
0.0
0
LINE
5
63b
100
AcDbEntity
8
0-6戸当り
6
DOT
62
2
100
AcDbLine
10
1020.744000000000
20
2330.759000000000
30
0.0
11
1020.744000000000
21
2339.759000000000
31
0.0
0
LINE
5
63c
100
AcDbEntity
8
0-6戸当り
6
DOT
62
2
100
AcDbLine
10
1006.244000000000
20
2330.759000000000
30
0.0
11
1006.244000000000
21
2320.759000000000
31
0.0
0
LINE
5
63d
100
AcDbEntity
8
0-6戸当り
6
DOT
62
2
100
AcDbLine
10
1025.244000000000
20
2330.759000000000
30
0.0
11
1025.244000000000
21
2320.759000000000
31
0.0
0
LINE
5
63e
100
AcDbEntity
8
0-6戸当り
6
DOT
62
2
100
AcDbLine
10
1025.244000000000
20
2330.759000000000
30
0.0
11
1006.244000000000
21
2330.759000000000
31
0.0
0
LINE
5
63f
100
AcDbEntity
8
0-6戸当り
6
DOT
62
2
100
AcDbLine
10
1015.744000000000
20
2329.910000000000
30
0.0
11
1015.744000000000
21
2320.759000000000
31
0.0
0
LINE
5
640
100
AcDbEntity
8
0-6戸当り
6
CONTINUOUS
62
7
100
AcDbLine
10
1025.244000000000
20
2295.759000000000
30
0.0
11
1025.244000000000
21
2305.759000000000
31
0.0
0
LINE
5
641
100
AcDbEntity
8
0-6戸当り
6
CONTINUOUS
62
7
100
AcDbLine
10
1006.244000000000
20
2295.759000000000
30
0.0
11
1006.244000000000
21
2305.759000000000
31
0.0
0
LINE
5
642
100
AcDbEntity
8
0-6戸当り
6
CONTINUOUS
62
7
100
AcDbLine
10
1015.744000000000
20
2296.608000000000
30
0.0
11
1015.744000000000
21
2305.759000000000
31
0.0
0
LINE
5
643
100
AcDbEntity
8
0-6戸当り
6
CONTINUOUS
62
4
100
AcDbLine
10
1004.994000000000
20
2305.759000000000
30
0.0
11
1004.994000000000
21
2308.759000000000
31
0.0
0
LINE
5
644
100
AcDbEntity
8
0-6戸当り
6
CONTINUOUS
62
4
100
AcDbLine
10
1026.494000000000
20
2305.759000000000
30
0.0
11
1004.994000000000
21
2305.759000000000
31
0.0
0
LINE
5
645
100
AcDbEntity
8
0-6戸当り
6
CONTINUOUS
62
4
100
AcDbLine
10
1026.494000000000
20
2305.759000000000
30
0.0
11
1026.494000000000
21
2308.759000000000
31
0.0
0
LINE
5
646
100
AcDbEntity
8
0-6戸当り
6
DOT
62
2
100
AcDbLine
10
1021.744000000000
20
2330.759000000000
30
0.0
11
1021.744000000000
21
2372.759000000000
31
0.0
0
LINE
5
647
100
AcDbEntity
8
0-6戸当り
6
DOT
62
2
100
AcDbLine
10
1009.744000000000
20
2330.759000000000
30
0.0
11
1009.744000000000
21
2372.759000000000
31
0.0
0
LINE
5
648
100
AcDbEntity
8
0-5基準線
6
CENTER2
62
7
100
AcDbLine
10
1015.744000000000
20
2320.759000000000
30
0.0
11
1015.744000000000
21
2305.759000000000
31
0.0
0
LINE
5
649
100
AcDbEntity
8
0-5基準線
6
CENTER2
62
7
100
AcDbLine
10
1015.744000000000
20
2372.759000000000
30
0.0
11
1015.744000000000
21
2329.910000000000
31
0.0
0
LINE
5
64a
100
AcDbEntity
8
0-5基準線
6
CENTER2
62
7
100
AcDbLine
10
1015.744000000000
20
2296.608000000000
30
0.0
11
1015.744000000000
21
2283.492000000000
31
0.0
0
LINE
5
64b
100
AcDbEntity
8
0-6戸当り
6
CONTINUOUS
62
7
100
AcDbLine
10
1006.244000000000
20
2295.759000000000
30
0.0
11
1025.244000000000
21
2295.759000000000
31
0.0
0
LINE
5
64c
100
AcDbEntity
8
0-6戸当り
6
DOT
62
2
100
AcDbLine
10
1125.744000000000
20
2314.759000000000
30
0.0
11
1125.744000000000
21
2320.759000000000
31
0.0
0
LINE
5
64d
100
AcDbEntity
8
0-6戸当り
6
CONTINUOUS
62
6
100
AcDbLine
10
1116.744000000000
20
2284.759000000000
30
0.0
11
1104.744000000000
21
2284.759000000000
31
0.0
0
LINE
5
64e
100
AcDbEntity
8
0-6戸当り
6
CONTINUOUS
62
4
100
AcDbLine
10
1110.744000000000
20
2305.759000000000
30
0.0
11
1107.744000000000
21
2308.759000000000
31
0.0
0
LINE
5
64f
100
AcDbEntity
8
0-6戸当り
6
CONTINUOUS
62
4
100
AcDbLine
10
1110.744000000000
20
2308.759000000000
30
0.0
11
1113.744000000000
21
2305.759000000000
31
0.0
0
LINE
5
650
100
AcDbEntity
8
0-6戸当り
6
CONTINUOUS
62
6
100
AcDbLine
10
1116.744000000000
20
2284.759000000000
30
0.0
11
1116.744000000000
21
2295.759000000000
31
0.0
0
LINE
5
651
100
AcDbEntity
8
0-6戸当り
6
CONTINUOUS
62
6
100
AcDbLine
10
1115.744000000000
20
2284.759000000000
30
0.0
11
1115.744000000000
21
2295.759000000000
31
0.0
0
LINE
5
652
100
AcDbEntity
8
0-6戸当り
6
CONTINUOUS
62
6
100
AcDbLine
10
1105.744000000000
20
2284.759000000000
30
0.0
11
1105.744000000000
21
2295.759000000000
31
0.0
0
LINE
5
653
100
AcDbEntity
8
0-6戸当り
6
CONTINUOUS
62
6
100
AcDbLine
10
1104.744000000000
20
2284.759000000000
30
0.0
11
1104.744000000000
21
2295.759000000000
31
0.0
0
LINE
5
654
100
AcDbEntity
8
0-6戸当り
6
DOT
62
2
100
AcDbLine
10
1116.744000000000
20
2339.759000000000
30
0.0
11
1104.744000000000
21
2339.759000000000
31
0.0
0
LINE
5
655
100
AcDbEntity
8
0-6戸当り
6
DOT
62
2
100
AcDbLine
10
1115.744000000000
20
2330.759000000000
30
0.0
11
1115.744000000000
21
2339.759000000000
31
0.0
0
LINE
5
656
100
AcDbEntity
8
0-6戸当り
6
DOT
62
2
100
AcDbLine
10
1105.744000000000
20
2330.759000000000
30
0.0
11
1105.744000000000
21
2339.759000000000
31
0.0
0
LINE
5
657
100
AcDbEntity
8
0-6戸当り
6
DOT
62
2
100
AcDbLine
10
1120.244000000000
20
2330.759000000000
30
0.0
11
1120.244000000000
21
2320.759000000000
31
0.0
0
LINE
5
658
100
AcDbEntity
8
0-6戸当り
6
DOT
62
2
100
AcDbLine
10
1101.244000000000
20
2330.759000000000
30
0.0
11
1101.244000000000
21
2320.759000000000
31
0.0
0
LINE
5
659
100
AcDbEntity
8
0-6戸当り
6
DOT
62
2
100
AcDbLine
10
1101.244000000000
20
2330.759000000000
30
0.0
11
1120.244000000000
21
2330.759000000000
31
0.0
0
LINE
5
65a
100
AcDbEntity
8
0-6戸当り
6
DOT
62
2
100
AcDbLine
10
1110.744000000000
20
2329.910000000000
30
0.0
11
1110.744000000000
21
2320.759000000000
31
0.0
0
LINE
5
65b
100
AcDbEntity
8
0-6戸当り
6
CONTINUOUS
62
7
100
AcDbLine
10
1101.244000000000
20
2295.759000000000
30
0.0
11
1101.244000000000
21
2305.759000000000
31
0.0
0
LINE
5
65c
100
AcDbEntity
8
0-6戸当り
6
CONTINUOUS
62
7
100
AcDbLine
10
1120.244000000000
20
2295.759000000000
30
0.0
11
1120.244000000000
21
2305.759000000000
31
0.0
0
LINE
5
65d
100
AcDbEntity
8
0-6戸当り
6
CONTINUOUS
62
7
100
AcDbLine
10
1120.244000000000
20
2295.759000000000
30
0.0
11
1101.244000000000
21
2295.759000000000
31
0.0
0
LINE
5
65e
100
AcDbEntity
8
0-6戸当り
6
CONTINUOUS
62
7
100
AcDbLine
10
1110.744000000000
20
2296.608000000000
30
0.0
11
1110.744000000000
21
2305.759000000000
31
0.0
0
LINE
5
65f
100
AcDbEntity
8
0-6戸当り
6
CONTINUOUS
62
4
100
AcDbLine
10
1121.494000000000
20
2305.759000000000
30
0.0
11
1121.494000000000
21
2308.759000000000
31
0.0
0
LINE
5
660
100
AcDbEntity
8
0-6戸当り
6
CONTINUOUS
62
4
100
AcDbLine
10
1099.994000000000
20
2305.759000000000
30
0.0
11
1121.494000000000
21
2305.759000000000
31
0.0
0
LINE
5
661
100
AcDbEntity
8
0-6戸当り
6
CONTINUOUS
62
4
100
AcDbLine
10
1099.994000000000
20
2305.759000000000
30
0.0
11
1099.994000000000
21
2308.759000000000
31
0.0
0
LINE
5
662
100
AcDbEntity
8
0-6戸当り
6
DOT
62
2
100
AcDbLine
10
1104.744000000000
20
2330.759000000000
30
0.0
11
1104.744000000000
21
2372.759000000000
31
0.0
0
LINE
5
663
100
AcDbEntity
8
0-6戸当り
6
DOT
62
2
100
AcDbLine
10
1116.744000000000
20
2330.759000000000
30
0.0
11
1116.744000000000
21
2372.759000000000
31
0.0
0
LINE
5
664
100
AcDbEntity
8
0-5基準線
6
CENTER2
62
7
100
AcDbLine
10
1110.744000000000
20
2320.759000000000
30
0.0
11
1110.744000000000
21
2305.759000000000
31
0.0
0
LINE
5
665
100
AcDbEntity
8
0-5基準線
6
CENTER2
62
7
100
AcDbLine
10
1110.744000000000
20
2372.759000000000
30
0.0
11
1110.744000000000
21
2329.910000000000
31
0.0
0
LINE
5
666
100
AcDbEntity
8
0-5基準線
6
CENTER2
62
7
100
AcDbLine
10
1110.744000000000
20
2296.608000000000
30
0.0
11
1110.744000000000
21
2283.492000000000
31
0.0
0
LINE
5
667
100
AcDbEntity
8
0-5基準線
6
CENTER2
62
7
100
AcDbLine
10
1027.744000000000
20
2384.759000000000
30
0.0
11
1098.744000000000
21
2384.759000000000
31
0.0
0
LINE
5
668
100
AcDbEntity
8
0-6戸当り
6
DOT
62
2
100
AcDbLine
10
1027.744000000000
20
2390.759000000000
30
0.0
11
1098.744000000000
21
2390.759000000000
31
0.0
0
LINE
5
669
100
AcDbEntity
8
0-6戸当り
6
DOT
62
2
100
AcDbLine
10
1027.744000000000
20
2378.759000000000
30
0.0
11
1098.744000000000
21
2378.759000000000
31
0.0
0
LINE
5
66a
100
AcDbEntity
8
0-6戸当り
6
CONTINUOUS
62
3
100
AcDbLine
10
1000.744000000000
20
2308.759000000000
30
0.0
11
1125.744000000000
21
2308.759000000000
31
0.0
0
LINE
5
66b
100
AcDbEntity
8
0-8寸法
6
CONTINUOUS
62
3
100
AcDbLine
10
963.244000000000
20
1935.299000000000
30
0.0
11
963.244000000000
21
1635.299000000000
31
0.0
0
LINE
5
66c
100
AcDbEntity
8
0-9扉体
6
CONTINUOUS
62
4
100
AcDbLine
10
948.244000000000
20
790.299000000000
30
0.0
11
948.244000000000
21
1280.299000000000
31
0.0
0
LINE
5
66d
100
AcDbEntity
8
0-9扉体
6
CONTINUOUS
62
4
100
AcDbLine
10
953.244000000000
20
795.299000000000
30
0.0
11
953.244000000000
21
1275.299000000000
31
0.0
0
LINE
5
66e
100
AcDbEntity
8
0-9扉体
6
CONTINUOUS
62
4
100
AcDbLine
10
1438.244000000000
20
790.299000000000
30
0.0
11
948.244000000000
21
790.299000000000
31
0.0
0
LINE
5
66f
100
AcDbEntity
8
0-9扉体
6
CONTINUOUS
62
4
100
AcDbLine
10
1438.244000000000
20
1280.299000000000
30
0.0
11
1438.244000000000
21
790.299000000000
31
0.0
0
LINE
5
670
100
AcDbEntity
8
0-9扉体
6
CONTINUOUS
62
4
100
AcDbLine
10
1433.244000000000
20
795.299000000000
30
0.0
11
953.244000000000
21
795.299000000000
31
0.0
0
LINE
5
671
100
AcDbEntity
8
0-9扉体
6
CONTINUOUS
62
4
100
AcDbLine
10
1433.244000000000
20
1275.299000000000
30
0.0
11
1433.244000000000
21
795.299000000000
31
0.0
0
LINE
5
672
100
AcDbEntity
8
0-9扉体
6
DOT
62
4
100
AcDbLine
10
1427.244000000000
20
801.299000000000
30
0.0
11
959.245000000000
21
801.299000000000
31
0.0
0
LINE
5
673
100
AcDbEntity
8
0-5基準線
6
CENTER2
62
7
100
AcDbLine
10
2332.273000000000
20
835.299000000000
30
0.0
11
2371.201000000000
21
835.299000000000
31
0.0
0
LINE
5
674
100
AcDbEntity
8
0-8寸法
6
CONTINUOUS
62
4
100
AcDbLine
10
2355.676000000000
20
1085.299000000000
30
0.0
11
2374.995000000000
21
1090.476000000000
31
0.0
0
LINE
5
675
100
AcDbEntity
8
0-8寸法
6
CONTINUOUS
62
4
100
AcDbLine
10
2355.676000000000
20
1085.299000000000
30
0.0
11
2374.995000000000
21
1080.123000000000
31
0.0
0
LINE
5
676
100
AcDbEntity
8
0-8寸法
6
CONTINUOUS
62
4
100
AcDbLine
10
2301.676000000000
20
1085.299000000000
30
0.0
11
2282.357000000000
21
1090.476000000000
31
0.0
0
LINE
5
677
100
AcDbEntity
8
0-8寸法
6
CONTINUOUS
62
4
100
AcDbLine
10
2301.676000000000
20
1085.299000000000
30
0.0
11
2282.357000000000
21
1080.123000000000
31
0.0
0
LINE
5
678
100
AcDbEntity
8
0-8寸法
6
CONTINUOUS
62
4
100
AcDbLine
10
2355.676000000000
20
985.299000000000
30
0.0
11
2336.357000000000
21
990.476000000000
31
0.0
0
LINE
5
679
100
AcDbEntity
8
0-8寸法
6
CONTINUOUS
62
4
100
AcDbLine
10
2355.676000000000
20
985.299000000000
30
0.0
11
2336.357000000000
21
980.123000000000
31
0.0
0
LINE
5
67a
100
AcDbEntity
8
0-9扉体
6
CONTINUOUS
62
4
100
AcDbLine
10
2349.676000000000
20
1280.299000000000
30
0.0
11
2349.676000000000
21
999.040000000000
31
0.0
0
LINE
5
67b
100
AcDbEntity
8
0-8寸法
6
CONTINUOUS
62
4
100
AcDbLine
10
2301.545000000000
20
1235.299000000000
30
0.0
11
2194.676000000000
21
1235.299000000000
31
0.0
0
LINE
5
67c
100
AcDbEntity
8
0-8寸法
6
CONTINUOUS
62
4
100
AcDbLine
10
2301.545000000000
20
1275.299000000000
30
0.0
11
2194.676000000000
21
1275.299000000000
31
0.0
0
LINE
5
67d
100
AcDbEntity
8
0-8寸法
6
CONTINUOUS
62
4
100
AcDbLine
10
2204.676000000000
20
1235.299000000000
30
0.0
11
2199.499000000000
21
1215.981000000000
31
0.0
0
LINE
5
67e
100
AcDbEntity
8
0-8寸法
6
CONTINUOUS
62
4
100
AcDbLine
10
2204.676000000000
20
1235.299000000000
30
0.0
11
2209.852000000000
21
1215.981000000000
31
0.0
0
LINE
5
67f
100
AcDbEntity
8
0-8寸法
6
CONTINUOUS
62
4
100
AcDbLine
10
2301.545000000000
20
1325.299000000000
30
0.0
11
2194.676000000000
21
1325.299000000000
31
0.0
0
LINE
5
680
100
AcDbEntity
8
0-8寸法
6
CONTINUOUS
62
4
100
AcDbLine
10
2204.676000000000
20
1325.299000000000
30
0.0
11
2199.499000000000
21
1344.618000000000
31
0.0
0
LINE
5
681
100
AcDbEntity
8
0-8寸法
6
CONTINUOUS
62
4
100
AcDbLine
10
2204.676000000000
20
1325.299000000000
30
0.0
11
2209.852000000000
21
1344.618000000000
31
0.0
0
LINE
5
682
100
AcDbEntity
8
0-8寸法
6
CONTINUOUS
62
4
100
AcDbLine
10
2204.676000000000
20
1275.299000000000
30
0.0
11
2204.676000000000
21
1393.948000000000
31
0.0
0
LINE
5
683
100
AcDbEntity
8
0-8寸法
6
CONTINUOUS
62
4
100
AcDbLine
10
2204.676000000000
20
1275.299000000000
30
0.0
11
2204.676000000000
21
1164.951000000000
31
0.0
0
LINE
5
684
100
AcDbEntity
8
0-8寸法
6
CONTINUOUS
62
4
100
AcDbLine
10
2349.676000000000
20
1085.299000000000
30
0.0
11
2227.089000000000
21
1085.299000000000
31
0.0
0
LINE
5
685
100
AcDbEntity
8
0-8寸法
6
CONTINUOUS
62
4
100
AcDbLine
10
2349.676000000000
20
1085.299000000000
30
0.0
11
2436.414000000000
21
1085.299000000000
31
0.0
0
LINE
5
686
100
AcDbEntity
8
0-9扉体
6
CONTINUOUS
62
4
100
AcDbLine
10
2301.676000000000
20
1275.299000000000
30
0.0
11
2301.676000000000
21
1040.235000000000
31
0.0
0
LINE
5
687
100
AcDbEntity
8
0-9扉体
6
CONTINUOUS
62
4
100
AcDbLine
10
2301.676000000000
20
976.227000000000
30
0.0
11
2301.676000000000
21
795.299000000000
31
0.0
0
LINE
5
688
100
AcDbEntity
8
0-9扉体
6
CONTINUOUS
62
4
100
AcDbLine
10
2355.676000000000
20
1280.299000000000
30
0.0
11
2349.676000000000
21
1280.299000000000
31
0.0
0
LINE
5
689
100
AcDbEntity
8
0-9扉体
6
CONTINUOUS
62
4
100
AcDbLine
10
2313.676000000000
20
1269.299000000000
30
0.0
11
2349.676000000000
21
1269.299000000000
31
0.0
0
LINE
5
68a
100
AcDbEntity
8
0-9扉体
6
CONTINUOUS
62
4
100
AcDbLine
10
2307.676000000000
20
1215.799000000000
30
0.0
11
2307.676000000000
21
1263.299000000000
31
0.0
0
LINE
5
68b
100
AcDbEntity
8
0-9扉体
6
CONTINUOUS
62
4
100
AcDbLine
10
2301.676000000000
20
1275.299000000000
30
0.0
11
2349.676000000000
21
1275.299000000000
31
0.0
0
LINE
5
68c
100
AcDbEntity
8
0-9扉体
6
CONTINUOUS
62
4
100
AcDbLine
10
2307.176000000000
20
1215.299000000000
30
0.0
11
2301.676000000000
21
1215.299000000000
31
0.0
0
LINE
5
68d
100
AcDbEntity
8
0-5基準線
6
CENTER2
62
7
100
AcDbLine
10
2331.333000000000
20
1235.299000000000
30
0.0
11
2371.201000000000
21
1235.299000000000
31
0.0
0
LINE
5
68e
100
AcDbEntity
8
0-5基準線
6
CENTER2
62
7
100
AcDbLine
10
2325.676000000000
20
1311.513000000000
30
0.0
11
2325.676000000000
21
1256.027000000000
31
0.0
0
LINE
5
68f
100
AcDbEntity
8
0-9扉体
6
CONTINUOUS
62
4
100
AcDbLine
10
2306.676000000000
20
1284.299000000000
30
0.0
11
2306.676000000000
21
1275.299000000000
31
0.0
0
POLYLINE
5
690
100
AcDbEntity
8
0-9扉体
6
CONTINUOUS
62
  4
100
AcDb2dPolyline
66
1
10
0.0
20
0.0
30
0.0
70
0
0
VERTEX
5
691
100
AcDbEntity
8
0-9扉体
6
CONTINUOUS
62
  4
100
AcDbVertex
100
AcDb2dVertex
10
2306.676000000000
20
1284.299000000000
30
0.0
0
VERTEX
5
692
100
AcDbEntity
8
0-9扉体
6
CONTINUOUS
62
  4
100
AcDbVertex
100
AcDb2dVertex
10
2344.676000000000
20
1284.299000000000
30
0.0
0
VERTEX
5
693
100
AcDbEntity
8
0-9扉体
6
CONTINUOUS
62
  4
100
AcDbVertex
100
AcDb2dVertex
10
2344.676000000000
20
1275.299000000000
30
0.0
0
SEQEND
5
694
100
AcDbEntity
8
0-9扉体
0
LINE
5
695
100
AcDbEntity
8
0-9扉体
6
CONTINUOUS
62
4
100
AcDbLine
10
2312.676000000000
20
1286.599000000000
30
0.0
11
2338.676000000000
21
1286.599000000000
31
0.0
0
LINE
5
696
100
AcDbEntity
8
0-9扉体
6
CONTINUOUS
62
4
100
AcDbLine
10
2312.676000000000
20
1286.599000000000
30
0.0
11
2312.676000000000
21
1284.299000000000
31
0.0
0
LINE
5
697
100
AcDbEntity
8
0-9扉体
6
CONTINUOUS
62
4
100
AcDbLine
10
2338.676000000000
20
1286.599000000000
30
0.0
11
2338.676000000000
21
1284.299000000000
31
0.0
0
LINE
5
698
100
AcDbEntity
8
0-9扉体
6
CONTINUOUS
62
4
100
AcDbLine
10
2314.926000000000
20
1289.599000000000
30
0.0
11
2314.926000000000
21
1286.599000000000
31
0.0
0
LINE
5
699
100
AcDbEntity
8
0-9扉体
6
CONTINUOUS
62
4
100
AcDbLine
10
2336.426000000000
20
1289.599000000000
30
0.0
11
2336.426000000000
21
1286.599000000000
31
0.0
0
LINE
5
69a
100
AcDbEntity
8
0-9扉体
6
CONTINUOUS
62
7
100
AcDbLine
10
2316.176000000000
20
1299.599000000000
30
0.0
11
2335.176000000000
21
1299.599000000000
31
0.0
0
LINE
5
69b
100
AcDbEntity
8
0-9扉体
6
CONTINUOUS
62
7
100
AcDbLine
10
2316.176000000000
20
1299.599000000000
30
0.0
11
2314.707000000000
21
1298.751000000000
31
0.0
0
LINE
5
69c
100
AcDbEntity
8
0-9扉体
6
CONTINUOUS
62
7
100
AcDbLine
10
2335.176000000000
20
1299.599000000000
30
0.0
11
2336.646000000000
21
1298.751000000000
31
0.0
0
LINE
5
69d
100
AcDbEntity
8
0-9扉体
6
CONTINUOUS
62
7
100
AcDbLine
10
2314.707000000000
20
1289.599000000000
30
0.0
11
2314.707000000000
21
1298.751000000000
31
0.0
0
LINE
5
69e
100
AcDbEntity
8
0-9扉体
6
CONTINUOUS
62
7
100
AcDbLine
10
2336.646000000000
20
1289.599000000000
30
0.0
11
2336.646000000000
21
1298.751000000000
31
0.0
0
LINE
5
69f
100
AcDbEntity
8
0-9扉体
6
CONTINUOUS
62
4
100
AcDbLine
10
2314.707000000000
20
1289.599000000000
30
0.0
11
2336.646000000000
21
1289.599000000000
31
0.0
0
LINE
5
6a0
100
AcDbEntity
8
0-9扉体
6
CONTINUOUS
62
7
100
AcDbLine
10
2320.191000000000
20
1289.599000000000
30
0.0
11
2320.191000000000
21
1298.751000000000
31
0.0
0
LINE
5
6a1
100
AcDbEntity
8
0-9扉体
6
CONTINUOUS
62
7
100
AcDbLine
10
2331.161000000000
20
1289.599000000000
30
0.0
11
2331.161000000000
21
1298.751000000000
31
0.0
0
LINE
5
6a2
100
AcDbEntity
8
0-9扉体
6
CONTINUOUS
62
7
100
AcDbLine
10
2335.176000000000
20
1261.299000000000
30
0.0
11
2316.176000000000
21
1261.299000000000
31
0.0
0
LINE
5
6a3
100
AcDbEntity
8
0-9扉体
6
CONTINUOUS
62
7
100
AcDbLine
10
2335.176000000000
20
1261.299000000000
30
0.0
11
2336.646000000000
21
1262.148000000000
31
0.0
0
LINE
5
6a4
100
AcDbEntity
8
0-9扉体
6
CONTINUOUS
62
7
100
AcDbLine
10
2316.176000000000
20
1261.299000000000
30
0.0
11
2314.707000000000
21
1262.148000000000
31
0.0
0
LINE
5
6a5
100
AcDbEntity
8
0-9扉体
6
CONTINUOUS
62
7
100
AcDbLine
10
2336.646000000000
20
1269.299000000000
30
0.0
11
2336.646000000000
21
1262.148000000000
31
0.0
0
LINE
5
6a6
100
AcDbEntity
8
0-9扉体
6
CONTINUOUS
62
7
100
AcDbLine
10
2314.707000000000
20
1269.299000000000
30
0.0
11
2314.707000000000
21
1262.148000000000
31
0.0
0
LINE
5
6a7
100
AcDbEntity
8
0-9扉体
6
CONTINUOUS
62
7
100
AcDbLine
10
2331.161000000000
20
1269.299000000000
30
0.0
11
2331.161000000000
21
1262.148000000000
31
0.0
0
LINE
5
6a8
100
AcDbEntity
8
0-9扉体
6
CONTINUOUS
62
7
100
AcDbLine
10
2320.191000000000
20
1269.299000000000
30
0.0
11
2320.191000000000
21
1262.148000000000
31
0.0
0
LINE
5
6a9
100
AcDbEntity
8
0-9扉体
6
CONTINUOUS
62
4
100
AcDbLine
10
2319.676000000000
20
1309.299000000000
30
0.0
11
2331.676000000000
21
1309.299000000000
31
0.0
0
LINE
5
6aa
100
AcDbEntity
8
0-9扉体
6
CONTINUOUS
62
4
100
AcDbLine
10
2319.676000000000
20
1309.299000000000
30
0.0
11
2319.676000000000
21
1299.599000000000
31
0.0
0
LINE
5
6ab
100
AcDbEntity
8
0-9扉体
6
CONTINUOUS
62
4
100
AcDbLine
10
2331.676000000000
20
1309.299000000000
30
0.0
11
2331.676000000000
21
1299.599000000000
31
0.0
0
LINE
5
6ac
100
AcDbEntity
8
0-9扉体
6
CONTINUOUS
62
4
100
AcDbLine
10
2320.676000000000
20
1309.299000000000
30
0.0
11
2320.676000000000
21
1299.599000000000
31
0.0
0
LINE
5
6ad
100
AcDbEntity
8
0-9扉体
6
CONTINUOUS
62
4
100
AcDbLine
10
2330.676000000000
20
1309.299000000000
30
0.0
11
2330.676000000000
21
1299.599000000000
31
0.0
0
LINE
5
6ae
100
AcDbEntity
8
0-9扉体
6
CONTINUOUS
62
4
100
AcDbLine
10
2325.676000000000
20
1289.599000000000
30
0.0
11
2322.676000000000
21
1286.599000000000
31
0.0
0
LINE
5
6af
100
AcDbEntity
8
0-9扉体
6
CONTINUOUS
62
4
100
AcDbLine
10
2325.676000000000
20
1286.599000000000
30
0.0
11
2328.676000000000
21
1289.599000000000
31
0.0
0
LINE
5
6b0
100
AcDbEntity
8
0-5基準線
6
CENTER2
62
7
100
AcDbLine
10
2345.676000000000
20
1347.452000000000
30
0.0
11
2345.676000000000
21
1305.299000000000
31
0.0
0
LINE
5
6b1
100
AcDbEntity
8
0-9扉体
6
CONTINUOUS
62
3
100
AcDbLine
10
2344.676000000000
20
1284.299000000000
30
0.0
11
2363.176000000000
21
1302.800000000000
31
0.0
0
LINE
5
6b2
100
AcDbEntity
8
0-9扉体
6
CONTINUOUS
62
4
100
AcDbLine
10
2313.676000000000
20
801.299000000000
30
0.0
11
2349.676000000000
21
801.299000000000
31
0.0
0
LINE
5
6b3
100
AcDbEntity
8
0-9扉体
6
CONTINUOUS
62
4
100
AcDbLine
10
2307.676000000000
20
854.799000000000
30
0.0
11
2307.676000000000
21
807.300000000000
31
0.0
0
LINE
5
6b4
100
AcDbEntity
8
0-9扉体
6
CONTINUOUS
62
4
100
AcDbLine
10
2301.676000000000
20
795.299000000000
30
0.0
11
2349.676000000000
21
795.299000000000
31
0.0
0
LINE
5
6b5
100
AcDbEntity
8
0-9扉体
6
CONTINUOUS
62
4
100
AcDbLine
10
2349.676000000000
20
976.227000000000
30
0.0
11
2349.676000000000
21
790.299000000000
31
0.0
0
LINE
5
6b6
100
AcDbEntity
8
0-9扉体
6
CONTINUOUS
62
4
100
AcDbLine
10
2355.676000000000
20
790.299000000000
30
0.0
11
2349.676000000000
21
790.299000000000
31
0.0
0
LINE
5
6b7
100
AcDbEntity
8
0-9扉体
6
CONTINUOUS
62
4
100
AcDbLine
10
2355.676000000000
20
1280.299000000000
30
0.0
11
2355.676000000000
21
790.299000000000
31
0.0
0
LINE
5
6b8
100
AcDbEntity
8
0-9扉体
6
CONTINUOUS
62
4
100
AcDbLine
10
2307.176000000000
20
855.299000000000
30
0.0
11
2301.676000000000
21
855.299000000000
31
0.0
0
LINE
5
6b9
100
AcDbEntity
8
0-9扉体
6
CONTINUOUS
62
3
100
AcDbLine
10
2367.492000000000
20
1262.500000000000
30
0.0
11
2371.255000000000
21
1258.737000000000
31
0.0
0
LINE
5
6ba
100
AcDbEntity
8
0-9扉体
6
CONTINUOUS
62
3
100
AcDbLine
10
2361.114000000000
20
1268.878000000000
30
0.0
11
2364.876000000000
21
1265.115000000000
31
0.0
0
LINE
5
6bb
100
AcDbEntity
8
0-9扉体
6
CONTINUOUS
62
3
100
AcDbLine
10
2365.284000000000
20
1257.637000000000
30
0.0
11
2368.211000000000
21
1254.709000000000
31
0.0
0
LINE
5
6bc
100
AcDbEntity
8
0-9扉体
6
CONTINUOUS
62
3
100
AcDbLine
10
2357.086000000000
20
1265.835000000000
30
0.0
11
2360.013000000000
21
1262.907000000000
31
0.0
0
LINE
5
6bd
100
AcDbEntity
8
0-9扉体
6
CONTINUOUS
62
3
100
AcDbLine
10
2355.676000000000
20
1260.173000000000
30
0.0
11
2362.456000000000
21
1253.393000000000
31
0.0
0
LINE
5
6be
100
AcDbEntity
8
0-9扉体
6
CONTINUOUS
62
3
100
AcDbLine
10
2355.676000000000
20
1253.102000000000
30
0.0
11
2361.676000000000
21
1247.102000000000
31
0.0
0
LINE
5
6bf
100
AcDbEntity
8
0-9扉体
6
CONTINUOUS
62
3
100
AcDbLine
10
2355.676000000000
20
1246.031000000000
30
0.0
11
2361.676000000000
21
1240.031000000000
31
0.0
0
LINE
5
6c0
100
AcDbEntity
8
0-9扉体
6
CONTINUOUS
62
3
100
AcDbLine
10
2355.676000000000
20
1224.818000000000
30
0.0
11
2361.676000000000
21
1218.818000000000
31
0.0
0
LINE
5
6c1
100
AcDbEntity
8
0-9扉体
6
CONTINUOUS
62
3
100
AcDbLine
10
2355.676000000000
20
1261.299000000000
30
0.0
11
2355.676000000000
21
1218.299000000000
31
0.0
0
LINE
5
6c2
100
AcDbEntity
8
0-9扉体
6
CONTINUOUS
62
3
100
AcDbLine
10
2361.676000000000
20
1239.299000000000
30
0.0
11
2355.676000000000
21
1239.299000000000
31
0.0
0
LINE
5
6c3
100
AcDbEntity
8
0-9扉体
6
CONTINUOUS
62
3
100
AcDbLine
10
2361.676000000000
20
1231.299000000000
30
0.0
11
2355.676000000000
21
1231.299000000000
31
0.0
0
LINE
5
6c4
100
AcDbEntity
8
0-9扉体
6
DOT
62
3
100
AcDbLine
10
2363.676000000000
20
1231.299000000000
30
0.0
11
2367.677000000000
21
1227.300000000000
31
0.0
0
LINE
5
6c5
100
AcDbEntity
8
0-9扉体
6
DOT
62
3
100
AcDbLine
10
2363.676000000000
20
1239.299000000000
30
0.0
11
2367.677000000000
21
1243.299000000000
31
0.0
0
LINE
5
6c6
100
AcDbEntity
8
0-9扉体
6
DOT
62
3
100
AcDbLine
10
2363.676000000000
20
1231.299000000000
30
0.0
11
2363.676000000000
21
1239.299000000000
31
0.0
0
LINE
5
6c7
100
AcDbEntity
8
0-9扉体
6
CONTINUOUS
62
3
100
AcDbLine
10
2361.676000000000
20
1251.300000000000
30
0.0
11
2367.677000000000
21
1251.300000000000
31
0.0
0
LINE
5
6c8
100
AcDbEntity
8
0-9扉体
6
CONTINUOUS
62
3
100
AcDbLine
10
2367.677000000000
20
1219.299000000000
30
0.0
11
2367.677000000000
21
1251.300000000000
31
0.0
0
LINE
5
6c9
100
AcDbEntity
8
0-9扉体
6
CONTINUOUS
62
3
100
AcDbLine
10
2361.676000000000
20
1219.299000000000
30
0.0
11
2367.677000000000
21
1219.299000000000
31
0.0
0
LINE
5
6ca
100
AcDbEntity
8
0-9扉体
6
DOT
62
3
100
AcDbLine
10
2349.676000000000
20
1239.299000000000
30
0.0
11
2363.676000000000
21
1239.299000000000
31
0.0
0
LINE
5
6cb
100
AcDbEntity
8
0-9扉体
6
DOT
62
3
100
AcDbLine
10
2349.676000000000
20
1231.299000000000
30
0.0
11
2363.676000000000
21
1231.299000000000
31
0.0
0
LINE
5
6cc
100
AcDbEntity
8
0-9扉体
6
CONTINUOUS
62
3
100
AcDbLine
10
2348.076000000000
20
1226.299000000000
30
0.0
11
2349.676000000000
21
1226.299000000000
31
0.0
0
LINE
5
6cd
100
AcDbEntity
8
0-9扉体
6
CONTINUOUS
62
3
100
AcDbLine
10
2348.076000000000
20
1244.299000000000
30
0.0
11
2349.676000000000
21
1244.299000000000
31
0.0
0
LINE
5
6ce
100
AcDbEntity
8
0-9扉体
6
CONTINUOUS
62
3
100
AcDbLine
10
2339.676000000000
20
1231.299000000000
30
0.0
11
2339.676000000000
21
1239.299000000000
31
0.0
0
LINE
5
6cf
100
AcDbEntity
8
0-9扉体
6
CONTINUOUS
62
3
100
AcDbLine
10
2348.076000000000
20
1244.299000000000
30
0.0
11
2348.076000000000
21
1226.299000000000
31
0.0
0
LINE
5
6d0
100
AcDbEntity
8
0-9扉体
6
CONTINUOUS
62
3
100
AcDbLine
10
2341.576000000000
20
1228.799000000000
30
0.0
11
2342.157000000000
21
1227.794000000000
31
0.0
0
LINE
5
6d1
100
AcDbEntity
8
0-9扉体
6
CONTINUOUS
62
3
100
AcDbLine
10
2341.576000000000
20
1241.799000000000
30
0.0
11
2342.157000000000
21
1242.805000000000
31
0.0
0
LINE
5
6d2
100
AcDbEntity
8
0-9扉体
6
CONTINUOUS
62
3
100
AcDbLine
10
2341.576000000000
20
1228.799000000000
30
0.0
11
2341.576000000000
21
1241.799000000000
31
0.0
0
LINE
5
6d3
100
AcDbEntity
8
0-9扉体
6
CONTINUOUS
62
3
100
AcDbLine
10
2348.076000000000
20
1242.805000000000
30
0.0
11
2342.157000000000
21
1242.805000000000
31
0.0
0
LINE
5
6d4
100
AcDbEntity
8
0-9扉体
6
CONTINUOUS
62
3
100
AcDbLine
10
2348.076000000000
20
1227.794000000000
30
0.0
11
2342.157000000000
21
1227.794000000000
31
0.0
0
LINE
5
6d5
100
AcDbEntity
8
0-9扉体
6
CONTINUOUS
62
3
100
AcDbLine
10
2341.576000000000
20
1239.299000000000
30
0.0
11
2339.676000000000
21
1239.299000000000
31
0.0
0
LINE
5
6d6
100
AcDbEntity
8
0-9扉体
6
CONTINUOUS
62
3
100
AcDbLine
10
2341.576000000000
20
1231.299000000000
30
0.0
11
2339.676000000000
21
1231.299000000000
31
0.0
0
LINE
5
6d7
100
AcDbEntity
8
0-9扉体
6
CONTINUOUS
62
3
100
AcDbLine
10
2348.076000000000
20
1231.547000000000
30
0.0
11
2342.156000000000
21
1231.547000000000
31
0.0
0
LINE
5
6d8
100
AcDbEntity
8
0-9扉体
6
CONTINUOUS
62
3
100
AcDbLine
10
2348.076000000000
20
1239.052000000000
30
0.0
11
2342.157000000000
21
1239.052000000000
31
0.0
0
LINE
5
6d9
100
AcDbEntity
8
0-9扉体
6
CONTINUOUS
62
3
100
AcDbLine
10
2341.576000000000
20
1238.299000000000
30
0.0
11
2339.676000000000
21
1238.299000000000
31
0.0
0
LINE
5
6da
100
AcDbEntity
8
0-9扉体
6
CONTINUOUS
62
3
100
AcDbLine
10
2341.576000000000
20
1232.299000000000
30
0.0
11
2339.676000000000
21
1232.299000000000
31
0.0
0
LINE
5
6db
100
AcDbEntity
8
0-9扉体
6
CONTINUOUS
62
3
100
AcDbLine
10
2349.676000000000
20
1226.299000000000
30
0.0
11
2349.676000000000
21
1244.299000000000
31
0.0
0
LINE
5
6dc
100
AcDbEntity
8
0-9扉体
6
CONTINUOUS
62
3
100
AcDbLine
10
2361.676000000000
20
1218.299000000000
30
0.0
11
2355.676000000000
21
1218.299000000000
31
0.0
0
LINE
5
6dd
100
AcDbEntity
8
0-9扉体
6
CONTINUOUS
62
3
100
AcDbLine
10
2361.676000000000
20
1253.553000000000
30
0.0
11
2361.676000000000
21
1218.299000000000
31
0.0
0
LINE
5
6de
100
AcDbEntity
8
0-9扉体
6
CONTINUOUS
62
3
100
AcDbLine
10
2356.266000000000
20
1231.299000000000
30
0.0
11
2361.676000000000
21
1225.889000000000
31
0.0
0
LINE
5
6df
100
AcDbEntity
8
0-9扉体
6
CONTINUOUS
62
3
100
AcDbLine
10
2367.492000000000
20
808.099000000000
30
0.0
11
2371.255000000000
21
811.862000000000
31
0.0
0
LINE
5
6e0
100
AcDbEntity
8
0-9扉体
6
CONTINUOUS
62
3
100
AcDbLine
10
2361.114000000000
20
801.721000000000
30
0.0
11
2364.876000000000
21
805.484000000000
31
0.0
0
LINE
5
6e1
100
AcDbEntity
8
0-9扉体
6
CONTINUOUS
62
3
100
AcDbLine
10
2365.284000000000
20
812.962000000000
30
0.0
11
2368.211000000000
21
815.890000000000
31
0.0
0
LINE
5
6e2
100
AcDbEntity
8
0-9扉体
6
CONTINUOUS
62
3
100
AcDbLine
10
2357.086000000000
20
804.764000000000
30
0.0
11
2360.013000000000
21
807.692000000000
31
0.0
0
LINE
5
6e3
100
AcDbEntity
8
0-9扉体
6
CONTINUOUS
62
3
100
AcDbLine
10
2355.676000000000
20
810.426000000000
30
0.0
11
2362.456000000000
21
817.206000000000
31
0.0
0
LINE
5
6e4
100
AcDbEntity
8
0-9扉体
6
CONTINUOUS
62
3
100
AcDbLine
10
2355.676000000000
20
817.497000000000
30
0.0
11
2361.676000000000
21
823.497000000000
31
0.0
0
LINE
5
6e5
100
AcDbEntity
8
0-9扉体
6
CONTINUOUS
62
3
100
AcDbLine
10
2355.676000000000
20
824.568000000000
30
0.0
11
2361.676000000000
21
830.568000000000
31
0.0
0
LINE
5
6e6
100
AcDbEntity
8
0-9扉体
6
CONTINUOUS
62
3
100
AcDbLine
10
2355.676000000000
20
845.781000000000
30
0.0
11
2361.676000000000
21
851.781000000000
31
0.0
0
LINE
5
6e7
100
AcDbEntity
8
0-9扉体
6
CONTINUOUS
62
3
100
AcDbLine
10
2355.676000000000
20
809.299000000000
30
0.0
11
2355.676000000000
21
852.299000000000
31
0.0
0
LINE
5
6e8
100
AcDbEntity
8
0-9扉体
6
CONTINUOUS
62
3
100
AcDbLine
10
2361.676000000000
20
831.299000000000
30
0.0
11
2355.676000000000
21
831.299000000000
31
0.0
0
LINE
5
6e9
100
AcDbEntity
8
0-9扉体
6
CONTINUOUS
62
3
100
AcDbLine
10
2361.676000000000
20
839.299000000000
30
0.0
11
2355.676000000000
21
839.299000000000
31
0.0
0
LINE
5
6ea
100
AcDbEntity
8
0-9扉体
6
DOT
62
3
100
AcDbLine
10
2363.676000000000
20
839.300000000000
30
0.0
11
2367.677000000000
21
843.299000000000
31
0.0
0
LINE
5
6eb
100
AcDbEntity
8
0-9扉体
6
DOT
62
3
100
AcDbLine
10
2363.676000000000
20
831.300000000000
30
0.0
11
2367.677000000000
21
827.300000000000
31
0.0
0
LINE
5
6ec
100
AcDbEntity
8
0-9扉体
6
DOT
62
3
100
AcDbLine
10
2363.676000000000
20
839.300000000000
30
0.0
11
2363.676000000000
21
831.300000000000
31
0.0
0
LINE
5
6ed
100
AcDbEntity
8
0-9扉体
6
CONTINUOUS
62
3
100
AcDbLine
10
2361.676000000000
20
819.299000000000
30
0.0
11
2367.677000000000
21
819.299000000000
31
0.0
0
LINE
5
6ee
100
AcDbEntity
8
0-9扉体
6
CONTINUOUS
62
3
100
AcDbLine
10
2367.677000000000
20
851.300000000000
30
0.0
11
2367.677000000000
21
819.299000000000
31
0.0
0
LINE
5
6ef
100
AcDbEntity
8
0-9扉体
6
CONTINUOUS
62
3
100
AcDbLine
10
2361.676000000000
20
851.300000000000
30
0.0
11
2367.677000000000
21
851.300000000000
31
0.0
0
LINE
5
6f0
100
AcDbEntity
8
0-9扉体
6
DOT
62
3
100
AcDbLine
10
2349.676000000000
20
831.300000000000
30
0.0
11
2363.676000000000
21
831.300000000000
31
0.0
0
LINE
5
6f1
100
AcDbEntity
8
0-9扉体
6
DOT
62
3
100
AcDbLine
10
2349.676000000000
20
839.300000000000
30
0.0
11
2363.676000000000
21
839.300000000000
31
0.0
0
LINE
5
6f2
100
AcDbEntity
8
0-9扉体
6
CONTINUOUS
62
3
100
AcDbLine
10
2348.076000000000
20
844.300000000000
30
0.0
11
2349.676000000000
21
844.300000000000
31
0.0
0
LINE
5
6f3
100
AcDbEntity
8
0-9扉体
6
CONTINUOUS
62
3
100
AcDbLine
10
2348.076000000000
20
826.300000000000
30
0.0
11
2349.676000000000
21
826.300000000000
31
0.0
0
LINE
5
6f4
100
AcDbEntity
8
0-9扉体
6
CONTINUOUS
62
3
100
AcDbLine
10
2339.676000000000
20
839.300000000000
30
0.0
11
2339.676000000000
21
831.300000000000
31
0.0
0
LINE
5
6f5
100
AcDbEntity
8
0-9扉体
6
CONTINUOUS
62
3
100
AcDbLine
10
2348.076000000000
20
826.300000000000
30
0.0
11
2348.076000000000
21
844.300000000000
31
0.0
0
LINE
5
6f6
100
AcDbEntity
8
0-9扉体
6
CONTINUOUS
62
3
100
AcDbLine
10
2341.576000000000
20
841.800000000000
30
0.0
11
2342.157000000000
21
842.805000000000
31
0.0
0
LINE
5
6f7
100
AcDbEntity
8
0-9扉体
6
CONTINUOUS
62
3
100
AcDbLine
10
2341.576000000000
20
828.800000000000
30
0.0
11
2342.157000000000
21
827.794000000000
31
0.0
0
LINE
5
6f8
100
AcDbEntity
8
0-9扉体
6
CONTINUOUS
62
3
100
AcDbLine
10
2341.576000000000
20
841.800000000000
30
0.0
11
2341.576000000000
21
828.800000000000
31
0.0
0
LINE
5
6f9
100
AcDbEntity
8
0-9扉体
6
CONTINUOUS
62
3
100
AcDbLine
10
2348.076000000000
20
827.794000000000
30
0.0
11
2342.157000000000
21
827.794000000000
31
0.0
0
LINE
5
6fa
100
AcDbEntity
8
0-9扉体
6
CONTINUOUS
62
3
100
AcDbLine
10
2348.076000000000
20
842.805000000000
30
0.0
11
2342.157000000000
21
842.805000000000
31
0.0
0
LINE
5
6fb
100
AcDbEntity
8
0-9扉体
6
CONTINUOUS
62
3
100
AcDbLine
10
2341.576000000000
20
831.300000000000
30
0.0
11
2339.676000000000
21
831.300000000000
31
0.0
0
LINE
5
6fc
100
AcDbEntity
8
0-9扉体
6
CONTINUOUS
62
3
100
AcDbLine
10
2341.576000000000
20
839.300000000000
30
0.0
11
2339.676000000000
21
839.300000000000
31
0.0
0
LINE
5
6fd
100
AcDbEntity
8
0-9扉体
6
CONTINUOUS
62
3
100
AcDbLine
10
2348.076000000000
20
839.052000000000
30
0.0
11
2342.156000000000
21
839.052000000000
31
0.0
0
LINE
5
6fe
100
AcDbEntity
8
0-9扉体
6
CONTINUOUS
62
3
100
AcDbLine
10
2348.076000000000
20
831.547000000000
30
0.0
11
2342.157000000000
21
831.547000000000
31
0.0
0
LINE
5
6ff
100
AcDbEntity
8
0-9扉体
6
CONTINUOUS
62
3
100
AcDbLine
10
2341.576000000000
20
832.300000000000
30
0.0
11
2339.676000000000
21
832.300000000000
31
0.0
0
LINE
5
700
100
AcDbEntity
8
0-9扉体
6
CONTINUOUS
62
3
100
AcDbLine
10
2341.576000000000
20
838.300000000000
30
0.0
11
2339.676000000000
21
838.300000000000
31
0.0
0
LINE
5
701
100
AcDbEntity
8
0-9扉体
6
CONTINUOUS
62
3
100
AcDbLine
10
2349.676000000000
20
844.300000000000
30
0.0
11
2349.676000000000
21
826.300000000000
31
0.0
0
LINE
5
702
100
AcDbEntity
8
0-9扉体
6
CONTINUOUS
62
3
100
AcDbLine
10
2361.676000000000
20
852.299000000000
30
0.0
11
2355.676000000000
21
852.299000000000
31
0.0
0
LINE
5
703
100
AcDbEntity
8
0-9扉体
6
CONTINUOUS
62
3
100
AcDbLine
10
2361.676000000000
20
817.045000000000
30
0.0
11
2361.676000000000
21
852.299000000000
31
0.0
0
LINE
5
704
100
AcDbEntity
8
0-9扉体
6
CONTINUOUS
62
3
100
AcDbLine
10
2356.266000000000
20
839.299000000000
30
0.0
11
2361.676000000000
21
844.710000000000
31
0.0
0
LINE
5
705
100
AcDbEntity
8
0-9扉体
6
CONTINUOUS
62
3
100
AcDbLine
10
2328.176000000000
20
1349.299000000000
30
0.0
11
2306.676000000000
21
1284.299000000000
31
0.0
0
LINE
5
706
100
AcDbEntity
8
0-8寸法
6
CONTINUOUS
62
4
100
AcDbLine
10
2345.676000000000
20
1635.299000000000
30
0.0
11
2326.358000000000
21
1640.476000000000
31
0.0
0
LINE
5
707
100
AcDbEntity
8
0-8寸法
6
CONTINUOUS
62
4
100
AcDbLine
10
2345.676000000000
20
1635.299000000000
30
0.0
11
2326.358000000000
21
1630.123000000000
31
0.0
0
LINE
5
708
100
AcDbEntity
8
0-8寸法
6
CONTINUOUS
62
4
100
AcDbLine
10
2406.584000000000
20
1635.299000000000
30
0.0
11
2261.836000000000
21
1635.299000000000
31
0.0
0
LINE
5
709
100
AcDbEntity
8
0-8寸法
6
CONTINUOUS
62
4
100
AcDbLine
10
2345.676000000000
20
1355.133000000000
30
0.0
11
2345.676000000000
21
1645.299000000000
31
0.0
0
LINE
5
70a
100
AcDbEntity
8
0-9扉体
6
CONTINUOUS
62
4
100
AcDbLine
10
1427.244000000000
20
2256.759000000000
30
0.0
11
1427.244000000000
21
2292.759000000000
31
0.0
0
LINE
5
70b
100
AcDbEntity
8
0-9扉体
6
CONTINUOUS
62
4
100
AcDbLine
10
1373.744000000000
20
2250.759000000000
30
0.0
11
1421.244000000000
21
2250.759000000000
31
0.0
0
POLYLINE
5
70c
100
AcDbEntity
8
0-9扉体
6
CONTINUOUS
62
  4
100
AcDb2dPolyline
66
1
10
0.0
20
0.0
30
0.0
70
0
0
VERTEX
5
70d
100
AcDbEntity
8
0-9扉体
6
CONTINUOUS
62
  4
100
AcDbVertex
100
AcDb2dVertex
10
953.244000000000
20
2244.759000000000
30
0.0
0
VERTEX
5
70e
100
AcDbEntity
8
0-9扉体
6
CONTINUOUS
62
  4
100
AcDbVertex
100
AcDb2dVertex
10
1433.244000000000
20
2244.759000000000
30
0.0
0
VERTEX
5
70f
100
AcDbEntity
8
0-9扉体
6
CONTINUOUS
62
  4
100
AcDbVertex
100
AcDb2dVertex
10
1433.244000000000
20
2292.759000000000
30
0.0
0
SEQEND
5
710
100
AcDbEntity
8
0-9扉体
0
LINE
5
711
100
AcDbEntity
8
0-9扉体
6
CONTINUOUS
62
4
100
AcDbLine
10
1438.244000000000
20
2292.759000000000
30
0.0
11
1438.244000000000
21
2298.759000000000
31
0.0
0
LINE
5
712
100
AcDbEntity
8
0-9扉体
6
CONTINUOUS
62
4
100
AcDbLine
10
1373.244000000000
20
2250.259000000000
30
0.0
11
1373.244000000000
21
2244.759000000000
31
0.0
0
LINE
5
713
100
AcDbEntity
8
0-9扉体
6
CONTINUOUS
62
6
100
AcDbLine
10
993.244000000000
20
2249.759000000000
30
0.0
11
993.244000000000
21
2287.759000000000
31
0.0
0
POLYLINE
5
714
100
AcDbEntity
8
0-9扉体
6
CONTINUOUS
62
  6
100
AcDb2dPolyline
66
1
10
0.0
20
0.0
30
0.0
70
0
0
VERTEX
5
715
100
AcDbEntity
8
0-9扉体
6
CONTINUOUS
62
  6
100
AcDbVertex
100
AcDb2dVertex
10
993.244000000000
20
2249.759000000000
30
0.0
0
VERTEX
5
716
100
AcDbEntity
8
0-9扉体
6
CONTINUOUS
62
  6
100
AcDbVertex
100
AcDb2dVertex
10
1133.244000000000
20
2249.759000000000
30
0.0
0
VERTEX
5
717
100
AcDbEntity
8
0-9扉体
6
CONTINUOUS
62
  6
100
AcDbVertex
100
AcDb2dVertex
10
1133.244000000000
20
2287.759000000000
30
0.0
0
SEQEND
5
718
100
AcDbEntity
8
0-9扉体
0
LINE
5
719
100
AcDbEntity
8
0-9扉体
6
CONTINUOUS
62
6
100
AcDbLine
10
1033.244000000000
20
2268.759000000000
30
0.0
11
1042.244000000000
21
2268.759000000000
31
0.0
0
LINE
5
71a
100
AcDbEntity
8
0-9扉体
6
CONTINUOUS
62
7
100
AcDbLine
10
1022.744000000000
20
2274.243000000000
30
0.0
11
1013.244000000000
21
2279.728000000000
31
0.0
0
LINE
5
71b
100
AcDbEntity
8
0-9扉体
6
CONTINUOUS
62
7
100
AcDbLine
10
1022.744000000000
20
2274.243000000000
30
0.0
11
1022.744000000000
21
2263.274000000000
31
0.0
0
LINE
5
71c
100
AcDbEntity
8
0-9扉体
6
CONTINUOUS
62
7
100
AcDbLine
10
1013.244000000000
20
2257.789000000000
30
0.0
11
1022.744000000000
21
2263.274000000000
31
0.0
0
POLYLINE
5
71d
100
AcDbEntity
8
0-9扉体
6
CONTINUOUS
62
  7
100
AcDb2dPolyline
66
1
10
0.0
20
0.0
30
0.0
70
0
0
VERTEX
5
71e
100
AcDbEntity
8
0-9扉体
6
CONTINUOUS
62
  7
100
AcDbVertex
100
AcDb2dVertex
10
1013.244000000000
20
2257.789000000000
30
0.0
0
VERTEX
5
71f
100
AcDbEntity
8
0-9扉体
6
CONTINUOUS
62
  7
100
AcDbVertex
100
AcDb2dVertex
10
1003.744000000000
20
2263.274000000000
30
0.0
0
VERTEX
5
720
100
AcDbEntity
8
0-9扉体
6
CONTINUOUS
62
  7
100
AcDbVertex
100
AcDb2dVertex
10
1003.744000000000
20
2274.243000000000
30
0.0
0
VERTEX
5
721
100
AcDbEntity
8
0-9扉体
6
CONTINUOUS
62
  7
100
AcDbVertex
100
AcDb2dVertex
10
1013.244000000000
20
2279.728000000000
30
0.0
0
SEQEND
5
722
100
AcDbEntity
8
0-9扉体
0
LINE
5
723
100
AcDbEntity
8
0-5基準線
6
CENTER2
62
7
100
AcDbLine
10
1013.244000000000
20
2282.759000000000
30
0.0
11
1013.244000000000
21
2254.759000000000
31
0.0
0
LINE
5
724
100
AcDbEntity
8
0-5基準線
6
CENTER2
62
7
100
AcDbLine
10
1027.244000000000
20
2268.759000000000
30
0.0
11
999.244000000000
21
2268.759000000000
31
0.0
0
LINE
5
725
100
AcDbEntity
8
0-9扉体
6
CONTINUOUS
62
6
100
AcDbLine
10
1030.644000000000
20
2304.759000000000
30
0.0
11
1030.644000000000
21
2272.759000000000
31
0.0
0
LINE
5
726
100
AcDbEntity
8
0-9扉体
6
CONTINUOUS
62
6
100
AcDbLine
10
1019.744000000000
20
2280.759000000000
30
0.0
11
1030.644000000000
21
2280.759000000000
31
0.0
0
LINE
5
727
100
AcDbEntity
8
0-9扉体
6
CONTINUOUS
62
6
100
AcDbLine
10
1042.244000000000
20
2280.759000000000
30
0.0
11
1044.244000000000
21
2280.759000000000
31
0.0
0
LINE
5
728
100
AcDbEntity
8
0-9扉体
6
CONTINUOUS
62
6
100
AcDbLine
10
1042.244000000000
20
2296.759000000000
30
0.0
11
1044.244000000000
21
2296.759000000000
31
0.0
0
LINE
5
729
100
AcDbEntity
8
0-5基準線
6
CENTER2
62
7
100
AcDbLine
10
1016.244000000000
20
2288.759000000000
30
0.0
11
1110.244000000000
21
2288.759000000000
31
0.0
0
LINE
5
72a
100
AcDbEntity
8
0-9扉体
6
CONTINUOUS
62
6
100
AcDbLine
10
1095.844000000000
20
2304.759000000000
30
0.0
11
1095.844000000000
21
2272.759000000000
31
0.0
0
LINE
5
72b
100
AcDbEntity
8
0-9扉体
6
CONTINUOUS
62
6
100
AcDbLine
10
1095.844000000000
20
2304.759000000000
30
0.0
11
1093.244000000000
21
2304.759000000000
31
0.0
0
LINE
5
72c
100
AcDbEntity
8
0-9扉体
6
CONTINUOUS
62
6
100
AcDbLine
10
1095.844000000000
20
2272.759000000000
30
0.0
11
1093.244000000000
21
2272.759000000000
31
0.0
0
LINE
5
72d
100
AcDbEntity
8
0-9扉体
6
CONTINUOUS
62
6
100
AcDbLine
10
1106.744000000000
20
2280.759000000000
30
0.0
11
1095.844000000000
21
2280.759000000000
31
0.0
0
LINE
5
72e
100
AcDbEntity
8
0-9扉体
6
CONTINUOUS
62
6
100
AcDbLine
10
1084.244000000000
20
2280.759000000000
30
0.0
11
1082.244000000000
21
2280.759000000000
31
0.0
0
LINE
5
72f
100
AcDbEntity
8
0-9扉体
6
CONTINUOUS
62
6
100
AcDbLine
10
1084.244000000000
20
2296.759000000000
30
0.0
11
1082.244000000000
21
2296.759000000000
31
0.0
0
LINE
5
730
100
AcDbEntity
8
0-9扉体
6
CONTINUOUS
62
6
100
AcDbLine
10
1030.644000000000
20
2304.759000000000
30
0.0
11
1033.244000000000
21
2304.759000000000
31
0.0
0
LINE
5
731
100
AcDbEntity
8
0-9扉体
6
CONTINUOUS
62
6
100
AcDbLine
10
1030.644000000000
20
2272.759000000000
30
0.0
11
1033.244000000000
21
2272.759000000000
31
0.0
0
LINE
5
732
100
AcDbEntity
8
0-9扉体
6
CONTINUOUS
62
6
100
AcDbLine
10
1093.244000000000
20
2268.759000000000
30
0.0
11
1084.244000000000
21
2268.759000000000
31
0.0
0
LINE
5
733
100
AcDbEntity
8
0-9扉体
6
CONTINUOUS
62
7
100
AcDbLine
10
1103.744000000000
20
2274.243000000000
30
0.0
11
1113.244000000000
21
2279.728000000000
31
0.0
0
LINE
5
734
100
AcDbEntity
8
0-9扉体
6
CONTINUOUS
62
7
100
AcDbLine
10
1103.744000000000
20
2274.243000000000
30
0.0
11
1103.744000000000
21
2263.274000000000
31
0.0
0
LINE
5
735
100
AcDbEntity
8
0-9扉体
6
CONTINUOUS
62
7
100
AcDbLine
10
1113.244000000000
20
2257.789000000000
30
0.0
11
1103.744000000000
21
2263.274000000000
31
0.0
0
POLYLINE
5
736
100
AcDbEntity
8
0-9扉体
6
CONTINUOUS
62
  7
100
AcDb2dPolyline
66
1
10
0.0
20
0.0
30
0.0
70
0
0
VERTEX
5
737
100
AcDbEntity
8
0-9扉体
6
CONTINUOUS
62
  7
100
AcDbVertex
100
AcDb2dVertex
10
1113.244000000000
20
2257.789000000000
30
0.0
0
VERTEX
5
738
100
AcDbEntity
8
0-9扉体
6
CONTINUOUS
62
  7
100
AcDbVertex
100
AcDb2dVertex
10
1122.744000000000
20
2263.274000000000
30
0.0
0
VERTEX
5
739
100
AcDbEntity
8
0-9扉体
6
CONTINUOUS
62
  7
100
AcDbVertex
100
AcDb2dVertex
10
1122.744000000000
20
2274.243000000000
30
0.0
0
VERTEX
5
73a
100
AcDbEntity
8
0-9扉体
6
CONTINUOUS
62
  7
100
AcDbVertex
100
AcDb2dVertex
10
1113.244000000000
20
2279.728000000000
30
0.0
0
SEQEND
5
73b
100
AcDbEntity
8
0-9扉体
0
LINE
5
73c
100
AcDbEntity
8
0-5基準線
6
CENTER2
62
7
100
AcDbLine
10
1113.244000000000
20
2282.759000000000
30
0.0
11
1113.244000000000
21
2254.759000000000
31
0.0
0
LINE
5
73d
100
AcDbEntity
8
0-5基準線
6
CENTER2
62
7
100
AcDbLine
10
1099.244000000000
20
2268.759000000000
30
0.0
11
1127.244000000000
21
2268.759000000000
31
0.0
0
LINE
5
73e
100
AcDbEntity
8
0-9扉体
6
CONTINUOUS
62
4
100
AcDbLine
10
953.244000000000
20
2244.759000000000
30
0.0
11
953.244000000000
21
2292.759000000000
31
0.0
0
LINE
5
73f
100
AcDbEntity
8
0-9扉体
6
CONTINUOUS
62
4
100
AcDbLine
10
948.244000000000
20
2292.759000000000
30
0.0
11
948.244000000000
21
2298.759000000000
31
0.0
0
LINE
5
740
100
AcDbEntity
8
0-9扉体
6
CONTINUOUS
62
6
100
AcDbLine
10
1019.744000000000
20
2296.759000000000
30
0.0
11
1030.644000000000
21
2296.759000000000
31
0.0
0
LINE
5
741
100
AcDbEntity
8
0-9扉体
6
CONTINUOUS
62
6
100
AcDbLine
10
1019.744000000000
20
2296.759000000000
30
0.0
11
1019.744000000000
21
2280.759000000000
31
0.0
0
LINE
5
742
100
AcDbEntity
8
0-9扉体
6
CONTINUOUS
62
6
100
AcDbLine
10
1106.744000000000
20
2296.759000000000
30
0.0
11
1095.844000000000
21
2296.759000000000
31
0.0
0
LINE
5
743
100
AcDbEntity
8
0-9扉体
6
CONTINUOUS
62
6
100
AcDbLine
10
1106.744000000000
20
2296.759000000000
30
0.0
11
1106.744000000000
21
2280.759000000000
31
0.0
0
LINE
5
744
100
AcDbEntity
8
0-9扉体
6
CONTINUOUS
62
6
100
AcDbLine
10
1106.744000000000
20
2287.759000000000
30
0.0
11
1133.244000000000
21
2287.759000000000
31
0.0
0
LINE
5
745
100
AcDbEntity
8
0-9扉体
6
CONTINUOUS
62
6
100
AcDbLine
10
993.244000000000
20
2287.759000000000
30
0.0
11
1019.744000000000
21
2287.759000000000
31
0.0
0
POLYLINE
5
746
100
AcDbEntity
8
0-9扉体
6
CONTINUOUS
62
  6
100
AcDb2dPolyline
66
1
10
0.0
20
0.0
30
0.0
70
0
0
VERTEX
5
747
100
AcDbEntity
8
0-9扉体
6
CONTINUOUS
62
  6
100
AcDbVertex
100
AcDb2dVertex
10
1033.244000000000
20
2249.759000000000
30
0.0
0
VERTEX
5
748
100
AcDbEntity
8
0-9扉体
6
CONTINUOUS
62
  6
100
AcDbVertex
100
AcDb2dVertex
10
1033.244000000000
20
2308.759000000000
30
0.0
0
VERTEX
5
749
100
AcDbEntity
8
0-9扉体
6
CONTINUOUS
62
  6
100
AcDbVertex
100
AcDb2dVertex
10
1042.244000000000
20
2308.759000000000
30
0.0
0
SEQEND
5
74a
100
AcDbEntity
8
0-9扉体
0
LINE
5
74b
100
AcDbEntity
8
0-9扉体
6
CONTINUOUS
62
6
100
AcDbLine
10
1042.244000000000
20
2249.759000000000
30
0.0
11
1042.244000000000
21
2308.759000000000
31
0.0
0
POLYLINE
5
74c
100
AcDbEntity
8
0-9扉体
6
CONTINUOUS
62
  6
100
AcDb2dPolyline
66
1
10
0.0
20
0.0
30
0.0
70
0
0
VERTEX
5
74d
100
AcDbEntity
8
0-9扉体
6
CONTINUOUS
62
  6
100
AcDbVertex
100
AcDb2dVertex
10
1084.244000000000
20
2249.759000000000
30
0.0
0
VERTEX
5
74e
100
AcDbEntity
8
0-9扉体
6
CONTINUOUS
62
  6
100
AcDbVertex
100
AcDb2dVertex
10
1084.244000000000
20
2308.759000000000
30
0.0
0
VERTEX
5
74f
100
AcDbEntity
8
0-9扉体
6
CONTINUOUS
62
  6
100
AcDbVertex
100
AcDb2dVertex
10
1093.244000000000
20
2308.759000000000
30
0.0
0
SEQEND
5
750
100
AcDbEntity
8
0-9扉体
0
LINE
5
751
100
AcDbEntity
8
0-9扉体
6
CONTINUOUS
62
6
100
AcDbLine
10
1093.244000000000
20
2249.759000000000
30
0.0
11
1093.244000000000
21
2308.759000000000
31
0.0
0
LINE
5
752
100
AcDbEntity
8
0-9扉体
6
CONTINUOUS
62
4
100
AcDbLine
10
948.244000000000
20
2298.759000000000
30
0.0
11
1006.244000000000
21
2298.759000000000
31
0.0
0
LINE
5
753
100
AcDbEntity
8
0-9扉体
6
CONTINUOUS
62
4
100
AcDbLine
10
948.244000000000
20
2292.759000000000
30
0.0
11
1006.244000000000
21
2292.759000000000
31
0.0
0
LINE
5
754
100
AcDbEntity
8
0-9扉体
6
CONTINUOUS
62
4
100
AcDbLine
10
1120.244000000000
20
2298.759000000000
30
0.0
11
1438.244000000000
21
2298.759000000000
31
0.0
0
LINE
5
755
100
AcDbEntity
8
0-9扉体
6
CONTINUOUS
62
4
100
AcDbLine
10
1120.244000000000
20
2292.759000000000
30
0.0
11
1438.244000000000
21
2292.759000000000
31
0.0
0
LINE
5
756
100
AcDbEntity
8
0-5基準線
6
CENTER2
62
7
100
AcDbLine
10
1393.244000000000
20
2275.356000000000
30
0.0
11
1393.244000000000
21
2314.284000000000
31
0.0
0
LINE
5
757
100
AcDbEntity
8
0-9扉体
6
CONTINUOUS
62
3
100
AcDbLine
10
1420.445000000000
20
2310.575000000000
30
0.0
11
1416.682000000000
21
2314.337000000000
31
0.0
0
LINE
5
758
100
AcDbEntity
8
0-9扉体
6
CONTINUOUS
62
3
100
AcDbLine
10
1426.823000000000
20
2304.196000000000
30
0.0
11
1423.060000000000
21
2307.959000000000
31
0.0
0
LINE
5
759
100
AcDbEntity
8
0-9扉体
6
CONTINUOUS
62
3
100
AcDbLine
10
1415.582000000000
20
2308.367000000000
30
0.0
11
1412.654000000000
21
2311.294000000000
31
0.0
0
LINE
5
75a
100
AcDbEntity
8
0-9扉体
6
CONTINUOUS
62
3
100
AcDbLine
10
1423.780000000000
20
2300.169000000000
30
0.0
11
1420.852000000000
21
2303.096000000000
31
0.0
0
LINE
5
75b
100
AcDbEntity
8
0-9扉体
6
CONTINUOUS
62
3
100
AcDbLine
10
1418.118000000000
20
2298.759000000000
30
0.0
11
1411.338000000000
21
2305.539000000000
31
0.0
0
LINE
5
75c
100
AcDbEntity
8
0-9扉体
6
CONTINUOUS
62
3
100
AcDbLine
10
1411.047000000000
20
2298.759000000000
30
0.0
11
1405.047000000000
21
2304.759000000000
31
0.0
0
LINE
5
75d
100
AcDbEntity
8
0-9扉体
6
CONTINUOUS
62
3
100
AcDbLine
10
1403.976000000000
20
2298.759000000000
30
0.0
11
1397.976000000000
21
2304.759000000000
31
0.0
0
LINE
5
75e
100
AcDbEntity
8
0-9扉体
6
CONTINUOUS
62
3
100
AcDbLine
10
1382.763000000000
20
2298.759000000000
30
0.0
11
1376.763000000000
21
2304.759000000000
31
0.0
0
LINE
5
75f
100
AcDbEntity
8
0-9扉体
6
CONTINUOUS
62
3
100
AcDbLine
10
1419.244000000000
20
2298.759000000000
30
0.0
11
1376.244000000000
21
2298.759000000000
31
0.0
0
LINE
5
760
100
AcDbEntity
8
0-9扉体
6
CONTINUOUS
62
3
100
AcDbLine
10
1397.244000000000
20
2304.759000000000
30
0.0
11
1397.244000000000
21
2298.759000000000
31
0.0
0
LINE
5
761
100
AcDbEntity
8
0-9扉体
6
CONTINUOUS
62
3
100
AcDbLine
10
1389.244000000000
20
2304.759000000000
30
0.0
11
1389.244000000000
21
2298.759000000000
31
0.0
0
LINE
5
762
100
AcDbEntity
8
0-9扉体
6
DOT
62
3
100
AcDbLine
10
1389.244000000000
20
2306.759000000000
30
0.0
11
1385.245000000000
21
2310.760000000000
31
0.0
0
LINE
5
763
100
AcDbEntity
8
0-9扉体
6
DOT
62
3
100
AcDbLine
10
1397.244000000000
20
2306.759000000000
30
0.0
11
1401.244000000000
21
2310.760000000000
31
0.0
0
LINE
5
764
100
AcDbEntity
8
0-9扉体
6
DOT
62
3
100
AcDbLine
10
1389.244000000000
20
2306.759000000000
30
0.0
11
1397.244000000000
21
2306.759000000000
31
0.0
0
LINE
5
765
100
AcDbEntity
8
0-9扉体
6
CONTINUOUS
62
3
100
AcDbLine
10
1409.245000000000
20
2304.759000000000
30
0.0
11
1409.245000000000
21
2310.760000000000
31
0.0
0
LINE
5
766
100
AcDbEntity
8
0-9扉体
6
CONTINUOUS
62
3
100
AcDbLine
10
1377.244000000000
20
2310.760000000000
30
0.0
11
1409.245000000000
21
2310.760000000000
31
0.0
0
LINE
5
767
100
AcDbEntity
8
0-9扉体
6
CONTINUOUS
62
3
100
AcDbLine
10
1377.244000000000
20
2304.759000000000
30
0.0
11
1377.244000000000
21
2310.760000000000
31
0.0
0
LINE
5
768
100
AcDbEntity
8
0-9扉体
6
DOT
62
3
100
AcDbLine
10
1397.244000000000
20
2292.759000000000
30
0.0
11
1397.244000000000
21
2306.759000000000
31
0.0
0
LINE
5
769
100
AcDbEntity
8
0-9扉体
6
DOT
62
3
100
AcDbLine
10
1389.244000000000
20
2292.759000000000
30
0.0
11
1389.244000000000
21
2306.759000000000
31
0.0
0
LINE
5
76a
100
AcDbEntity
8
0-9扉体
6
CONTINUOUS
62
3
100
AcDbLine
10
1384.244000000000
20
2291.159000000000
30
0.0
11
1384.244000000000
21
2292.759000000000
31
0.0
0
LINE
5
76b
100
AcDbEntity
8
0-9扉体
6
CONTINUOUS
62
3
100
AcDbLine
10
1402.244000000000
20
2291.159000000000
30
0.0
11
1402.244000000000
21
2292.759000000000
31
0.0
0
LINE
5
76c
100
AcDbEntity
8
0-9扉体
6
CONTINUOUS
62
3
100
AcDbLine
10
1389.244000000000
20
2282.758000000000
30
0.0
11
1397.244000000000
21
2282.758000000000
31
0.0
0
LINE
5
76d
100
AcDbEntity
8
0-9扉体
6
CONTINUOUS
62
3
100
AcDbLine
10
1402.244000000000
20
2291.159000000000
30
0.0
11
1384.244000000000
21
2291.159000000000
31
0.0
0
LINE
5
76e
100
AcDbEntity
8
0-9扉体
6
CONTINUOUS
62
3
100
AcDbLine
10
1386.744000000000
20
2284.658000000000
30
0.0
11
1385.739000000000
21
2285.240000000000
31
0.0
0
LINE
5
76f
100
AcDbEntity
8
0-9扉体
6
CONTINUOUS
62
3
100
AcDbLine
10
1399.744000000000
20
2284.658000000000
30
0.0
11
1400.750000000000
21
2285.240000000000
31
0.0
0
LINE
5
770
100
AcDbEntity
8
0-9扉体
6
CONTINUOUS
62
3
100
AcDbLine
10
1386.744000000000
20
2284.658000000000
30
0.0
11
1399.744000000000
21
2284.658000000000
31
0.0
0
LINE
5
771
100
AcDbEntity
8
0-9扉体
6
CONTINUOUS
62
3
100
AcDbLine
10
1400.750000000000
20
2291.159000000000
30
0.0
11
1400.750000000000
21
2285.240000000000
31
0.0
0
LINE
5
772
100
AcDbEntity
8
0-9扉体
6
CONTINUOUS
62
3
100
AcDbLine
10
1385.739000000000
20
2291.159000000000
30
0.0
11
1385.739000000000
21
2285.240000000000
31
0.0
0
LINE
5
773
100
AcDbEntity
8
0-9扉体
6
CONTINUOUS
62
3
100
AcDbLine
10
1397.244000000000
20
2284.658000000000
30
0.0
11
1397.244000000000
21
2282.758000000000
31
0.0
0
LINE
5
774
100
AcDbEntity
8
0-9扉体
6
CONTINUOUS
62
3
100
AcDbLine
10
1389.244000000000
20
2284.658000000000
30
0.0
11
1389.244000000000
21
2282.758000000000
31
0.0
0
LINE
5
775
100
AcDbEntity
8
0-9扉体
6
CONTINUOUS
62
3
100
AcDbLine
10
1389.492000000000
20
2291.159000000000
30
0.0
11
1389.492000000000
21
2285.239000000000
31
0.0
0
LINE
5
776
100
AcDbEntity
8
0-9扉体
6
CONTINUOUS
62
3
100
AcDbLine
10
1396.997000000000
20
2291.159000000000
30
0.0
11
1396.997000000000
21
2285.240000000000
31
0.0
0
LINE
5
777
100
AcDbEntity
8
0-9扉体
6
CONTINUOUS
62
3
100
AcDbLine
10
1396.244000000000
20
2284.658000000000
30
0.0
11
1396.244000000000
21
2282.758000000000
31
0.0
0
LINE
5
778
100
AcDbEntity
8
0-9扉体
6
CONTINUOUS
62
3
100
AcDbLine
10
1390.244000000000
20
2284.658000000000
30
0.0
11
1390.244000000000
21
2282.758000000000
31
0.0
0
LINE
5
779
100
AcDbEntity
8
0-9扉体
6
CONTINUOUS
62
3
100
AcDbLine
10
1384.244000000000
20
2292.759000000000
30
0.0
11
1402.244000000000
21
2292.759000000000
31
0.0
0
LINE
5
77a
100
AcDbEntity
8
0-9扉体
6
CONTINUOUS
62
3
100
AcDbLine
10
1376.244000000000
20
2304.759000000000
30
0.0
11
1376.244000000000
21
2298.759000000000
31
0.0
0
LINE
5
77b
100
AcDbEntity
8
0-9扉体
6
CONTINUOUS
62
3
100
AcDbLine
10
1411.498000000000
20
2304.759000000000
30
0.0
11
1376.244000000000
21
2304.759000000000
31
0.0
0
LINE
5
77c
100
AcDbEntity
8
0-9扉体
6
CONTINUOUS
62
3
100
AcDbLine
10
1389.244000000000
20
2299.348000000000
30
0.0
11
1383.834000000000
21
2304.759000000000
31
0.0
0
LINE
5
77d
100
AcDbEntity
8
0-9扉体
6
CONTINUOUS
62
4
100
AcDbLine
10
965.516000000000
20
2298.759000000000
30
0.0
11
981.517000000000
21
2314.759000000000
31
0.0
0
LINE
5
77e
100
AcDbEntity
8
0-9扉体
6
CONTINUOUS
62
4
100
AcDbLine
10
961.202000000000
20
2301.516000000000
30
0.0
11
974.445000000000
21
2314.759000000000
31
0.0
0
LINE
5
77f
100
AcDbEntity
8
0-9扉体
6
CONTINUOUS
62
4
100
AcDbLine
10
1177.649000000000
20
2298.759000000000
30
0.0
11
1193.244000000000
21
2314.355000000000
31
0.0
0
LINE
5
780
100
AcDbEntity
8
0-9扉体
6
CONTINUOUS
62
4
100
AcDbLine
10
1170.577000000000
20
2298.759000000000
30
0.0
11
1186.578000000000
21
2314.759000000000
31
0.0
0
LINE
5
781
100
AcDbEntity
8
0-9扉体
6
CONTINUOUS
62
4
100
AcDbLine
10
1135.222000000000
20
2298.759000000000
30
0.0
11
1151.222000000000
21
2314.759000000000
31
0.0
0
LINE
5
782
100
AcDbEntity
8
0-9扉体
6
CONTINUOUS
62
4
100
AcDbLine
10
1128.151000000000
20
2298.759000000000
30
0.0
11
1144.151000000000
21
2314.759000000000
31
0.0
0
LINE
5
783
100
AcDbEntity
8
0-6戸当り
6
CONTINUOUS
62
3
100
AcDbLine
10
2377.676000000000
20
1385.299000000000
30
0.0
11
2371.676000000000
21
1385.299000000000
31
0.0
0
LINE
5
784
100
AcDbEntity
8
0-6戸当り
6
DOT
62
6
100
AcDbLine
10
2363.176000000000
20
1308.299000000000
30
0.0
11
2326.676000000000
21
1308.299000000000
31
0.0
0
LINE
5
785
100
AcDbEntity
8
0-6戸当り
6
DOT
62
6
100
AcDbLine
10
2363.176000000000
20
1342.299000000000
30
0.0
11
2325.861000000000
21
1342.299000000000
31
0.0
0
LINE
5
786
100
AcDbEntity
8
0-6戸当り
6
DOT
62
6
100
AcDbLine
10
2363.176000000000
20
1316.299000000000
30
0.0
11
2326.676000000000
21
1316.299000000000
31
0.0
0
LINE
5
787
100
AcDbEntity
8
0-6戸当り
6
DOT
62
6
100
AcDbLine
10
2323.215000000000
20
1334.299000000000
30
0.0
11
2363.176000000000
21
1334.299000000000
31
0.0
0
LINE
5
788
100
AcDbEntity
8
0-6戸当り
6
CONTINUOUS
62
6
100
AcDbLine
10
2363.176000000000
20
1308.299000000000
30
0.0
11
2371.676000000000
21
1308.299000000000
31
0.0
0
LINE
5
789
100
AcDbEntity
8
0-6戸当り
6
CONTINUOUS
62
6
100
AcDbLine
10
2363.176000000000
20
1342.299000000000
30
0.0
11
2371.676000000000
21
1342.299000000000
31
0.0
0
LINE
5
78a
100
AcDbEntity
8
0-6戸当り
6
CONTINUOUS
62
6
100
AcDbLine
10
2363.176000000000
20
1316.299000000000
30
0.0
11
2371.676000000000
21
1316.299000000000
31
0.0
0
LINE
5
78b
100
AcDbEntity
8
0-6戸当り
6
CONTINUOUS
62
6
100
AcDbLine
10
2363.176000000000
20
1334.299000000000
30
0.0
11
2371.676000000000
21
1334.299000000000
31
0.0
0
LINE
5
78c
100
AcDbEntity
8
0-8寸法
6
CONTINUOUS
62
4
100
AcDbLine
10
2506.584000000000
20
1635.299000000000
30
0.0
11
2345.676000000000
21
1325.299000000000
31
0.0
0
LINE
5
78d
100
AcDbEntity
8
0-6戸当り
6
CONTINUOUS
62
3
100
AcDbLine
10
1126.244000000000
20
1285.299000000000
30
0.0
11
1260.244000000000
21
1285.299000000000
31
0.0
0
LINE
5
78e
100
AcDbEntity
8
0-9扉体
6
CONTINUOUS
62
4
100
AcDbLine
10
1133.244000000000
20
1280.299000000000
30
0.0
11
1253.244000000000
21
1280.299000000000
31
0.0
0
ARC
5
78f
100
AcDbEntity
8
0-5基準線
6
CENTER2
62
7
100
AcDbCircle
10
1419.744000000000
20
2341.259000000000
30
0.0
40
13.000000000000
100
AcDbArc
50
0.000000000000
51
90.000000000000
0
ARC
5
790
100
AcDbEntity
8
0-6戸当り
6
CONTINUOUS
62
3
100
AcDbCircle
10
1419.744000000000
20
2341.259000000000
30
0.0
40
6.500000000000
100
AcDbArc
50
0.000000000000
51
90.000000000000
0
ARC
5
791
100
AcDbEntity
8
0-6戸当り
6
CONTINUOUS
62
3
100
AcDbCircle
10
1419.744000000000
20
2341.259000000000
30
0.0
40
19.500000000000
100
AcDbArc
50
0.000000000000
51
90.000000000000
0
ARC
5
792
100
AcDbEntity
8
0-6戸当り
6
CONTINUOUS
62
3
100
AcDbCircle
10
1405.744000000000
20
2327.259000000000
30
0.0
40
6.500000000000
100
AcDbArc
50
180.000000000000
51
270.000000000000
0
ARC
5
793
100
AcDbEntity
8
0-6戸当り
6
CONTINUOUS
62
3
100
AcDbCircle
10
1394.744000000000
20
2360.259000000000
30
0.0
40
4.500000000000
100
AcDbArc
50
0.000000000000
51
90.000000000000
0
ARC
5
794
100
AcDbEntity
8
0-6戸当り
6
CONTINUOUS
62
3
100
AcDbCircle
10
1438.744000000000
20
2316.259000000000
30
0.0
40
4.500000000000
100
AcDbArc
50
0.000000000000
51
90.000000000000
0
ARC
5
795
100
AcDbEntity
8
0-5基準線
6
CENTER2
62
7
100
AcDbCircle
10
966.744000000000
20
2341.259000000000
30
0.0
40
13.000000000000
100
AcDbArc
50
90.000000000000
51
180.000000000000
0
ARC
5
796
100
AcDbEntity
8
0-6戸当り
6
DOT
62
3
100
AcDbCircle
10
966.744000000000
20
2341.259000000000
30
0.0
40
6.500000000000
100
AcDbArc
50
90.000000000000
51
180.000000000000
0
ARC
5
797
100
AcDbEntity
8
0-6戸当り
6
DOT
62
3
100
AcDbCircle
10
966.744000000000
20
2341.259000000000
30
0.0
40
19.500000000000
100
AcDbArc
50
90.000000000000
51
180.000000000000
0
ARC
5
798
100
AcDbEntity
8
0-6戸当り
6
DOT
62
3
100
AcDbCircle
10
980.744000000000
20
2327.259000000000
30
0.0
40
6.500000000000
100
AcDbArc
50
270.000000000000
51
360.000000000000
0
ARC
5
799
100
AcDbEntity
8
0-6戸当り
6
DOT
62
3
100
AcDbCircle
10
991.744000000000
20
2360.259000000000
30
0.0
40
4.500000000000
100
AcDbArc
50
90.000000000000
51
180.000000000000
0
ARC
5
79a
100
AcDbEntity
8
0-6戸当り
6
DOT
62
3
100
AcDbCircle
10
947.744000000000
20
2316.259000000000
30
0.0
40
4.500000000000
100
AcDbArc
50
90.000000000000
51
180.000000000000
0
ARC
5
79b
100
AcDbEntity
8
0-5基準線
6
CENTER2
62
7
100
AcDbCircle
10
2398.176000000000
20
808.799000000000
30
0.0
40
13.000000000000
100
AcDbArc
50
270.000000000000
51
360.000000000000
0
ARC
5
79c
100
AcDbEntity
8
0-6戸当り
6
CONTINUOUS
62
3
100
AcDbCircle
10
2398.176000000000
20
808.799000000000
30
0.0
40
6.500000000000
100
AcDbArc
50
270.000000000000
51
360.000000000000
0
ARC
5
79d
100
AcDbEntity
8
0-6戸当り
6
CONTINUOUS
62
3
100
AcDbCircle
10
2398.176000000000
20
808.799000000000
30
0.0
40
19.500000000000
100
AcDbArc
50
270.000000000000
51
360.000000000000
0
ARC
5
79e
100
AcDbEntity
8
0-6戸当り
6
CONTINUOUS
62
3
100
AcDbCircle
10
2384.176000000000
20
822.799000000000
30
0.0
40
6.500000000000
100
AcDbArc
50
90.000000000000
51
180.000000000000
0
ARC
5
79f
100
AcDbEntity
8
0-6戸当り
6
CONTINUOUS
62
3
100
AcDbCircle
10
2417.176000000000
20
833.799000000000
30
0.0
40
4.500000000000
100
AcDbArc
50
270.000000000000
51
360.000000000000
0
ARC
5
7a0
100
AcDbEntity
8
0-6戸当り
6
CONTINUOUS
62
3
100
AcDbCircle
10
2373.176000000000
20
789.799000000000
30
0.0
40
4.500000000000
100
AcDbArc
50
270.000000000000
51
360.000000000000
0
ARC
5
7a1
100
AcDbEntity
8
0-5基準線
6
CENTER2
62
7
100
AcDbCircle
10
2398.176000000000
20
1261.799000000000
30
0.0
40
13.000000000000
100
AcDbArc
50
0.000000000000
51
90.000000000000
0
ARC
5
7a2
100
AcDbEntity
8
0-6戸当り
6
CONTINUOUS
62
3
100
AcDbCircle
10
2398.176000000000
20
1261.799000000000
30
0.0
40
6.500000000000
100
AcDbArc
50
0.000000000000
51
90.000000000000
0
ARC
5
7a3
100
AcDbEntity
8
0-6戸当り
6
CONTINUOUS
62
3
100
AcDbCircle
10
2398.176000000000
20
1261.799000000000
30
0.0
40
19.500000000000
100
AcDbArc
50
0.000000000000
51
90.000000000000
0
ARC
5
7a4
100
AcDbEntity
8
0-6戸当り
6
CONTINUOUS
62
3
100
AcDbCircle
10
2417.176000000000
20
1236.799000000000
30
0.0
40
4.500000000000
100
AcDbArc
50
0.000000000000
51
90.000000000000
0
ARC
5
7a5
100
AcDbEntity
8
0-6戸当り
6
CONTINUOUS
62
3
100
AcDbCircle
10
2373.176000000000
20
1280.799000000000
30
0.0
40
4.500000000000
100
AcDbArc
50
0.000000000000
51
90.000000000000
0
ARC
5
7a6
100
AcDbEntity
8
0-6戸当り
6
CONTINUOUS
62
3
100
AcDbCircle
10
2384.176000000000
20
1247.799000000000
30
0.0
40
6.500000000000
100
AcDbArc
50
180.000000000000
51
270.000000000000
0
ARC
5
7a7
100
AcDbEntity
8
0-6戸当り
6
CONTINUOUS
62
7
100
AcDbCircle
10
2369.524000000000
20
1370.299000000000
30
0.0
40
18.152000000000
100
AcDbArc
50
342.412000000000
51
377.588000000000
0
ARC
5
7a8
100
AcDbEntity
8
0-6戸当り
6
CONTINUOUS
62
7
100
AcDbCircle
10
2382.820000000000
20
1362.072000000000
30
0.0
40
4.856000000000
100
AcDbArc
50
334.384000000000
51
394.384000000000
0
ARC
5
7a9
100
AcDbEntity
8
0-6戸当り
6
CONTINUOUS
62
7
100
AcDbCircle
10
2382.820000000000
20
1378.527000000000
30
0.0
40
4.856000000000
100
AcDbArc
50
325.616000000000
51
385.616000000000
0
ARC
5
7aa
100
AcDbEntity
8
0-6戸当り
6
CONTINUOUS
62
6
100
AcDbCircle
10
2440.676000000000
20
1370.299000000000
30
0.0
40
6.000000000000
100
AcDbArc
50
270.000000000000
51
450.000000000000
0
ARC
5
7ab
100
AcDbEntity
8
0-6戸当り
6
DOT
62
6
100
AcDbCircle
10
2440.676000000000
20
1370.299000000000
30
0.0
40
6.000000000000
100
AcDbArc
50
90.000000000000
51
270.000000000000
0
ARC
5
7ac
100
AcDbEntity
8
0-6戸当り
6
CONTINUOUS
62
7
100
AcDbCircle
10
2366.396000000000
20
1365.549000000000
30
0.0
40
13.720000000000
100
AcDbArc
50
159.744000000000
51
200.256000000000
0
ARC
5
7ad
100
AcDbEntity
8
0-6戸当り
6
CONTINUOUS
62
7
100
AcDbCircle
10
2366.396000000000
20
1375.050000000000
30
0.0
40
13.720000000000
100
AcDbArc
50
159.744000000000
51
200.256000000000
0
ARC
5
7ae
100
AcDbEntity
8
0-9扉体
6
CONTINUOUS
62
7
100
AcDbCircle
10
1008.494000000000
20
1285.880000000000
30
0.0
40
13.720000000000
100
AcDbArc
50
69.744000000000
51
110.256000000000
0
ARC
5
7af
100
AcDbEntity
8
0-9扉体
6
CONTINUOUS
62
7
100
AcDbCircle
10
1017.994000000000
20
1285.880000000000
30
0.0
40
13.720000000000
100
AcDbArc
50
69.744000000000
51
110.256000000000
0
ARC
5
7b0
100
AcDbEntity
8
0-9扉体
6
CONTINUOUS
62
7
100
AcDbCircle
10
1117.994000000000
20
1285.880000000000
30
0.0
40
13.720000000000
100
AcDbArc
50
69.744000000000
51
110.256000000000
0
ARC
5
7b1
100
AcDbEntity
8
0-9扉体
6
CONTINUOUS
62
7
100
AcDbCircle
10
1108.494000000000
20
1285.880000000000
30
0.0
40
13.720000000000
100
AcDbArc
50
69.744000000000
51
110.256000000000
0
CIRCLE
5
7b2
100
AcDbEntity
8
0-6戸当り
6
CONTINUOUS
62
7
100
AcDbCircle
10
1015.744000000000
20
1370.299000000000
30
0.0
40
9.500000000000
0
CIRCLE
5
7b3
100
AcDbEntity
8
0-6戸当り
6
CONTINUOUS
62
6
100
AcDbCircle
10
1015.744000000000
20
1370.299000000000
30
0.0
40
6.000000000000
0
CIRCLE
5
7b4
100
AcDbEntity
8
0-6戸当り
6
CONTINUOUS
62
6
100
AcDbCircle
10
1015.744000000000
20
1370.299000000000
30
0.0
40
5.000000000000
0
CIRCLE
5
7b5
100
AcDbEntity
8
0-6戸当り
6
CONTINUOUS
62
7
100
AcDbCircle
10
1110.744000000000
20
1370.299000000000
30
0.0
40
9.500000000000
0
CIRCLE
5
7b6
100
AcDbEntity
8
0-6戸当り
6
CONTINUOUS
62
6
100
AcDbCircle
10
1110.744000000000
20
1370.299000000000
30
0.0
40
6.000000000000
0
CIRCLE
5
7b7
100
AcDbEntity
8
0-6戸当り
6
CONTINUOUS
62
6
100
AcDbCircle
10
1110.744000000000
20
1370.299000000000
30
0.0
40
5.000000000000
0
ARC
5
7b8
100
AcDbEntity
8
0-9扉体
6
CONTINUOUS
62
7
100
AcDbCircle
10
1268.494000000000
20
1285.880000000000
30
0.0
40
13.720000000000
100
AcDbArc
50
69.744000000000
51
110.256000000000
0
ARC
5
7b9
100
AcDbEntity
8
0-9扉体
6
CONTINUOUS
62
7
100
AcDbCircle
10
1277.994000000000
20
1285.880000000000
30
0.0
40
13.720000000000
100
AcDbArc
50
69.744000000000
51
110.256000000000
0
ARC
5
7ba
100
AcDbEntity
8
0-9扉体
6
CONTINUOUS
62
7
100
AcDbCircle
10
1377.995000000000
20
1285.880000000000
30
0.0
40
13.720000000000
100
AcDbArc
50
69.744000000000
51
110.256000000000
0
ARC
5
7bb
100
AcDbEntity
8
0-9扉体
6
CONTINUOUS
62
7
100
AcDbCircle
10
1368.494000000000
20
1285.880000000000
30
0.0
40
13.720000000000
100
AcDbArc
50
69.744000000000
51
110.256000000000
0
CIRCLE
5
7bc
100
AcDbEntity
8
0-6戸当り
6
CONTINUOUS
62
7
100
AcDbCircle
10
1275.745000000000
20
1370.299000000000
30
0.0
40
9.500000000000
0
CIRCLE
5
7bd
100
AcDbEntity
8
0-6戸当り
6
CONTINUOUS
62
6
100
AcDbCircle
10
1275.745000000000
20
1370.299000000000
30
0.0
40
6.000000000000
0
CIRCLE
5
7be
100
AcDbEntity
8
0-6戸当り
6
CONTINUOUS
62
6
100
AcDbCircle
10
1275.745000000000
20
1370.299000000000
30
0.0
40
5.000000000000
0
CIRCLE
5
7bf
100
AcDbEntity
8
0-6戸当り
6
CONTINUOUS
62
7
100
AcDbCircle
10
1370.744000000000
20
1370.299000000000
30
0.0
40
9.500000000000
0
CIRCLE
5
7c0
100
AcDbEntity
8
0-6戸当り
6
CONTINUOUS
62
6
100
AcDbCircle
10
1370.744000000000
20
1370.299000000000
30
0.0
40
6.000000000000
0
CIRCLE
5
7c1
100
AcDbEntity
8
0-6戸当り
6
CONTINUOUS
62
6
100
AcDbCircle
10
1370.744000000000
20
1370.299000000000
30
0.0
40
5.000000000000
0
ARC
5
7c2
100
AcDbEntity
8
0-6戸当り
6
DOT
62
2
100
AcDbCircle
10
1010.994000000000
20
2317.039000000000
30
0.0
40
13.720000000000
100
AcDbArc
50
69.744000000000
51
110.256000000000
0
ARC
5
7c3
100
AcDbEntity
8
0-6戸当り
6
DOT
62
2
100
AcDbCircle
10
1020.494000000000
20
2317.039000000000
30
0.0
40
13.720000000000
100
AcDbArc
50
69.744000000000
51
110.256000000000
0
ARC
5
7c4
100
AcDbEntity
8
0-6戸当り
6
CONTINUOUS
62
7
100
AcDbCircle
10
1020.494000000000
20
2309.479000000000
30
0.0
40
13.720000000000
100
AcDbArc
50
249.744000000000
51
290.256000000000
0
ARC
5
7c5
100
AcDbEntity
8
0-6戸当り
6
CONTINUOUS
62
7
100
AcDbCircle
10
1010.994000000000
20
2309.479000000000
30
0.0
40
13.720000000000
100
AcDbArc
50
249.744000000000
51
290.256000000000
0
ARC
5
7c6
100
AcDbEntity
8
0-5基準線
6
CENTER2
62
7
100
AcDbCircle
10
1027.744000000000
20
2372.759000000000
30
0.0
40
12.000000000000
100
AcDbArc
50
90.000000000000
51
180.000000000000
0
ARC
5
7c7
100
AcDbEntity
8
0-6戸当り
6
DOT
62
2
100
AcDbCircle
10
1027.744000000000
20
2372.759000000000
30
0.0
40
6.000000000000
100
AcDbArc
50
90.000000000000
51
180.000000000000
0
ARC
5
7c8
100
AcDbEntity
8
0-6戸当り
6
DOT
62
2
100
AcDbCircle
10
1027.744000000000
20
2372.759000000000
30
0.0
40
18.000000000000
100
AcDbArc
50
90.000000000000
51
180.000000000000
0
ARC
5
7c9
100
AcDbEntity
8
0-6戸当り
6
DOT
62
2
100
AcDbCircle
10
1115.494000000000
20
2317.039000000000
30
0.0
40
13.720000000000
100
AcDbArc
50
69.744000000000
51
110.256000000000
0
ARC
5
7ca
100
AcDbEntity
8
0-6戸当り
6
DOT
62
2
100
AcDbCircle
10
1105.994000000000
20
2317.039000000000
30
0.0
40
13.720000000000
100
AcDbArc
50
69.744000000000
51
110.256000000000
0
ARC
5
7cb
100
AcDbEntity
8
0-6戸当り
6
CONTINUOUS
62
7
100
AcDbCircle
10
1105.994000000000
20
2309.479000000000
30
0.0
40
13.720000000000
100
AcDbArc
50
249.744000000000
51
290.256000000000
0
ARC
5
7cc
100
AcDbEntity
8
0-6戸当り
6
CONTINUOUS
62
7
100
AcDbCircle
10
1115.494000000000
20
2309.479000000000
30
0.0
40
13.720000000000
100
AcDbArc
50
249.744000000000
51
290.256000000000
0
ARC
5
7cd
100
AcDbEntity
8
0-5基準線
6
CENTER2
62
7
100
AcDbCircle
10
1098.744000000000
20
2372.759000000000
30
0.0
40
12.000000000000
100
AcDbArc
50
0.000000000000
51
90.000000000000
0
ARC
5
7ce
100
AcDbEntity
8
0-6戸当り
6
DOT
62
2
100
AcDbCircle
10
1098.744000000000
20
2372.759000000000
30
0.0
40
6.000000000000
100
AcDbArc
50
0.000000000000
51
90.000000000000
0
ARC
5
7cf
100
AcDbEntity
8
0-6戸当り
6
DOT
62
2
100
AcDbCircle
10
1098.744000000000
20
2372.759000000000
30
0.0
40
18.000000000000
100
AcDbArc
50
0.000000000000
51
90.000000000000
0
ARC
5
7d0
100
AcDbEntity
8
0-9扉体
6
CONTINUOUS
62
4
100
AcDbCircle
10
2313.676000000000
20
1263.299000000000
30
0.0
40
6.000000000000
100
AcDbArc
50
90.000000000000
51
180.000000000000
0
ARC
5
7d1
100
AcDbEntity
8
0-9扉体
6
CONTINUOUS
62
4
100
AcDbCircle
10
2307.176000000000
20
1215.799000000000
30
0.0
40
0.500000000000
100
AcDbArc
50
270.000000000000
51
360.000000000000
0
CIRCLE
5
7d2
100
AcDbEntity
8
0-9扉体
6
CONTINUOUS
62
4
100
AcDbCircle
10
2345.676000000000
20
1325.299000000000
30
0.0
40
8.000000000000
0
ARC
5
7d3
100
AcDbEntity
8
0-9扉体
6
CONTINUOUS
62
7
100
AcDbCircle
10
2325.676000000000
20
1281.448000000000
30
0.0
40
18.152000000000
100
AcDbArc
50
72.412000000000
51
107.588000000000
0
ARC
5
7d4
100
AcDbEntity
8
0-9扉体
6
CONTINUOUS
62
7
100
AcDbCircle
10
2333.904000000000
20
1294.743000000000
30
0.0
40
4.856000000000
100
AcDbArc
50
64.384000000000
51
124.384000000000
0
ARC
5
7d5
100
AcDbEntity
8
0-9扉体
6
CONTINUOUS
62
7
100
AcDbCircle
10
2317.449000000000
20
1294.743000000000
30
0.0
40
4.856000000000
100
AcDbArc
50
55.616000000000
51
115.616000000000
0
ARC
5
7d6
100
AcDbEntity
8
0-9扉体
6
CONTINUOUS
62
7
100
AcDbCircle
10
2325.676000000000
20
1279.451000000000
30
0.0
40
18.152000000000
100
AcDbArc
50
252.412000000000
51
287.588000000000
0
ARC
5
7d7
100
AcDbEntity
8
0-9扉体
6
CONTINUOUS
62
7
100
AcDbCircle
10
2317.449000000000
20
1266.156000000000
30
0.0
40
4.856000000000
100
AcDbArc
50
244.384000000000
51
304.384000000000
0
ARC
5
7d8
100
AcDbEntity
8
0-9扉体
6
CONTINUOUS
62
7
100
AcDbCircle
10
2333.904000000000
20
1266.156000000000
30
0.0
40
4.856000000000
100
AcDbArc
50
235.616000000000
51
295.616000000000
0
ARC
5
7d9
100
AcDbEntity
8
0-9扉体
6
CONTINUOUS
62
4
100
AcDbCircle
10
2313.676000000000
20
807.300000000000
30
0.0
40
6.000000000000
100
AcDbArc
50
180.000000000000
51
270.000000000000
0
ARC
5
7da
100
AcDbEntity
8
0-9扉体
6
CONTINUOUS
62
4
100
AcDbCircle
10
2307.176000000000
20
854.799000000000
30
0.0
40
0.500000000000
100
AcDbArc
50
0.000000000000
51
90.000000000000
0
CIRCLE
5
7db
100
AcDbEntity
8
0-9扉体
6
CONTINUOUS
62
3
100
AcDbCircle
10
2363.676000000000
20
1261.299000000000
30
0.0
40
4.000000000000
0
ARC
5
7dc
100
AcDbEntity
8
0-9扉体
6
CONTINUOUS
62
3
100
AcDbCircle
10
2363.676000000000
20
1261.299000000000
30
0.0
40
8.000000000000
100
AcDbArc
50
255.522000000000
51
540.000000000000
0
ARC
5
7dd
100
AcDbEntity
8
0-9扉体
6
CONTINUOUS
62
3
100
AcDbCircle
10
2353.995000000000
20
1235.299000000000
30
0.0
40
12.419000000000
100
AcDbArc
50
162.412000000000
51
197.588000000000
0
ARC
5
7de
100
AcDbEntity
8
0-9扉体
6
CONTINUOUS
62
3
100
AcDbCircle
10
2344.899000000000
20
1229.670000000000
30
0.0
40
3.323000000000
100
AcDbArc
50
145.615000000000
51
205.614000000000
0
ARC
5
7df
100
AcDbEntity
8
0-9扉体
6
CONTINUOUS
62
3
100
AcDbCircle
10
2344.899000000000
20
1240.928000000000
30
0.0
40
3.323000000000
100
AcDbArc
50
154.386000000000
51
214.385000000000
0
CIRCLE
5
7e0
100
AcDbEntity
8
0-9扉体
6
CONTINUOUS
62
3
100
AcDbCircle
10
2363.676000000000
20
809.299000000000
30
0.0
40
4.000000000000
0
ARC
5
7e1
100
AcDbEntity
8
0-9扉体
6
CONTINUOUS
62
3
100
AcDbCircle
10
2363.676000000000
20
809.299000000000
30
0.0
40
8.000000000000
100
AcDbArc
50
180.000000000000
51
464.478000000000
0
ARC
5
7e2
100
AcDbEntity
8
0-9扉体
6
CONTINUOUS
62
3
100
AcDbCircle
10
2353.995000000000
20
835.299000000000
30
0.0
40
12.419000000000
100
AcDbArc
50
162.412000000000
51
197.588000000000
0
ARC
5
7e3
100
AcDbEntity
8
0-9扉体
6
CONTINUOUS
62
3
100
AcDbCircle
10
2344.899000000000
20
840.929000000000
30
0.0
40
3.323000000000
100
AcDbArc
50
154.386000000000
51
214.385000000000
0
ARC
5
7e4
100
AcDbEntity
8
0-9扉体
6
CONTINUOUS
62
3
100
AcDbCircle
10
2344.899000000000
20
829.671000000000
30
0.0
40
3.323000000000
100
AcDbArc
50
145.615000000000
51
205.614000000000
0
CIRCLE
5
7e5
100
AcDbEntity
8
0-9扉体
6
CONTINUOUS
62
4
100
AcDbCircle
10
2345.676000000000
20
1325.299000000000
30
0.0
40
16.000000000000
0
ARC
5
7e6
100
AcDbEntity
8
0-9扉体
6
CONTINUOUS
62
4
100
AcDbCircle
10
1421.244000000000
20
2256.759000000000
30
0.0
40
6.000000000000
100
AcDbArc
50
270.000000000000
51
360.000000000000
0
ARC
5
7e7
100
AcDbEntity
8
0-9扉体
6
CONTINUOUS
62
4
100
AcDbCircle
10
1373.744000000000
20
2250.259000000000
30
0.0
40
0.500000000000
100
AcDbArc
50
90.000000000000
51
180.000000000000
0
CIRCLE
5
7e8
100
AcDbEntity
8
0-9扉体
6
CONTINUOUS
62
7
100
AcDbCircle
10
1013.244000000000
20
2268.759000000000
30
0.0
40
9.500000000000
0
CIRCLE
5
7e9
100
AcDbEntity
8
0-9扉体
6
CONTINUOUS
62
6
100
AcDbCircle
10
1013.244000000000
20
2268.759000000000
30
0.0
40
6.000000000000
0
CIRCLE
5
7ea
100
AcDbEntity
8
0-9扉体
6
CONTINUOUS
62
6
100
AcDbCircle
10
1013.244000000000
20
2268.759000000000
30
0.0
40
5.000000000000
0
CIRCLE
5
7eb
100
AcDbEntity
8
0-9扉体
6
CONTINUOUS
62
7
100
AcDbCircle
10
1113.244000000000
20
2268.759000000000
30
0.0
40
9.500000000000
0
CIRCLE
5
7ec
100
AcDbEntity
8
0-9扉体
6
CONTINUOUS
62
6
100
AcDbCircle
10
1113.244000000000
20
2268.759000000000
30
0.0
40
6.000000000000
0
CIRCLE
5
7ed
100
AcDbEntity
8
0-9扉体
6
CONTINUOUS
62
6
100
AcDbCircle
10
1113.244000000000
20
2268.759000000000
30
0.0
40
5.000000000000
0
CIRCLE
5
7ee
100
AcDbEntity
8
0-9扉体
6
CONTINUOUS
62
2
100
AcDbCircle
10
1013.244000000000
20
2268.759000000000
30
0.0
40
13.000000000000
0
CIRCLE
5
7ef
100
AcDbEntity
8
0-9扉体
6
CONTINUOUS
62
2
100
AcDbCircle
10
1113.244000000000
20
2268.759000000000
30
0.0
40
13.000000000000
0
CIRCLE
5
7f0
100
AcDbEntity
8
0-9扉体
6
CONTINUOUS
62
3
100
AcDbCircle
10
1419.244000000000
20
2306.759000000000
30
0.0
40
4.000000000000
0
ARC
5
7f1
100
AcDbEntity
8
0-9扉体
6
CONTINUOUS
62
3
100
AcDbCircle
10
1419.244000000000
20
2306.759000000000
30
0.0
40
8.000000000000
100
AcDbArc
50
270.000000000000
51
554.478000000000
0
ARC
5
7f2
100
AcDbEntity
8
0-9扉体
6
CONTINUOUS
62
3
100
AcDbCircle
10
1393.244000000000
20
2297.078000000000
30
0.0
40
12.419000000000
100
AcDbArc
50
252.412000000000
51
287.588000000000
0
ARC
5
7f3
100
AcDbEntity
8
0-9扉体
6
CONTINUOUS
62
3
100
AcDbCircle
10
1387.615000000000
20
2287.982000000000
30
0.0
40
3.323000000000
100
AcDbArc
50
244.386000000000
51
304.385000000000
0
ARC
5
7f4
100
AcDbEntity
8
0-9扉体
6
CONTINUOUS
62
3
100
AcDbCircle
10
1398.873000000000
20
2287.982000000000
30
0.0
40
3.323000000000
100
AcDbArc
50
235.615000000000
51
295.614000000000
0
ARC
5
7f5
100
AcDbEntity
8
0-9扉体
6
CONTINUOUS
62
3
100
AcDbCircle
10
967.244000000000
20
2306.759000000000
30
0.0
40
8.000000000000
100
AcDbArc
50
90.000000000000
51
270.000000000000
0
ARC
5
7f6
100
AcDbEntity
8
0-6戸当り
6
CONTINUOUS
62
6
100
AcDbCircle
10
2326.676000000000
20
1325.299000000000
30
0.0
40
17.000000000000
100
AcDbArc
50
92.771000000000
51
230.624000000000
0
ARC
5
7f7
100
AcDbEntity
8
0-6戸当り
6
CONTINUOUS
62
6
100
AcDbCircle
10
2326.676000000000
20
1325.299000000000
30
0.0
40
9.000000000000
100
AcDbArc
50
114.476000000000
51
208.919000000000
0
ARC
5
7f8
100
AcDbEntity
8
0-6戸当り
6
DOT
62
6
100
AcDbCircle
10
2326.676000000000
20
1325.299000000000
30
0.0
40
9.000000000000
100
AcDbArc
50
208.919000000000
51
270.000000000000
0
ARC
5
7f9
100
AcDbEntity
8
0-6戸当り
6
DOT
62
6
100
AcDbCircle
10
2326.676000000000
20
1325.299000000000
30
0.0
40
17.000000000000
100
AcDbArc
50
230.624000000000
51
270.000000000000
0
POLYLINE
5
7fa
100
AcDbEntity
  8
0-8寸法
6
CONTINUOUS
62
4
100
AcDb2dPolyline
66
1
10
0
20
0
70
1
40
4.000
41
4.000
0
VERTEX
5
7fb
100
AcDbEntity
  8
0-8寸法
6
CONTINUOUS
62
4
100
AcDbVertex
100
AcDb2dVertex
10
1069.188
20
815.964
30
0.0
42
1.000
0
VERTEX
5
7fc
100
AcDbEntity
  8
0-8寸法
6
CONTINUOUS
62
4
100
AcDbVertex
100
AcDb2dVertex
10
1073.188
20
815.964
30
0.0
42
1.000
0
SEQEND
5
7fd
100
AcDbEntity
  8
0-8寸法
0
POLYLINE
5
7fe
100
AcDbEntity
  8
0-8寸法
6
CONTINUOUS
62
2
100
AcDb2dPolyline
66
1
10
0
20
0
70
1
40
4.000
41
4.000
0
VERTEX
5
7ff
100
AcDbEntity
  8
0-8寸法
6
CONTINUOUS
62
2
100
AcDbVertex
100
AcDb2dVertex
10
2369.676
20
985.299
30
0.0
42
1.000
0
VERTEX
5
800
100
AcDbEntity
  8
0-8寸法
6
CONTINUOUS
62
2
100
AcDbVertex
100
AcDb2dVertex
10
2373.676
20
985.299
30
0.0
42
1.000
0
SEQEND
5
801
100
AcDbEntity
  8
0-8寸法
0
POLYLINE
5
802
100
AcDbEntity
  8
0-8寸法
6
CONTINUOUS
62
2
100
AcDb2dPolyline
66
1
10
0
20
0
70
1
40
4.000
41
4.000
0
VERTEX
5
803
100
AcDbEntity
  8
0-8寸法
6
CONTINUOUS
62
2
100
AcDbVertex
100
AcDb2dVertex
10
2408.699
20
832.818
30
0.0
42
1.000
0
VERTEX
5
804
100
AcDbEntity
  8
0-8寸法
6
CONTINUOUS
62
2
100
AcDbVertex
100
AcDb2dVertex
10
2412.699
20
832.818
30
0.0
42
1.000
0
SEQEND
5
805
100
AcDbEntity
  8
0-8寸法
0
POLYLINE
5
806
100
AcDbEntity
  8
0-8寸法
6
CONTINUOUS
62
6
100
AcDb2dPolyline
66
1
10
0
20
0
70
1
40
4.000
41
4.000
0
VERTEX
5
807
100
AcDbEntity
  8
0-8寸法
6
CONTINUOUS
62
6
100
AcDbVertex
100
AcDb2dVertex
10
1038.353
20
1370.324
30
0.0
42
1.000
0
VERTEX
5
808
100
AcDbEntity
  8
0-8寸法
6
CONTINUOUS
62
6
100
AcDbVertex
100
AcDb2dVertex
10
1042.353
20
1370.324
30
0.0
42
1.000
0
SEQEND
5
809
100
AcDbEntity
  8
0-8寸法
0
POLYLINE
5
80a
100
AcDbEntity
  8
0-8寸法
6
CONTINUOUS
62
2
100
AcDb2dPolyline
66
1
10
0
20
0
70
1
40
4.000
41
4.000
0
VERTEX
5
80b
100
AcDbEntity
  8
0-8寸法
6
CONTINUOUS
62
2
100
AcDbVertex
100
AcDb2dVertex
10
2347.676
20
1085.299
30
0.0
42
1.000
0
VERTEX
5
80c
100
AcDbEntity
  8
0-8寸法
6
CONTINUOUS
62
2
100
AcDbVertex
100
AcDb2dVertex
10
2351.676
20
1085.299
30
0.0
42
1.000
0
SEQEND
5
80d
100
AcDbEntity
  8
0-8寸法
0
POLYLINE
5
80e
100
AcDbEntity
  8
0-8寸法
6
CONTINUOUS
62
2
100
AcDb2dPolyline
66
1
10
0
20
0
70
1
40
4.000
41
4.000
0
VERTEX
5
80f
100
AcDbEntity
  8
0-8寸法
6
CONTINUOUS
62
2
100
AcDbVertex
100
AcDb2dVertex
10
2202.676
20
1275.299
30
0.0
42
1.000
0
VERTEX
5
810
100
AcDbEntity
  8
0-8寸法
6
CONTINUOUS
62
2
100
AcDbVertex
100
AcDb2dVertex
10
2206.676
20
1275.299
30
0.0
42
1.000
0
SEQEND
5
811
100
AcDbEntity
  8
0-8寸法
0
POLYLINE
5
812
100
AcDbEntity
  8
0-8寸法
6
CONTINUOUS
62
2
100
AcDb2dPolyline
66
1
10
0
20
0
70
1
40
4.000
41
4.000
0
VERTEX
5
813
100
AcDbEntity
  8
0-8寸法
6
CONTINUOUS
62
2
100
AcDbVertex
100
AcDb2dVertex
10
2343.676
20
1325.299
30
0.0
42
1.000
0
VERTEX
5
814
100
AcDbEntity
  8
0-8寸法
6
CONTINUOUS
62
2
100
AcDbVertex
100
AcDb2dVertex
10
2347.676
20
1325.299
30
0.0
42
1.000
0
SEQEND
5
815
100
AcDbEntity
  8
0-8寸法
0
POLYLINE
5
816
100
AcDbEntity
  8
0-8寸法
6
CONTINUOUS
62
2
100
AcDb2dPolyline
66
1
10
0
20
0
70
1
40
4.000
41
4.000
0
VERTEX
5
817
100
AcDbEntity
  8
0-8寸法
6
CONTINUOUS
62
2
100
AcDbVertex
100
AcDb2dVertex
10
1416.078
20
2303.925
30
0.0
42
1.000
0
VERTEX
5
818
100
AcDbEntity
  8
0-8寸法
6
CONTINUOUS
62
2
100
AcDbVertex
100
AcDb2dVertex
10
1420.078
20
2303.925
30
0.0
42
1.000
0
SEQEND
5
819
100
AcDbEntity
  8
0-8寸法
0
TEXT
5
81a
100
AcDbEntity
8
0-A文字
62
7
370
-3
100
AcDbText
10
1965.117
20
1072.229
30
0.0
40
33.660
1
水圧方向
41
0.963
50
0.000
100
AcDbText
0
TEXT
5
81b
100
AcDbEntity
8
0-A文字
62
7
370
-3
100
AcDbText
10
1110.283
20
1079.902
30
0.0
40
33.660
1
ｽｷﾝﾌﾟﾚ-ﾄ
41
0.893
50
0.000
100
AcDbText
0
TEXT
5
81c
100
AcDbEntity
8
0-A文字
62
7
370
-3
100
AcDbText
10
1110.229
20
1019.902
30
0.0
40
33.660
1
PL-6t
41
0.577
50
0.000
100
AcDbText
0
TEXT
5
81d
100
AcDbEntity
8
0-A文字
62
7
370
-3
100
AcDbText
10
1110.265
20
969.902
30
0.0
40
33.660
1
(A5083)
41
0.659
50
0.000
100
AcDbText
0
TEXT
5
81e
100
AcDbEntity
8
0-8寸法
62
7
370
-3
100
AcDbText
10
518.444
20
499.346
30
0.0
40
33.660
1
L48x60x6(A5083)
41
0.619
50
0.000
100
AcDbText
0
MTEXT
5
81f
100
AcDbEntity
8
0-8寸法
62
7
370
-3
100
AcDbMText
10
1958.301
20
1395.606
30
0.0
40
31.790
41
0.000
71
7
72
1
1
\W1.093;▽{\W0.787;H.W.L.}
7
STANDARD
11
1.00000
21
0.00000
31
0.0
0
MTEXT
5
820
100
AcDbEntity
8
0-8寸法
62
7
370
-3
100
AcDbMText
10
1725.422
20
495.606
30
0.0
40
31.790
41
0.000
71
7
72
1
1
\W1.093;{\W0.787;ｱﾝｶ-   RB-}φ{\W0.787;13(SS400)}
7
STANDARD
11
1.00000
21
0.00000
31
0.0
0
MTEXT
5
821
100
AcDbEntity
8
0-8寸法
62
7
370
-3
100
AcDbMText
10
1725.476
20
335.606
30
0.0
40
31.790
41
0.000
71
7
72
1
1
\W1.093;挿筋とφ{\W0.787;13ｱﾝｶ-}溶接のこと
7
STANDARD
11
1.00000
21
0.00000
31
0.0
0
MTEXT
5
822
100
AcDbEntity
8
0-8寸法
62
7
370
-3
100
AcDbMText
10
1725.422
20
395.606
30
0.0
40
31.790
41
0.000
71
7
72
1
1
\W1.093;（基礎挿筋{\W0.787; D13}～{\W0.787;D16}）
7
STANDARD
11
1.00000
21
0.00000
31
0.0
0
TEXT
5
823
100
AcDbEntity
8
0-8寸法
62
7
370
-3
100
AcDbText
10
2393.312
20
1099.346
30
0.0
40
33.660
1
6t
41
0.574
50
0.000
100
AcDbText
0
TEXT
5
824
100
AcDbEntity
8
0-8寸法
62
7
370
-3
100
AcDbText
10
1162.398
20
1649.346
30
0.0
40
33.660
1
260
41
0.587
50
0.000
100
AcDbText
0
MTEXT
5
825
100
AcDbEntity
8
0-8寸法
62
7
370
-3
100
AcDbMText
10
1083.774
20
395.606
30
0.0
40
31.790
41
0.000
71
7
72
1
1
\W1.093;扉体幅{\W0.787; 480}
7
STANDARD
11
1.00000
21
0.00000
31
0.0
0
MTEXT
5
826
100
AcDbEntity
8
0-8寸法
62
7
370
-3
100
AcDbMText
10
1061.310
20
495.606
30
0.0
40
31.790
41
0.000
71
7
72
1
1
\W1.093;挿筋{\W0.787;ﾋﾟｯﾁ 300}
7
STANDARD
11
1.00000
21
0.00000
31
0.0
0
TEXT
5
827
100
AcDbEntity
8
0-8寸法
62
7
370
-3
100
AcDbText
10
2449.562
20
999.346
30
0.0
40
33.660
1
50
41
0.626
50
0.000
100
AcDbText
0
MTEXT
5
828
100
AcDbEntity
8
0-8寸法
62
7
370
-3
100
AcDbMText
10
1725.458
20
595.606
30
0.0
40
31.790
41
0.000
71
7
72
1
1
\W1.093;戸当り{\W0.787; L50x50x6(SUS304)}
7
STANDARD
11
1.00000
21
0.00000
31
0.0
0
TEXT
5
829
100
AcDbEntity
8
0-8寸法
62
7
370
-3
100
AcDbText
10
2239.062
20
1099.346
30
0.0
40
33.660
1
48
41
0.583
50
0.000
100
AcDbText
0
TEXT
5
82a
100
AcDbEntity
8
0-8寸法
62
7
370
-3
100
AcDbText
10
2190.629
20
1175.685
30
0.0
40
33.660
1
40
41
0.657
50
90.000
100
AcDbText
0
TEXT
5
82b
100
AcDbEntity
8
0-8寸法
62
7
370
-3
100
AcDbText
10
2190.629
20
1350.685
30
0.0
40
33.660
1
50
41
0.626
50
90.000
100
AcDbText
0
TEXT
5
82c
100
AcDbEntity
8
0-8寸法
62
7
370
-3
100
AcDbText
10
2294.562
20
999.346
30
0.0
40
33.660
1
16
41
0.716
50
0.000
100
AcDbText
0
TEXT
5
82d
100
AcDbEntity
8
0-8寸法
62
7
370
-3
100
AcDbText
10
2277.562
20
1649.346
30
0.0
40
33.660
1
26
41
0.542
50
0.000
100
AcDbText
0
MTEXT
5
82e
100
AcDbEntity
8
0-8寸法
62
7
370
-3
100
AcDbMText
10
1540.474
20
2145.606
30
0.0
40
31.790
41
0.000
71
7
72
1
1
\W1.093;水密ゴム{\W0.787; }Ｐ型{\W0.787; }φ{\W0.787;16x51x7(CRｺﾞﾑ)}
7
STANDARD
11
1.00000
21
0.00000
31
0.0
0
MTEXT
5
82f
100
AcDbEntity
8
0-8寸法
62
7
370
-3
100
AcDbMText
10
1861.369
20
949.669
30
0.0
40
31.790
41
0.000
71
7
72
1
1
\W1.093;設計水深{\W0.787; 3.40 m}
7
STANDARD
11
0.00000
21
1.00000
31
0.0
0
LINE
5
830
100
AcDbEntity
8
0-1_J_POINT
6
CONTINUOUS
62
3
100
AcDbLine
10
2446.676000000000
20
1303.799000000000
30
0.0
11
2446.676000000000
21
1316.799000000000
31
0.0
0
LINE
5
831
100
AcDbEntity
8
0-1_J_POINT
6
PHANTOM2
62
3
100
AcDbLine
10
2546.676000000000
20
1295.299000000000
30
0.0
11
2546.676000000000
21
1325.299000000000
31
0.0
0
LINE
5
832
100
AcDbEntity
8
0-1_J_POINT
6
CONTINUOUS
62
3
100
AcDbLine
10
2446.676000000000
20
1303.799000000000
30
0.0
11
2546.676000000000
21
1303.799000000000
31
0.0
0
LINE
5
833
100
AcDbEntity
8
0-1_J_POINT
6
CONTINUOUS
62
3
100
AcDbLine
10
2446.676000000000
20
1316.799000000000
30
0.0
11
2546.676000000000
21
1316.799000000000
31
0.0
0
LINE
5
834
100
AcDbEntity
8
0-1_J_POINT
6
CENTER2
62
7
100
AcDbLine
10
2440.331000000000
20
1310.299000000000
30
0.0
11
2553.135000000000
21
1310.299000000000
31
0.0
0
LINE
5
835
100
AcDbEntity
8
0-1_J_POINT
6
CONTINUOUS
62
3
100
AcDbLine
10
2446.676000000000
20
753.799000000000
30
0.0
11
2446.676000000000
21
766.799000000000
31
0.0
0
LINE
5
836
100
AcDbEntity
8
0-1_J_POINT
6
PHANTOM2
62
3
100
AcDbLine
10
2546.676000000000
20
745.299000000000
30
0.0
11
2546.676000000000
21
775.299000000000
31
0.0
0
LINE
5
837
100
AcDbEntity
8
0-1_J_POINT
6
CONTINUOUS
62
3
100
AcDbLine
10
2446.676000000000
20
753.799000000000
30
0.0
11
2546.676000000000
21
753.799000000000
31
0.0
0
LINE
5
838
100
AcDbEntity
8
0-1_J_POINT
6
CONTINUOUS
62
3
100
AcDbLine
10
2446.676000000000
20
766.799000000000
30
0.0
11
2546.676000000000
21
766.799000000000
31
0.0
0
LINE
5
839
100
AcDbEntity
8
0-1_J_POINT
6
CENTER2
62
7
100
AcDbLine
10
2440.331000000000
20
760.299000000000
30
0.0
11
2553.135000000000
21
760.299000000000
31
0.0
0
LINE
5
83a
100
AcDbEntity
8
0-1_J_POINT
6
CONTINUOUS
62
3
100
AcDbLine
10
1474.744000000000
20
2389.759000000000
30
0.0
11
1461.744000000000
21
2389.759000000000
31
0.0
0
LINE
5
83b
100
AcDbEntity
8
0-1_J_POINT
6
PHANTOM2
62
3
100
AcDbLine
10
1483.244000000000
20
2489.759000000000
30
0.0
11
1453.244000000000
21
2489.759000000000
31
0.0
0
LINE
5
83c
100
AcDbEntity
8
0-1_J_POINT
6
CONTINUOUS
62
3
100
AcDbLine
10
1474.744000000000
20
2389.759000000000
30
0.0
11
1474.744000000000
21
2489.759000000000
31
0.0
0
LINE
5
83d
100
AcDbEntity
8
0-1_J_POINT
6
CONTINUOUS
62
3
100
AcDbLine
10
1461.744000000000
20
2389.759000000000
30
0.0
11
1461.744000000000
21
2489.759000000000
31
0.0
0
LINE
5
83e
100
AcDbEntity
8
0-1_J_POINT
6
CENTER2
62
7
100
AcDbLine
10
1468.244000000000
20
2383.414000000000
30
0.0
11
1468.244000000000
21
2496.218000000000
31
0.0
0
LINE
5
83f
100
AcDbEntity
8
0-1_J_POINT
6
CENTER2
62
7
100
AcDbLine
10
918.244000000000
20
2383.414000000000
30
0.0
11
918.244000000000
21
2496.218000000000
31
0.0
0
LINE
5
840
100
AcDbEntity
8
0-1_J_POINT
6
CONTINUOUS
62
3
100
AcDbLine
10
1349.744000000000
20
2389.759000000000
30
0.0
11
1336.744000000000
21
2389.759000000000
31
0.0
0
LINE
5
841
100
AcDbEntity
8
0-1_J_POINT
6
PHANTOM2
62
3
100
AcDbLine
10
1358.244000000000
20
2489.759000000000
30
0.0
11
1328.244000000000
21
2489.759000000000
31
0.0
0
LINE
5
842
100
AcDbEntity
8
0-1_J_POINT
6
CONTINUOUS
62
3
100
AcDbLine
10
1349.744000000000
20
2389.759000000000
30
0.0
11
1349.744000000000
21
2489.759000000000
31
0.0
0
LINE
5
843
100
AcDbEntity
8
0-1_J_POINT
6
CONTINUOUS
62
3
100
AcDbLine
10
1336.744000000000
20
2389.759000000000
30
0.0
11
1336.744000000000
21
2489.759000000000
31
0.0
0
LINE
5
844
100
AcDbEntity
8
0-1_J_POINT
6
CENTER2
62
7
100
AcDbLine
10
1343.244000000000
20
2383.414000000000
30
0.0
11
1343.244000000000
21
2496.218000000000
31
0.0
0
LINE
5
845
100
AcDbEntity
8
0-1_J_POINT
6
CENTER2
62
7
100
AcDbLine
10
1043.244000000000
20
2383.414000000000
30
0.0
11
1043.244000000000
21
2496.218000000000
31
0.0
0
CIRCLE
5
846
100
AcDbEntity
8
0-1_J_POINT
6
CONTINUOUS
62
3
100
AcDbCircle
10
1468.244000000000
20
1185.299000000000
30
0.0
40
7.500000000000
0
LINE
5
847
100
AcDbEntity
8
0-1_J_POINT
6
CENTER
62
7
100
AcDbLine
10
1468.244000000000
20
1185.299000000000
30
0.0
11
1455.244000000000
21
1185.299000000000
31
0.0
0
LINE
5
848
100
AcDbEntity
8
0-1_J_POINT
6
CENTER
62
7
100
AcDbLine
10
1468.244000000000
20
1185.299000000000
30
0.0
11
1481.244000000000
21
1185.299000000000
31
0.0
0
LINE
5
849
100
AcDbEntity
8
0-1_J_POINT
6
CENTER
62
7
100
AcDbLine
10
1468.244000000000
20
1185.299000000000
30
0.0
11
1468.244000000000
21
1198.299000000000
31
0.0
0
LINE
5
84a
100
AcDbEntity
8
0-1_J_POINT
6
CENTER
62
7
100
AcDbLine
10
1468.244000000000
20
1185.299000000000
30
0.0
11
1468.244000000000
21
1172.299000000000
31
0.0
0
CIRCLE
5
84b
100
AcDbEntity
8
0-1_J_POINT
6
CONTINUOUS
62
3
100
AcDbCircle
10
1468.244000000000
20
885.299000000000
30
0.0
40
7.500000000000
0
LINE
5
84c
100
AcDbEntity
8
0-1_J_POINT
6
CENTER
62
7
100
AcDbLine
10
1468.244000000000
20
885.299000000000
30
0.0
11
1455.244000000000
21
885.299000000000
31
0.0
0
LINE
5
84d
100
AcDbEntity
8
0-1_J_POINT
6
CENTER
62
7
100
AcDbLine
10
1468.244000000000
20
885.299000000000
30
0.0
11
1481.244000000000
21
885.299000000000
31
0.0
0
LINE
5
84e
100
AcDbEntity
8
0-1_J_POINT
6
CENTER
62
7
100
AcDbLine
10
1468.244000000000
20
885.299000000000
30
0.0
11
1468.244000000000
21
898.299000000000
31
0.0
0
LINE
5
84f
100
AcDbEntity
8
0-1_J_POINT
6
CENTER
62
7
100
AcDbLine
10
1468.244000000000
20
885.299000000000
30
0.0
11
1468.244000000000
21
872.299000000000
31
0.0
0
CIRCLE
5
850
100
AcDbEntity
8
0-1_J_POINT
6
CONTINUOUS
62
3
100
AcDbCircle
10
1343.244000000000
20
760.299000000000
30
0.0
40
7.500000000000
0
LINE
5
851
100
AcDbEntity
8
0-1_J_POINT
6
CENTER
62
7
100
AcDbLine
10
1343.244000000000
20
760.299000000000
30
0.0
11
1330.244000000000
21
760.299000000000
31
0.0
0
LINE
5
852
100
AcDbEntity
8
0-1_J_POINT
6
CENTER
62
7
100
AcDbLine
10
1343.244000000000
20
760.299000000000
30
0.0
11
1356.244000000000
21
760.299000000000
31
0.0
0
LINE
5
853
100
AcDbEntity
8
0-1_J_POINT
6
CENTER
62
7
100
AcDbLine
10
1343.244000000000
20
760.299000000000
30
0.0
11
1343.244000000000
21
773.299000000000
31
0.0
0
LINE
5
854
100
AcDbEntity
8
0-1_J_POINT
6
CENTER
62
7
100
AcDbLine
10
1343.244000000000
20
760.299000000000
30
0.0
11
1343.244000000000
21
747.299000000000
31
0.0
0
CIRCLE
5
855
100
AcDbEntity
8
0-1_J_POINT
6
CONTINUOUS
62
3
100
AcDbCircle
10
1043.244000000000
20
760.299000000000
30
0.0
40
7.500000000000
0
LINE
5
856
100
AcDbEntity
8
0-1_J_POINT
6
CENTER
62
7
100
AcDbLine
10
1043.244000000000
20
760.299000000000
30
0.0
11
1030.244000000000
21
760.299000000000
31
0.0
0
LINE
5
857
100
AcDbEntity
8
0-1_J_POINT
6
CENTER
62
7
100
AcDbLine
10
1043.244000000000
20
760.299000000000
30
0.0
11
1056.244000000000
21
760.299000000000
31
0.0
0
LINE
5
858
100
AcDbEntity
8
0-1_J_POINT
6
CENTER
62
7
100
AcDbLine
10
1043.244000000000
20
760.299000000000
30
0.0
11
1043.244000000000
21
773.299000000000
31
0.0
0
LINE
5
859
100
AcDbEntity
8
0-1_J_POINT
6
CENTER
62
7
100
AcDbLine
10
1043.244000000000
20
760.299000000000
30
0.0
11
1043.244000000000
21
747.299000000000
31
0.0
0
CIRCLE
5
85a
100
AcDbEntity
8
0-1_J_POINT
6
CONTINUOUS
62
3
100
AcDbCircle
10
918.244000000000
20
885.299000000000
30
0.0
40
7.500000000000
0
LINE
5
85b
100
AcDbEntity
8
0-1_J_POINT
6
CENTER
62
7
100
AcDbLine
10
918.244000000000
20
885.299000000000
30
0.0
11
905.244000000000
21
885.299000000000
31
0.0
0
LINE
5
85c
100
AcDbEntity
8
0-1_J_POINT
6
CENTER
62
7
100
AcDbLine
10
918.244000000000
20
885.299000000000
30
0.0
11
931.244000000000
21
885.299000000000
31
0.0
0
LINE
5
85d
100
AcDbEntity
8
0-1_J_POINT
6
CENTER
62
7
100
AcDbLine
10
918.244000000000
20
885.299000000000
30
0.0
11
918.244000000000
21
898.299000000000
31
0.0
0
LINE
5
85e
100
AcDbEntity
8
0-1_J_POINT
6
CENTER
62
7
100
AcDbLine
10
918.244000000000
20
885.299000000000
30
0.0
11
918.244000000000
21
872.299000000000
31
0.0
0
CIRCLE
5
85f
100
AcDbEntity
8
0-1_J_POINT
6
CONTINUOUS
62
3
100
AcDbCircle
10
918.244000000000
20
1185.299000000000
30
0.0
40
7.500000000000
0
LINE
5
860
100
AcDbEntity
8
0-1_J_POINT
6
CENTER
62
7
100
AcDbLine
10
918.244000000000
20
1185.299000000000
30
0.0
11
905.244000000000
21
1185.299000000000
31
0.0
0
LINE
5
861
100
AcDbEntity
8
0-1_J_POINT
6
CENTER
62
7
100
AcDbLine
10
918.244000000000
20
1185.299000000000
30
0.0
11
931.244000000000
21
1185.299000000000
31
0.0
0
LINE
5
862
100
AcDbEntity
8
0-1_J_POINT
6
CENTER
62
7
100
AcDbLine
10
918.244000000000
20
1185.299000000000
30
0.0
11
918.244000000000
21
1198.299000000000
31
0.0
0
LINE
5
863
100
AcDbEntity
8
0-1_J_POINT
6
CENTER
62
7
100
AcDbLine
10
918.244000000000
20
1185.299000000000
30
0.0
11
918.244000000000
21
1172.299000000000
31
0.0
0
LINE
5
864
100
AcDbEntity
8
0-1_J_POINT
6
DOT
62
3
100
AcDbLine
10
924.744000000000
20
2389.759000000000
30
0.0
11
911.744000000000
21
2389.759000000000
31
0.0
0
LINE
5
865
100
AcDbEntity
8
0-1_J_POINT
6
DOT
62
3
100
AcDbLine
10
933.244000000000
20
2489.759000000000
30
0.0
11
903.244000000000
21
2489.759000000000
31
0.0
0
LINE
5
866
100
AcDbEntity
8
0-1_J_POINT
6
DOT
62
3
100
AcDbLine
10
924.744000000000
20
2389.759000000000
30
0.0
11
924.744000000000
21
2489.759000000000
31
0.0
0
LINE
5
867
100
AcDbEntity
8
0-1_J_POINT
6
DOT
62
3
100
AcDbLine
10
911.744000000000
20
2389.759000000000
30
0.0
11
911.744000000000
21
2489.759000000000
31
0.0
0
LINE
5
868
100
AcDbEntity
8
0-1_J_POINT
6
DOT
62
3
100
AcDbLine
10
1049.744000000000
20
2389.759000000000
30
0.0
11
1036.744000000000
21
2389.759000000000
31
0.0
0
LINE
5
869
100
AcDbEntity
8
0-1_J_POINT
6
DOT
62
3
100
AcDbLine
10
1058.244000000000
20
2489.759000000000
30
0.0
11
1028.244000000000
21
2489.759000000000
31
0.0
0
LINE
5
86a
100
AcDbEntity
8
0-1_J_POINT
6
DOT
62
3
100
AcDbLine
10
1049.744000000000
20
2389.759000000000
30
0.0
11
1049.744000000000
21
2489.759000000000
31
0.0
0
LINE
5
86b
100
AcDbEntity
8
0-1_J_POINT
6
DOT
62
3
100
AcDbLine
10
1036.744000000000
20
2389.759000000000
30
0.0
11
1036.744000000000
21
2489.759000000000
31
0.0
0
LINE
5
86c
100
AcDbEntity
8
0-8寸法
6
CONTINUOUS
62
4
100
AcDbLine
10
1343.244000000000
20
725.299000000000
30
0.0
11
1343.244000000000
21
475.299000000000
31
0.0
0
LINE
5
86d
100
AcDbEntity
8
0-8寸法
6
CONTINUOUS
62
4
100
AcDbLine
10
1043.244000000000
20
725.299000000000
30
0.0
11
1043.244000000000
21
475.299000000000
31
0.0
0
LINE
5
86e
100
AcDbEntity
8
0-8寸法
6
CONTINUOUS
62
4
100
AcDbLine
10
693.244000000000
20
885.299000000000
30
0.0
11
693.244000000000
21
1185.300000000000
31
0.0
0
LINE
5
86f
100
AcDbEntity
8
0-8寸法
6
CONTINUOUS
62
4
100
AcDbLine
10
693.244000000000
20
885.299000000000
30
0.0
11
688.068000000000
21
904.618000000000
31
0.0
0
LINE
5
870
100
AcDbEntity
8
0-8寸法
6
CONTINUOUS
62
4
100
AcDbLine
10
693.244000000000
20
885.299000000000
30
0.0
11
698.421000000000
21
904.618000000000
31
0.0
0
LINE
5
871
100
AcDbEntity
8
0-8寸法
6
CONTINUOUS
62
4
100
AcDbLine
10
693.244000000000
20
1185.300000000000
30
0.0
11
688.068000000000
21
1165.981000000000
31
0.0
0
LINE
5
872
100
AcDbEntity
8
0-8寸法
6
CONTINUOUS
62
4
100
AcDbLine
10
693.244000000000
20
1185.300000000000
30
0.0
11
698.421000000000
21
1165.981000000000
31
0.0
0
LINE
5
873
100
AcDbEntity
8
0-8寸法
6
CONTINUOUS
62
4
100
AcDbLine
10
593.244000000000
20
795.299000000000
30
0.0
11
593.244000000000
21
1275.299000000000
31
0.0
0
LINE
5
874
100
AcDbEntity
8
0-8寸法
6
CONTINUOUS
62
4
100
AcDbLine
10
940.920000000000
20
795.299000000000
30
0.0
11
583.244000000000
21
795.299000000000
31
0.0
0
LINE
5
875
100
AcDbEntity
8
0-8寸法
6
CONTINUOUS
62
4
100
AcDbLine
10
940.920000000000
20
1275.299000000000
30
0.0
11
583.244000000000
21
1275.299000000000
31
0.0
0
LINE
5
876
100
AcDbEntity
8
0-8寸法
6
CONTINUOUS
62
4
100
AcDbLine
10
593.244000000000
20
795.299000000000
30
0.0
11
588.068000000000
21
814.618000000000
31
0.0
0
LINE
5
877
100
AcDbEntity
8
0-8寸法
6
CONTINUOUS
62
4
100
AcDbLine
10
593.244000000000
20
795.299000000000
30
0.0
11
598.421000000000
21
814.618000000000
31
0.0
0
LINE
5
878
100
AcDbEntity
8
0-8寸法
6
CONTINUOUS
62
4
100
AcDbLine
10
593.244000000000
20
1275.299000000000
30
0.0
11
588.068000000000
21
1255.981000000000
31
0.0
0
LINE
5
879
100
AcDbEntity
8
0-8寸法
6
CONTINUOUS
62
4
100
AcDbLine
10
593.244000000000
20
1275.299000000000
30
0.0
11
598.421000000000
21
1255.981000000000
31
0.0
0
MTEXT
5
87a
100
AcDbEntity
8
0-8寸法
62
7
370
-3
100
AcDbMText
10
582.937
20
925.829
30
0.0
40
31.790
41
0.000
71
7
72
1
1
\W1.093;扉体高{\W0.787; 480}
7
STANDARD
11
0.00000
21
1.00000
31
0.0
0
MTEXT
5
87b
100
AcDbEntity
8
0-8寸法
62
7
370
-3
100
AcDbMText
10
682.937
20
903.365
30
0.0
40
31.790
41
0.000
71
7
72
1
1
\W1.093;挿筋{\W0.787;ﾋﾟｯﾁ 300}
7
STANDARD
11
0.00000
21
1.00000
31
0.0
0
LINE
5
87c
100
AcDbEntity
8
0-8寸法
6
CONTINUOUS
62
4
100
AcDbLine
10
883.244000000000
20
1185.300000000000
30
0.0
11
683.244000000000
21
1185.300000000000
31
0.0
0
LINE
5
87d
100
AcDbEntity
8
0-8寸法
6
CONTINUOUS
62
4
100
AcDbLine
10
883.244000000000
20
885.299000000000
30
0.0
11
683.244000000000
21
885.299000000000
31
0.0
0
LINE
5
87e
100
AcDbEntity
8
0-8寸法
6
CONTINUOUS
62
4
100
AcDbLine
10
2831.676000000000
20
685.299000000000
30
0.0
11
2831.676000000000
21
835.299000000000
31
0.0
0
LINE
5
87f
100
AcDbEntity
8
0-8寸法
6
CONTINUOUS
62
4
100
AcDbLine
10
2584.724000000000
20
835.299000000000
30
0.0
11
2841.676000000000
21
835.299000000000
31
0.0
0
LINE
5
880
100
AcDbEntity
8
0-8寸法
6
CONTINUOUS
62
4
100
AcDbLine
10
2831.676000000000
20
685.299000000000
30
0.0
11
2826.500000000000
21
704.618000000000
31
0.0
0
LINE
5
881
100
AcDbEntity
8
0-8寸法
6
CONTINUOUS
62
4
100
AcDbLine
10
2831.676000000000
20
685.299000000000
30
0.0
11
2836.853000000000
21
704.618000000000
31
0.0
0
LINE
5
882
100
AcDbEntity
8
0-8寸法
6
CONTINUOUS
62
4
100
AcDbLine
10
2831.676000000000
20
835.299000000000
30
0.0
11
2826.500000000000
21
815.981000000000
31
0.0
0
LINE
5
883
100
AcDbEntity
8
0-8寸法
6
CONTINUOUS
62
4
100
AcDbLine
10
2831.676000000000
20
835.299000000000
30
0.0
11
2836.853000000000
21
815.981000000000
31
0.0
0
LINE
5
884
100
AcDbEntity
8
0-8寸法
6
CONTINUOUS
62
4
100
AcDbLine
10
2831.676000000000
20
835.299000000000
30
0.0
11
2831.676000000000
21
1235.299000000000
31
0.0
0
LINE
5
885
100
AcDbEntity
8
0-8寸法
6
CONTINUOUS
62
4
100
AcDbLine
10
2584.724000000000
20
1235.299000000000
30
0.0
11
2841.676000000000
21
1235.299000000000
31
0.0
0
LINE
5
886
100
AcDbEntity
8
0-8寸法
6
CONTINUOUS
62
4
100
AcDbLine
10
2831.676000000000
20
835.299000000000
30
0.0
11
2826.500000000000
21
854.618000000000
31
0.0
0
LINE
5
887
100
AcDbEntity
8
0-8寸法
6
CONTINUOUS
62
4
100
AcDbLine
10
2831.676000000000
20
835.299000000000
30
0.0
11
2836.853000000000
21
854.618000000000
31
0.0
0
LINE
5
888
100
AcDbEntity
8
0-8寸法
6
CONTINUOUS
62
4
100
AcDbLine
10
2831.676000000000
20
1235.299000000000
30
0.0
11
2826.500000000000
21
1215.981000000000
31
0.0
0
LINE
5
889
100
AcDbEntity
8
0-8寸法
6
CONTINUOUS
62
4
100
AcDbLine
10
2831.676000000000
20
1235.299000000000
30
0.0
11
2836.853000000000
21
1215.981000000000
31
0.0
0
LINE
5
88a
100
AcDbEntity
8
0-8寸法
6
CONTINUOUS
62
4
100
AcDbLine
10
2831.676000000000
20
1235.299000000000
30
0.0
11
2831.676000000000
21
1435.299000000000
31
0.0
0
LINE
5
88b
100
AcDbEntity
8
0-8寸法
6
CONTINUOUS
62
4
100
AcDbLine
10
2831.676000000000
20
1235.299000000000
30
0.0
11
2826.500000000000
21
1254.618000000000
31
0.0
0
LINE
5
88c
100
AcDbEntity
8
0-8寸法
6
CONTINUOUS
62
4
100
AcDbLine
10
2831.676000000000
20
1235.299000000000
30
0.0
11
2836.853000000000
21
1254.618000000000
31
0.0
0
LINE
5
88d
100
AcDbEntity
8
0-8寸法
6
CONTINUOUS
62
4
100
AcDbLine
10
2831.676000000000
20
1435.299000000000
30
0.0
11
2826.500000000000
21
1415.981000000000
31
0.0
0
LINE
5
88e
100
AcDbEntity
8
0-8寸法
6
CONTINUOUS
62
4
100
AcDbLine
10
2831.676000000000
20
1435.299000000000
30
0.0
11
2836.853000000000
21
1415.981000000000
31
0.0
0
LINE
5
88f
100
AcDbEntity
8
0-8寸法
6
CONTINUOUS
62
4
100
AcDbLine
10
2511.993000000000
20
1435.299000000000
30
0.0
11
2841.676000000000
21
1435.299000000000
31
0.0
0
LINE
5
890
100
AcDbEntity
8
0-8寸法
6
CONTINUOUS
62
4
100
AcDbLine
10
2511.993000000000
20
685.299000000000
30
0.0
11
2841.676000000000
21
685.299000000000
31
0.0
0
TEXT
5
891
100
AcDbEntity
8
0-8寸法
62
7
370
-3
100
AcDbText
10
2817.629
20
729.453
30
0.0
40
33.660
1
150
41
0.710
50
90.000
100
AcDbText
0
TEXT
5
892
100
AcDbEntity
8
0-8寸法
62
7
370
-3
100
AcDbText
10
2817.629
20
1304.453
30
0.0
40
33.660
1
200
41
0.629
50
90.000
100
AcDbText
0
MTEXT
5
893
100
AcDbEntity
8
0-8寸法
62
7
370
-3
100
AcDbMText
10
2821.369
20
925.829
30
0.0
40
31.790
41
0.000
71
7
72
1
1
\W1.093;有効高{\W0.787; 400}
7
STANDARD
11
0.00000
21
1.00000
31
0.0
0
LINE
5
894
100
AcDbEntity
8
0-8寸法
6
CONTINUOUS
62
4
100
AcDbLine
10
2751.676000000000
20
1235.299000000000
30
0.0
11
2746.500000000000
21
1254.618000000000
31
0.0
0
LINE
5
895
100
AcDbEntity
8
0-8寸法
6
CONTINUOUS
62
4
100
AcDbLine
10
2751.676000000000
20
1235.299000000000
30
0.0
11
2756.853000000000
21
1254.618000000000
31
0.0
0
LINE
5
896
100
AcDbEntity
8
0-8寸法
6
CONTINUOUS
62
4
100
AcDbLine
10
2751.676000000000
20
1385.299000000000
30
0.0
11
2746.500000000000
21
1365.981000000000
31
0.0
0
LINE
5
897
100
AcDbEntity
8
0-8寸法
6
CONTINUOUS
62
4
100
AcDbLine
10
2751.676000000000
20
1385.299000000000
30
0.0
11
2756.853000000000
21
1365.981000000000
31
0.0
0
LINE
5
898
100
AcDbEntity
8
0-8寸法
6
CONTINUOUS
62
4
100
AcDbLine
10
2388.543000000000
20
1385.299000000000
30
0.0
11
2761.676000000000
21
1385.299000000000
31
0.0
0
LINE
5
899
100
AcDbEntity
8
0-8寸法
6
CONTINUOUS
62
4
100
AcDbLine
10
2751.676000000000
20
1235.299000000000
30
0.0
11
2751.676000000000
21
1385.299000000000
31
0.0
0
TEXT
5
89a
100
AcDbEntity
8
0-8寸法
62
7
370
-3
100
AcDbText
10
2737.629
20
1279.453
30
0.0
40
33.660
1
150
41
0.710
50
90.000
100
AcDbText
0
LINE
5
89b
100
AcDbEntity
8
0-8寸法
6
CONTINUOUS
62
4
100
AcDbLine
10
2671.676000000000
20
1310.299000000000
30
0.0
11
2671.676000000000
21
1235.299000000000
31
0.0
0
LINE
5
89c
100
AcDbEntity
8
0-8寸法
6
CONTINUOUS
62
4
100
AcDbLine
10
2671.676000000000
20
1310.299000000000
30
0.0
11
2676.852380902051
21
1290.980483474219
31
0.0
0
LINE
5
89d
100
AcDbEntity
8
0-8寸法
6
CONTINUOUS
62
4
100
AcDbLine
10
2671.676000000000
20
1310.299000000000
30
0.0
11
2666.499619097950
21
1290.980483474219
31
0.0
0
LINE
5
89e
100
AcDbEntity
8
0-8寸法
6
CONTINUOUS
62
4
100
AcDbLine
10
2671.676000000000
20
1235.299000000000
30
0.0
11
2666.499619097950
21
1254.617516525781
31
0.0
0
LINE
5
89f
100
AcDbEntity
8
0-8寸法
6
CONTINUOUS
62
4
100
AcDbLine
10
2671.676000000000
20
1235.299000000000
30
0.0
11
2676.852380902051
21
1254.617516525781
31
0.0
0
LINE
5
8a0
100
AcDbEntity
8
0-8寸法
6
CONTINUOUS
62
4
100
AcDbLine
10
2681.676000000000
20
1310.299000000000
30
0.0
11
2563.135000000000
21
1310.299000000000
31
0.0
0
LINE
5
8a1
100
AcDbEntity
8
0-8寸法
6
CONTINUOUS
62
4
100
AcDbLine
10
2681.676000000000
20
1235.299000000000
30
0.0
11
2581.676000000000
21
1235.299000000000
31
0.0
0
TEXT
5
8a2
100
AcDbEntity
8
0-8寸法
62
7
370
-3
100
AcDbText
10
2655.536
20
1253.149
30
0.0
40
33.660
41
0.586
50
90.000
1
75
72
1
11
2659.276
21
1275.649
31
0.0
100
AcDbText
73
1
0
LINE
5
8a3
100
AcDbEntity
8
0-8寸法
6
CONTINUOUS
62
4
100
AcDbLine
10
2671.676000000000
20
835.299000000000
30
0.0
11
2671.676000000000
21
760.299000000000
31
0.0
0
LINE
5
8a4
100
AcDbEntity
8
0-8寸法
6
CONTINUOUS
62
4
100
AcDbLine
10
2671.676000000000
20
835.299000000000
30
0.0
11
2676.852380902051
21
815.980483474219
31
0.0
0
LINE
5
8a5
100
AcDbEntity
8
0-8寸法
6
CONTINUOUS
62
4
100
AcDbLine
10
2671.676000000000
20
835.299000000000
30
0.0
11
2666.499619097950
21
815.980483474219
31
0.0
0
LINE
5
8a6
100
AcDbEntity
8
0-8寸法
6
CONTINUOUS
62
4
100
AcDbLine
10
2671.676000000000
20
760.299000000000
30
0.0
11
2666.499619097950
21
779.617516525781
31
0.0
0
LINE
5
8a7
100
AcDbEntity
8
0-8寸法
6
CONTINUOUS
62
4
100
AcDbLine
10
2671.676000000000
20
760.299000000000
30
0.0
11
2676.852380902051
21
779.617516525781
31
0.0
0
LINE
5
8a8
100
AcDbEntity
8
0-8寸法
6
CONTINUOUS
62
4
100
AcDbLine
10
2681.676000000000
20
835.299000000000
30
0.0
11
2581.676000000000
21
835.299000000000
31
0.0
0
LINE
5
8a9
100
AcDbEntity
8
0-8寸法
6
CONTINUOUS
62
4
100
AcDbLine
10
2681.676000000000
20
760.299000000000
30
0.0
11
2563.135000000000
21
760.299000000000
31
0.0
0
TEXT
5
8aa
100
AcDbEntity
8
0-8寸法
62
7
370
-3
100
AcDbText
10
2655.536
20
778.149
30
0.0
40
33.660
41
0.586
50
90.000
1
75
72
1
11
2659.276
21
800.649
31
0.0
100
AcDbText
73
1
0
LINE
5
8ab
100
AcDbEntity
8
0-3RC
6
DOT
62
7
100
AcDbLine
10
1049.744000000000
20
2439.759000000000
30
0.0
11
1193.244000000000
21
2439.759000000000
31
0.0
0
LINE
5
8ac
100
AcDbEntity
8
0-3RC
6
DOT
62
7
100
AcDbLine
10
843.244000000000
20
2439.759000000000
30
0.0
11
911.744000000000
21
2439.759000000000
31
0.0
0
LINE
5
8ad
100
AcDbEntity
8
0-3RC
6
DOT
62
7
100
AcDbLine
10
924.744000000000
20
2439.759000000000
30
0.0
11
1036.744000000000
21
2439.759000000000
31
0.0
0
LINE
5
8ae
100
AcDbEntity
8
0-8寸法
6
CONTINUOUS
62
4
100
AcDbLine
10
2371.676000000000
20
485.299000000000
30
0.0
11
2496.676000000000
21
485.299000000000
31
0.0
0
LINE
5
8af
100
AcDbEntity
8
0-8寸法
6
CONTINUOUS
62
4
100
AcDbLine
10
2371.676000000000
20
604.020000000000
30
0.0
11
2371.676000000000
21
475.299000000000
31
0.0
0
LINE
5
8b0
100
AcDbEntity
8
0-8寸法
6
CONTINUOUS
62
4
100
AcDbLine
10
2371.676000000000
20
485.299000000000
30
0.0
11
2390.995000000000
21
490.476000000000
31
0.0
0
LINE
5
8b1
100
AcDbEntity
8
0-8寸法
6
CONTINUOUS
62
4
100
AcDbLine
10
2371.676000000000
20
485.299000000000
30
0.0
11
2390.995000000000
21
480.123000000000
31
0.0
0
LINE
5
8b2
100
AcDbEntity
8
0-8寸法
6
CONTINUOUS
62
4
100
AcDbLine
10
2496.676000000000
20
485.299000000000
30
0.0
11
2477.357000000000
21
490.476000000000
31
0.0
0
LINE
5
8b3
100
AcDbEntity
8
0-8寸法
6
CONTINUOUS
62
4
100
AcDbLine
10
2496.676000000000
20
485.299000000000
30
0.0
11
2477.357000000000
21
480.123000000000
31
0.0
0
LINE
5
8b4
100
AcDbEntity
8
0-8寸法
6
CONTINUOUS
62
4
100
AcDbLine
10
2496.676000000000
20
678.297000000000
30
0.0
11
2496.676000000000
21
475.299000000000
31
0.0
0
TEXT
5
8b5
100
AcDbEntity
8
0-8寸法
62
7
370
-3
100
AcDbText
10
2403.330
20
499.346
30
0.0
40
33.660
1
125
41
0.633
50
0.000
100
AcDbText
0
LINE
5
8b6
100
AcDbEntity
8
0-8寸法
6
CONTINUOUS
62
4
100
AcDbLine
10
2480.789774380178
20
757.608748714029
30
0.0
11
2271.676000000000
21
385.299000000000
31
0.0
0
POLYLINE
5
8b7
100
AcDbEntity
  8
0-8寸法
6
CONTINUOUS
62
2
100
AcDb2dPolyline
66
1
10
0
20
0
70
1
40
4.000
41
4.000
0
VERTEX
5
8b8
100
AcDbEntity
  8
0-8寸法
6
CONTINUOUS
62
2
100
AcDbVertex
100
AcDb2dVertex
10
2478.790
20
757.609
30
0.0
42
1.000
0
VERTEX
5
8b9
100
AcDbEntity
  8
0-8寸法
6
CONTINUOUS
62
2
100
AcDbVertex
100
AcDb2dVertex
10
2482.790
20
757.609
30
0.0
42
1.000
0
SEQEND
5
8ba
100
AcDbEntity
  8
0-8寸法
0
LINE
5
8bb
100
AcDbEntity
8
0-8寸法
6
CONTINUOUS
62
4
100
AcDbLine
10
1743.244000000000
20
2314.759000000000
30
0.0
11
1743.244000000000
21
2439.759000000000
31
0.0
0
LINE
5
8bc
100
AcDbEntity
8
0-8寸法
6
CONTINUOUS
62
4
100
AcDbLine
10
1656.664000000000
20
2314.759000000000
30
0.0
11
1753.244000000000
21
2314.759000000000
31
0.0
0
LINE
5
8bd
100
AcDbEntity
8
0-8寸法
6
CONTINUOUS
62
4
100
AcDbLine
10
1743.244000000000
20
2314.759000000000
30
0.0
11
1738.068000000000
21
2334.078000000000
31
0.0
0
LINE
5
8be
100
AcDbEntity
8
0-8寸法
6
CONTINUOUS
62
4
100
AcDbLine
10
1743.244000000000
20
2314.759000000000
30
0.0
11
1748.421000000000
21
2334.078000000000
31
0.0
0
LINE
5
8bf
100
AcDbEntity
8
0-8寸法
6
CONTINUOUS
62
4
100
AcDbLine
10
1743.244000000000
20
2439.759000000000
30
0.0
11
1738.068000000000
21
2420.440000000000
31
0.0
0
LINE
5
8c0
100
AcDbEntity
8
0-8寸法
6
CONTINUOUS
62
4
100
AcDbLine
10
1743.244000000000
20
2439.759000000000
30
0.0
11
1748.421000000000
21
2420.440000000000
31
0.0
0
LINE
5
8c1
100
AcDbEntity
8
0-8寸法
6
CONTINUOUS
62
4
100
AcDbLine
10
1553.997000000000
20
2439.759000000000
30
0.0
11
1753.244000000000
21
2439.759000000000
31
0.0
0
TEXT
5
8c2
100
AcDbEntity
8
0-8寸法
62
7
370
-3
100
AcDbText
10
1729.197
20
2346.412
30
0.0
40
33.660
1
125
41
0.633
50
90.000
100
AcDbText
0
MTEXT
5
8c3
100
AcDbEntity
8
0-8寸法
62
7
370
-3
100
AcDbMText
10
1540.528
20
2045.606
30
0.0
40
31.790
41
0.000
71
7
72
1
1
\W1.093;ゴム押え{\W0.787; PL-6t(SUS304)}　
7
STANDARD
11
1.00000
21
0.00000
31
0.0
0
MTEXT
5
8c4
100
AcDbEntity
8
0-8寸法
62
7
370
-3
100
AcDbMText
10
1540.492
20
1945.606
30
0.0
40
31.790
41
0.000
71
7
72
1
1
\W1.093;皿{\W0.787;BT&NT M8(SUS304}相当{\W0.787;)}
7
STANDARD
11
1.00000
21
0.00000
31
0.0
0
TEXT
5
8c5
100
AcDbEntity
8
0-8寸法
62
7
370
-3
100
AcDbText
10
617.616
20
1849.346
30
0.0
40
33.660
41
0.625
50
0.000
1
PL-6t(SUS304)
72
2
11
908.516
21
1843.206
31
0.0
100
AcDbText
73
1
0
MTEXT
5
8c6
100
AcDbEntity
8
0-8寸法
62
7
370
-3
100
AcDbMText
10
369.697
20
1945.606
30
0.0
40
31.790
41
0.000
71
7
72
1
1
\W1.093;吊り{\W0.787;ﾌﾞﾗｹｯﾄ PL-8t(SUS304)}
7
STANDARD
11
1.00000
21
0.00000
31
0.0
0
MTEXT
5
8c7
100
AcDbEntity
8
0-8寸法
62
7
370
-3
100
AcDbMText
10
370.941
20
1645.606
30
0.0
40
31.790
41
0.000
71
7
72
1
1
\W1.093;補強材{\W0.787;   }　{\W0.787;PL-6t(SS400)}
7
STANDARD
11
1.00000
21
0.00000
31
0.0
0
MTEXT
5
8c8
100
AcDbEntity
8
0-8寸法
62
7
370
-3
100
AcDbMText
10
368.839
20
1745.606
30
0.0
40
31.790
41
0.000
71
7
72
1
1
\W1.093;{\W0.787;ｱﾝｶ-ﾎﾞﾙﾄ }　{\W0.787;M12(SUS304}相当{\W0.787;)}
7
STANDARD
11
1.00000
21
0.00000
31
0.0
0
LINE
5
8c9
100
AcDbEntity
8
0-8寸法
6
CONTINUOUS
62
4
100
AcDbLine
10
361.912744751120
20
1935.299000000000
30
0.0
11
963.244000000000
21
1935.299000000000
31
0.0
0
LINE
5
8ca
100
AcDbEntity
8
0-8寸法
6
CONTINUOUS
62
4
100
AcDbLine
10
361.912744751120
20
1835.299000000000
30
0.0
11
963.244000000000
21
1835.299000000000
31
0.0
0
LINE
5
8cb
100
AcDbEntity
8
0-8寸法
6
CONTINUOUS
62
4
100
AcDbLine
10
361.912744751120
20
1735.299000000000
30
0.0
11
963.244000000000
21
1735.299000000000
31
0.0
0
LINE
5
8cc
100
AcDbEntity
8
0-8寸法
6
CONTINUOUS
62
4
100
AcDbLine
10
361.912744751120
20
1635.299000000000
30
0.0
11
963.244000000000
21
1635.299000000000
31
0.0
0
LINE
5
8cd
100
AcDbEntity
8
0-8寸法
6
CONTINUOUS
62
4
100
AcDbLine
10
2761.676000000000
20
835.299000000000
30
0.0
11
2431.676000000000
21
835.299000000000
31
0.0
0
LINE
5
8ce
100
AcDbEntity
8
0-8寸法
6
CONTINUOUS
62
4
100
AcDbLine
10
2615.671613020191
20
785.299000000000
30
0.0
11
2381.676000000000
21
785.299000000000
31
0.0
0
LINE
5
8cf
100
AcDbEntity
8
0-9扉体
6
CONTINUOUS
62
3
100
AcDbLine
10
2348.176000000000
20
1349.299000000000
30
0.0
11
2328.176000000000
21
1349.299000000000
31
0.0
0
LINE
5
8d0
100
AcDbEntity
8
0-9扉体
6
CONTINUOUS
62
3
100
AcDbLine
10
2363.176000000000
20
1334.299000000000
30
0.0
11
2363.176000000000
21
1302.800000000000
31
0.0
0
ARC
5
8d1
100
AcDbEntity
8
0-9扉体
6
CONTINUOUS
62
3
100
AcDbCircle
10
2348.176000000000
20
1334.299000000000
30
0.0
40
15.000000000000
100
AcDbArc
50
0.000000000000
51
90.000000000000
0
LINE
5
8d2
100
AcDbEntity
8
0-7図枠
6
CONTINUOUS
62
3
100
AcDbLine
10
2900.001000000000
20
530.000000000000
30
0.0
11
2900.001000000000
21
140.000000000000
31
0.0
0
ELLIPSE
  5
8d3
100
AcDbEntity
8
0-7図枠
6
CONTINUOUS
62
3
100
AcDbEllipse
10
2944.994000000000
20
179.029000000000
30
0.0
11
30.000000000000
21
0.000000000000
31
0.0
210
0.0
220
0.0
230
1.0
40
0.833300000000
41
0.000000000000
42
6.283185307180
0
ELLIPSE
  5
8d4
100
AcDbEntity
8
0-7図枠
6
CONTINUOUS
62
3
100
AcDbEllipse
10
2944.994000000000
20
179.029000000000
30
0.0
11
30.000000000000
21
0.000000000000
31
0.0
210
0.0
220
0.0
230
1.0
40
0.833300000000
41
0.000000000000
42
6.283185307180
0
LINE
5
8d5
100
AcDbEntity
8
0-7図枠
6
CONTINUOUS
62
3
100
AcDbLine
10
2900.001000000000
20
530.000000000000
30
0.0
11
4050.001000000000
21
530.000000000000
31
0.0
0
LINE
5
8d6
100
AcDbEntity
8
0-7図枠
6
CONTINUOUS
62
3
100
AcDbLine
10
2900.001000000000
20
230.000000000000
30
0.0
11
4050.001000000000
21
230.000000000000
31
0.0
0
LINE
5
8d7
100
AcDbEntity
8
0-7図枠
6
CONTINUOUS
62
3
100
AcDbLine
10
3475.001000000000
20
530.000000000000
30
0.0
11
3475.001000000000
21
140.000000000000
31
0.0
0
LINE
5
8d8
100
AcDbEntity
8
0-7図枠
6
CONTINUOUS
62
3
100
AcDbLine
10
3415.001000000000
20
530.000000000000
30
0.0
11
3415.001000000000
21
140.000000000000
31
0.0
0
LINE
5
8d9
100
AcDbEntity
8
0-7図枠
6
CONTINUOUS
62
3
100
AcDbLine
10
3950.001000000000
20
230.000000000000
30
0.0
11
3950.001000000000
21
140.000000000000
31
0.0
0
LINE
5
8da
100
AcDbEntity
8
0-7図枠
6
CONTINUOUS
62
3
100
AcDbLine
10
3635.001000000000
20
340.000000000000
30
0.0
11
3635.001000000000
21
230.000000000000
31
0.0
0
LINE
5
8db
100
AcDbEntity
8
0-7図枠
6
CONTINUOUS
62
3
100
AcDbLine
10
3685.001000000000
20
340.000000000000
30
0.0
11
3685.001000000000
21
230.000000000000
31
0.0
0
LINE
5
8dc
100
AcDbEntity
8
0-7図枠
6
CONTINUOUS
62
3
100
AcDbLine
10
3840.001000000000
20
340.000000000000
30
0.0
11
3840.001000000000
21
230.000000000000
31
0.0
0
LINE
5
8dd
100
AcDbEntity
8
0-7図枠
6
CONTINUOUS
62
3
100
AcDbLine
10
3890.001000000000
20
340.000000000000
30
0.0
11
3890.001000000000
21
230.000000000000
31
0.0
0
LINE
5
8de
100
AcDbEntity
8
0-7図枠
6
CONTINUOUS
62
3
100
AcDbLine
10
3415.001000000000
20
340.000000000000
30
0.0
11
4050.001000000000
21
340.000000000000
31
0.0
0
LINE
5
8df
100
AcDbEntity
8
0-7図枠
6
CONTINUOUS
62
3
100
AcDbLine
10
2900.001000000000
20
320.000000000000
30
0.0
11
3415.001000000000
21
320.000000000000
31
0.0
0
LINE
5
8e0
100
AcDbEntity
8
0-7図枠
6
CONTINUOUS
62
3
100
AcDbLine
10
2900.001000000000
20
410.000000000000
30
0.0
11
3415.001000000000
21
410.000000000000
31
0.0
0
LINE
5
8e1
100
AcDbEntity
8
0-7図枠
6
CONTINUOUS
62
3
100
AcDbLine
10
2955.000000000000
20
530.000000000000
30
0.0
11
2955.000000000000
21
230.000000000000
31
0.0
0
LINE
5
8e2
100
AcDbEntity
8
0-7図枠
6
CONTINUOUS
62
3
100
AcDbLine
10
3210.001000000000
20
410.000000000000
30
0.0
11
3210.001000000000
21
230.000000000000
31
0.0
0
LINE
5
8e3
100
AcDbEntity
8
0-7図枠
6
CONTINUOUS
62
3
100
AcDbLine
10
3155.001000000000
20
410.000000000000
30
0.0
11
3155.001000000000
21
230.000000000000
31
0.0
0
LINE
5
8e4
100
AcDbEntity
8
0-7図枠
6
CONTINUOUS
62
3
100
AcDbLine
10
3965.001000000000
20
155.000000000000
30
0.0
11
4000.001000000000
21
215.622000000000
31
0.0
0
LINE
5
8e5
100
AcDbEntity
8
0-7図枠
6
CONTINUOUS
62
3
100
AcDbLine
10
4035.001000000000
20
155.000000000000
30
0.0
11
4000.001000000000
21
215.622000000000
31
0.0
0
LINE
5
8e6
100
AcDbEntity
8
0-7図枠
6
CONTINUOUS
62
3
100
AcDbLine
10
3965.001000000000
20
155.000000000000
30
0.0
11
4035.001000000000
21
155.000000000000
31
0.0
0
LINE
5
8e7
100
AcDbEntity
8
0-7図枠
6
CONTINUOUS
62
3
100
AcDbLine
10
2923.409000000000
20
179.944000000000
30
0.0
11
2956.058000000000
21
161.094000000000
31
0.0
0
LINE
5
8e8
100
AcDbEntity
8
0-7図枠
6
CONTINUOUS
62
3
100
AcDbLine
10
2933.654000000001
20
182.689000000000
30
0.0
11
2963.414000000000
21
165.507000000000
31
0.0
0
LINE
5
8e9
100
AcDbEntity
8
0-7図枠
6
CONTINUOUS
62
3
100
AcDbLine
10
2943.899000000000
20
185.434000000000
30
0.0
11
2968.127000000000
21
171.446000000000
31
0.0
0
LINE
5
8ea
100
AcDbEntity
8
0-7図枠
6
CONTINUOUS
62
3
100
AcDbLine
10
2926.238000000000
20
180.702000000000
30
0.0
11
2919.994000000000
21
179.029000000000
31
0.0
0
LINE
5
8eb
100
AcDbEntity
8
0-7図枠
6
CONTINUOUS
62
3
100
AcDbLine
10
2933.826000000000
20
179.703000000000
30
0.0
11
2961.278000000000
21
163.854000000000
31
0.0
0
LINE
5
8ec
100
AcDbEntity
8
0-7図枠
6
CONTINUOUS
62
3
100
AcDbLine
10
2944.072000000000
20
182.448000000000
30
0.0
11
2966.839000000000
21
169.303000000000
31
0.0
0
LINE
5
8ed
100
AcDbEntity
8
0-7図枠
6
CONTINUOUS
62
3
100
AcDbLine
10
2954.317000000000
20
185.193000000000
30
0.0
11
2969.756000000000
21
176.279000000000
31
0.0
0
LINE
5
8ee
100
AcDbEntity
8
0-7図枠
6
CONTINUOUS
62
3
100
AcDbLine
10
2936.483000000000
20
183.447000000000
30
0.0
11
2928.710000000000
21
181.364000000000
31
0.0
0
LINE
5
8ef
100
AcDbEntity
8
0-7図枠
6
CONTINUOUS
62
3
100
AcDbLine
10
2946.728000000000
20
186.192000000000
30
0.0
11
2939.183000000000
21
184.171000000000
31
0.0
0
ARC
5
8f0
100
AcDbEntity
8
0-7図枠
6
CONTINUOUS
62
3
100
AcDbCircle
10
2928.826000000000
20
171.043000000000
30
0.0
40
10.000000000000
100
AcDbArc
50
60.000000000000
51
105.000000000000
0
ARC
5
8f1
100
AcDbEntity
8
0-7図枠
6
CONTINUOUS
62
3
100
AcDbCircle
10
2939.071000000000
20
173.788000000000
30
0.0
40
10.000000000000
100
AcDbArc
50
60.000000000000
51
105.000000000000
0
ARC
5
8f2
100
AcDbEntity
8
0-7図枠
6
CONTINUOUS
62
3
100
AcDbCircle
10
2949.316000000000
20
176.533000000000
30
0.0
40
10.000000000000
100
AcDbArc
50
60.000000000000
51
105.000000000000
0
ELLIPSE
  5
8f3
100
AcDbEntity
8
0-7図枠
6
CONTINUOUS
62
3
100
AcDbEllipse
10
2944.994000000000
20
179.029000000000
30
0.0
11
25.000000000000
21
0.000000000000
31
0.0
210
0.0
220
0.0
230
1.0
40
0.800000000000
41
0.270792616483
42
6.145261525885
0
TEXT
5
8f4
100
AcDbEntity
8
0-7図枠
62
7
370
-3
100
AcDbText
10
2998.956
20
170.639
30
0.0
40
37.807
1
三重重工業株式会社
41
0.856
50
0.000
100
AcDbText
0
TEXT
5
8f5
100
AcDbEntity
8
0-7図枠
62
7
370
-3
100
AcDbText
10
2926.828
20
401.487
30
0.0
40
26.465
1
材質
41
0.856
50
0.000
  7
TATEGAKI
100
AcDbText
0
TEXT
5
8f6
100
AcDbEntity
8
0-7図枠
62
7
370
-3
100
AcDbText
10
2926.828
20
311.487
30
0.0
40
26.465
1
尺度
41
0.856
50
0.000
  7
TATEGAKI
100
AcDbText
0
TEXT
5
8f7
100
AcDbEntity
8
0-7図枠
62
7
370
-3
100
AcDbText
10
3719.370
20
269.432
30
0.0
40
37.807
41
0.856
50
0.000
1
井福
72
1
11
3762.501
21
285.000
31
0.0
100
AcDbText
73
2
0
TEXT
5
8f8
100
AcDbEntity
8
0-7図枠
62
7
370
-3
100
AcDbText
10
3000.638
20
349.432
30
0.0
40
37.807
41
0.530
50
0.000
1
A5083
72
1
11
3055.001
21
365.000
31
0.0
100
AcDbText
73
2
0
TEXT
5
8f9
100
AcDbEntity
8
0-7図枠
62
7
370
-3
100
AcDbText
10
3011.870
20
259.432
30
0.0
40
37.807
41
0.684
50
0.000
1
1/10
72
1
11
3055.001
21
275.000
31
0.0
100
AcDbText
73
2
0
TEXT
5
8fa
100
AcDbEntity
8
0-7図枠
62
7
370
-3
100
AcDbText
10
3181.829
20
401.487
30
0.0
40
26.465
1
数量
41
0.856
50
0.000
  7
TATEGAKI
100
AcDbText
0
TEXT
5
8fb
100
AcDbEntity
8
0-7図枠
62
7
370
-3
100
AcDbText
10
3181.829
20
311.487
30
0.0
40
26.465
1
日付
41
0.856
50
0.000
  7
TATEGAKI
100
AcDbText
0
TEXT
5
8fc
100
AcDbEntity
8
0-7図枠
62
7
370
-3
100
AcDbText
10
3444.328
20
488.959
30
0.0
40
26.465
1
名　称
41
0.856
50
0.000
  7
TATEGAKI
100
AcDbText
0
TEXT
5
8fd
100
AcDbEntity
8
0-7図枠
62
7
370
-3
100
AcDbText
10
3444.328
20
321.487
30
0.0
40
26.465
1
承認
41
0.856
50
0.000
  7
TATEGAKI
100
AcDbText
0
TEXT
5
8fe
100
AcDbEntity
8
0-7図枠
62
7
370
-3
100
AcDbText
10
3444.328
20
221.487
30
0.0
40
26.465
1
図番
41
0.856
50
0.000
  7
TATEGAKI
100
AcDbText
0
TEXT
5
8ff
100
AcDbEntity
8
0-7図枠
62
7
370
-3
100
AcDbText
10
3659.328
20
321.487
30
0.0
40
26.465
1
検図
41
0.856
50
0.000
  7
TATEGAKI
100
AcDbText
0
TEXT
5
900
100
AcDbEntity
8
0-7図枠
62
7
370
-3
100
AcDbText
10
3864.328
20
321.487
30
0.0
40
26.465
1
担当
41
0.856
50
0.000
  7
TATEGAKI
100
AcDbText
0
TEXT
5
901
100
AcDbEntity
8
0-7図枠
62
7
370
-3
100
AcDbText
10
3992.073
20
166.442
30
0.0
40
29.405
41
0.461
50
0.000
1
2
72
1
11
3999.411
21
178.550
31
0.0
100
AcDbText
73
2
0
TEXT
5
902
100
AcDbEntity
8
0-7図枠
62
7
370
-3
100
AcDbText
10
3511.871
20
269.432
30
0.0
40
37.807
41
0.856
50
0.000
1
熊崎
72
1
11
3555.002
21
285.000
31
0.0
100
AcDbText
73
2
0
TEXT
5
903
100
AcDbEntity
8
0-7図枠
62
7
370
-3
100
AcDbText
10
3926.870
20
269.432
30
0.0
40
37.807
41
0.856
50
0.000
1
平川
72
1
11
3970.001
21
285.000
31
0.0
100
AcDbText
73
2
0
LINE
5
904
100
AcDbEntity
8
F-F_J_ADD
6
HIDDEN
62
109
100
AcDbLine
10
2927.500500000000
20
530.000000000000
30
0.0
11
2927.500500000000
21
410.000000000000
31
0.0
0
LINE
5
905
100
AcDbEntity
8
F-F_J_ADD
6
HIDDEN
62
109
100
AcDbLine
10
2900.001000000000
20
470.000000000000
30
0.0
11
2955.000000000000
21
470.000000000000
31
0.0
0
LINE
5
906
100
AcDbEntity
8
F-F_J_ADD
6
HIDDEN
62
109
100
AcDbLine
10
2927.500500000000
20
230.000000000000
30
0.0
11
2927.500500000000
21
530.000000000000
31
0.0
0
LINE
5
907
100
AcDbEntity
8
F-F_J_ADD
6
HIDDEN
62
109
100
AcDbLine
10
3185.000500000000
20
410.000000000000
30
0.0
11
3185.000500000000
21
530.000000000000
31
0.0
0
LINE
5
908
100
AcDbEntity
8
F-F_J_ADD
6
HIDDEN
62
109
100
AcDbLine
10
3055.001000000000
20
230.000000000000
30
0.0
11
3055.001000000000
21
410.000000000000
31
0.0
0
LINE
5
909
100
AcDbEntity
8
F-F_J_ADD
6
HIDDEN
62
109
100
AcDbLine
10
3312.501000000000
20
230.000000000000
30
0.0
11
3312.501000000000
21
410.000000000000
31
0.0
0
LINE
5
90a
100
AcDbEntity
8
F-F_J_ADD
6
HIDDEN
62
109
100
AcDbLine
10
3415.000500000001
20
365.000000000000
30
0.0
11
2900.000500000000
21
365.000000000000
31
0.0
0
LINE
5
90b
100
AcDbEntity
8
F-F_J_ADD
6
HIDDEN
62
109
100
AcDbLine
10
2900.000500000000
20
470.000000000000
30
0.0
11
3415.000500000001
21
470.000000000000
31
0.0
0
LINE
5
90c
100
AcDbEntity
8
F-F_J_ADD
6
HIDDEN
62
109
100
AcDbLine
10
3415.000500000001
20
275.000000000000
30
0.0
11
2900.000500000000
21
275.000000000000
31
0.0
0
LINE
5
90d
100
AcDbEntity
8
F-F_J_ADD
6
HIDDEN
62
109
100
AcDbLine
10
3182.501500000000
20
230.000000000000
30
0.0
11
3182.501500000000
21
410.000000000000
31
0.0
0
LINE
5
90e
100
AcDbEntity
8
F-F_J_ADD
6
HIDDEN
62
109
100
AcDbLine
10
3445.001000000000
20
530.000000000000
30
0.0
11
3445.001000000000
21
140.000000000000
31
0.0
0
LINE
5
90f
100
AcDbEntity
8
F-F_J_ADD
6
HIDDEN
62
109
100
AcDbLine
10
3475.001500000000
20
435.000000000000
30
0.0
11
3415.000500000001
21
435.000000000000
31
0.0
0
LINE
5
910
100
AcDbEntity
8
F-F_J_ADD
6
HIDDEN
62
109
100
AcDbLine
10
3415.000500000001
20
285.000000000000
30
0.0
11
4050.000500000000
21
285.000000000000
31
0.0
0
LINE
5
911
100
AcDbEntity
8
F-F_J_ADD
6
HIDDEN
62
109
100
AcDbLine
10
4050.000500000000
20
185.000000000000
30
0.0
11
2900.000500000000
21
185.000000000000
31
0.0
0
LINE
5
912
100
AcDbEntity
8
F-F_J_ADD
6
HIDDEN
62
109
100
AcDbLine
10
3712.501000000000
20
140.000000000000
30
0.0
11
3712.501000000000
21
230.000000000000
31
0.0
0
LINE
5
913
100
AcDbEntity
8
F-F_J_ADD
6
HIDDEN
62
109
100
AcDbLine
10
3555.001500000000
20
230.000000000000
30
0.0
11
3555.001500000000
21
340.000000000000
31
0.0
0
LINE
5
914
100
AcDbEntity
8
F-F_J_ADD
6
HIDDEN
62
109
100
AcDbLine
10
3660.001000000000
20
340.000000000000
30
0.0
11
3660.001000000000
21
230.000000000000
31
0.0
0
LINE
5
915
100
AcDbEntity
8
F-F_J_ADD
6
HIDDEN
62
109
100
AcDbLine
10
3762.500500000001
20
340.000000000000
30
0.0
11
3762.500500000001
21
230.000000000000
31
0.0
0
LINE
5
916
100
AcDbEntity
8
F-F_J_ADD
6
HIDDEN
62
109
100
AcDbLine
10
3865.000500000001
20
230.000000000000
30
0.0
11
3865.000500000001
21
340.000000000000
31
0.0
0
LINE
5
917
100
AcDbEntity
8
F-F_J_ADD
6
HIDDEN
62
109
100
AcDbLine
10
3970.000500000001
20
340.000000000000
30
0.0
11
3970.000500000001
21
230.000000000000
31
0.0
0
TEXT
5
918
100
AcDbEntity
8
0-7図枠
62
7
370
-3
100
AcDbText
10
2926.828
20
506.487
30
0.0
40
26.465
1
客先
41
0.856
50
0.000
  7
TATEGAKI
100
AcDbText
0
TEXT
5
919
100
AcDbEntity
8
0-7図枠
62
7
370
-3
100
AcDbText
10
3119.406
20
454.432
30
0.0
40
37.807
41
0.856
50
0.000
1
標準図
72
1
11
3185.001
21
470.000
31
0.0
100
AcDbText
73
2
0
LINE
5
91a
100
AcDbEntity
8
F-F_J_ADD
6
HIDDEN
62
109
100
AcDbLine
10
3762.501500000000
20
530.000000000000
30
0.0
11
3762.501500000000
21
340.000000000000
31
0.0
0
LINE
5
91b
100
AcDbEntity
8
F-F_J_ADD
6
HIDDEN
62
109
100
AcDbLine
10
3475.002000000000
20
502.857142857143
30
0.0
11
4050.001000000000
21
502.857142857143
31
0.0
0
LINE
5
91c
100
AcDbEntity
8
F-F_J_ADD
6
HIDDEN
62
109
100
AcDbLine
10
3475.002000000000
20
475.714285714286
30
0.0
11
4050.001000000000
21
475.714285714286
31
0.0
0
LINE
5
91d
100
AcDbEntity
8
F-F_J_ADD
6
HIDDEN
62
109
100
AcDbLine
10
3475.002000000000
20
448.571428571429
30
0.0
11
4050.001000000000
21
448.571428571429
31
0.0
0
LINE
5
91e
100
AcDbEntity
8
F-F_J_ADD
6
HIDDEN
62
109
100
AcDbLine
10
3475.002000000000
20
421.428571428572
30
0.0
11
4050.001000000000
21
421.428571428572
31
0.0
0
LINE
5
91f
100
AcDbEntity
8
F-F_J_ADD
6
HIDDEN
62
109
100
AcDbLine
10
3475.002000000000
20
394.285714285715
30
0.0
11
4050.001000000000
21
394.285714285715
31
0.0
0
LINE
5
920
100
AcDbEntity
8
F-F_J_ADD
6
HIDDEN
62
109
100
AcDbLine
10
3475.002000000000
20
367.142857142858
30
0.0
11
4050.001000000000
21
367.142857142858
31
0.0
0
MTEXT
5
921
100
AcDbEntity
8
0-7図枠
62
7
370
-3
100
AcDbMText
10
3765.352
20
399.186
30
0.0
40
31.790
41
0.000
71
5
72
1
1
\W1.093;{\W0.787;ｱﾙﾐ}合金製{\W0.787;ﾌﾗｯﾌﾟｹﾞ-ﾄ}
7
STANDARD
11
1.00000
21
0.00000
31
0.0
0
LINE
5
922
100
AcDbEntity
8
0-7図枠
6
CONTINUOUS
62
3
100
AcDbLine
10
3562.501500000000
20
480.000000000000
30
0.0
11
3962.501500000000
21
480.000000000000
31
0.0
0
MTEXT
5
923
100
AcDbEntity
8
0-7図枠
62
7
370
-3
100
AcDbMText
10
3596.602
20
485.257
30
0.0
40
31.790
41
0.000
71
7
72
1
1
\W1.093;型式　{\W0.787;MFR-A0404}
7
STANDARD
11
1.00000
21
0.00000
31
0.0
0
TEXT
5
924
100
AcDbEntity
8
0-7図枠
62
7
370
-3
100
AcDbText
10
3596.602
20
434.711
30
0.0
40
33.660
1
400 Bo x 400 Ho
41
0.694
50
0.000
100
AcDbText
0
LINE
5
925
100
AcDbEntity
8
0-A文字
6
CONTINUOUS
62
4
100
AcDbLine
10
3055.001000000000
20
970.000000000000
30
0.0
11
3984.053000000000
21
970.000000000000
31
0.0
0
LINE
5
926
100
AcDbEntity
8
0-A文字
6
CONTINUOUS
62
4
100
AcDbLine
10
3055.001000000000
20
910.000000000000
30
0.0
11
3984.053000000000
21
910.000000000000
31
0.0
0
LINE
5
927
100
AcDbEntity
8
0-A文字
6
CONTINUOUS
62
4
100
AcDbLine
10
3055.001000000000
20
850.000000000000
30
0.0
11
3984.053000000000
21
850.000000000000
31
0.0
0
LINE
5
928
100
AcDbEntity
8
0-A文字
6
CONTINUOUS
62
4
100
AcDbLine
10
3055.001000000000
20
790.000000000000
30
0.0
11
3984.053000000000
21
790.000000000000
31
0.0
0
LINE
5
929
100
AcDbEntity
8
0-A文字
6
CONTINUOUS
62
4
100
AcDbLine
10
3055.001000000000
20
730.000000000000
30
0.0
11
3984.053000000000
21
730.000000000000
31
0.0
0
TEXT
5
92a
100
AcDbEntity
8
0-A文字
62
7
370
-3
100
AcDbText
10
3071.802
20
979.253
30
0.0
40
29.405
1
注記　１．塗装　ＡＬ部は下地処理後、ポリウレタン樹脂
41
0.856
50
0.000
100
AcDbText
0
LINE
5
92b
100
AcDbEntity
8
0-A文字
6
CONTINUOUS
62
4
100
AcDbLine
10
3055.001000000000
20
670.000000000000
30
0.0
11
3984.053000000000
21
670.000000000000
31
0.0
0
TEXT
5
92c
100
AcDbEntity
8
0-A文字
62
7
370
-3
100
AcDbText
10
3071.802
20
803.365
30
0.0
40
29.405
1
　　　　　但し、ＳＵＳ３０４部は酸洗いと致します。
41
0.856
50
0.000
100
AcDbText
0
TEXT
5
92d
100
AcDbEntity
8
0-A文字
62
7
370
-3
100
AcDbText
10
3071.802
20
683.365
30
0.0
40
29.405
1
　　　　　埋め戻しを示します。
41
0.856
50
0.000
100
AcDbText
0
TEXT
5
92e
100
AcDbEntity
8
0-A文字
62
7
370
-3
100
AcDbText
10
3071.802
20
743.365
30
0.0
40
29.405
1
　　　２．　　　　部は箱抜き後、２次コンクリ－ト
41
0.856
50
0.000
100
AcDbText
0
TEXT
5
92f
100
AcDbEntity
8
0-A文字
62
7
370
-3
100
AcDbText
10
3071.802
20
863.365
30
0.0
40
29.405
1
　　　　　と致します。
41
0.856
50
0.000
100
AcDbText
0
POLYLINE
5
930
100
AcDbEntity
8
0-A文字
6
CONTINUOUS
62
  4
100
AcDb2dPolyline
66
1
10
0.0
20
0.0
30
0.0
70
0
0
VERTEX
5
931
100
AcDbEntity
8
0-A文字
6
CONTINUOUS
62
  4
100
AcDbVertex
100
AcDb2dVertex
10
3255.554482821849
20
739.988659782539
30
0.0
0
VERTEX
5
932
100
AcDbEntity
8
0-A文字
6
CONTINUOUS
62
  4
100
AcDbVertex
100
AcDb2dVertex
10
3255.554482821849
20
769.988659782539
30
0.0
0
VERTEX
5
933
100
AcDbEntity
8
0-A文字
6
CONTINUOUS
62
  4
100
AcDbVertex
100
AcDb2dVertex
10
3375.553482821849
20
769.988659782539
30
0.0
0
VERTEX
5
934
100
AcDbEntity
8
0-A文字
6
CONTINUOUS
62
  4
100
AcDbVertex
100
AcDb2dVertex
10
3375.553482821849
20
739.988659782539
30
0.0
0
VERTEX
5
935
100
AcDbEntity
8
0-A文字
6
CONTINUOUS
62
  4
100
AcDbVertex
100
AcDb2dVertex
10
3255.554482821849
20
739.988659782539
30
0.0
0
SEQEND
5
936
100
AcDbEntity
8
0-A文字
0
LINE
5
937
100
AcDbEntity
8
0-A文字
6
CONTINUOUS
62
4
100
AcDbLine
10
3366.321482821849
20
739.988659782539
30
0.0
11
3375.553482821849
21
749.220659782539
31
0.0
0
LINE
5
938
100
AcDbEntity
8
0-A文字
6
CONTINUOUS
62
4
100
AcDbLine
10
3345.107482821849
20
739.988659782539
30
0.0
11
3375.108482821849
21
769.988659782539
31
0.0
0
LINE
5
939
100
AcDbEntity
8
0-A文字
6
CONTINUOUS
62
4
100
AcDbLine
10
3323.894482821849
20
739.988659782539
30
0.0
11
3353.894482821849
21
769.988659782539
31
0.0
0
LINE
5
93a
100
AcDbEntity
8
0-A文字
6
CONTINUOUS
62
4
100
AcDbLine
10
3302.681482821849
20
739.988659782539
30
0.0
11
3332.681482821849
21
769.988659782539
31
0.0
0
LINE
5
93b
100
AcDbEntity
8
0-A文字
6
CONTINUOUS
62
4
100
AcDbLine
10
3281.468482821849
20
739.988659782539
30
0.0
11
3311.468482821849
21
769.988659782539
31
0.0
0
LINE
5
93c
100
AcDbEntity
8
0-A文字
6
CONTINUOUS
62
4
100
AcDbLine
10
3260.254482821849
20
739.988659782539
30
0.0
11
3290.255482821849
21
769.988659782539
31
0.0
0
LINE
5
93d
100
AcDbEntity
8
0-A文字
6
CONTINUOUS
62
4
100
AcDbLine
10
3255.554482821849
20
756.500659782539
30
0.0
11
3269.041482821849
21
769.988659782539
31
0.0
0
TEXT
5
93e
100
AcDbEntity
8
0-7図枠
62
7
370
-3
100
AcDbText
10
3579.514
20
169.432
30
0.0
40
37.807
1
Ｋ－１１５３
41
0.856
50
0.000
100
AcDbText
0
LINE
5
93f
100
AcDbEntity
8
0-8寸法
6
CONTINUOUS
62
4
100
AcDbLine
10
993.244000000000
20
2644.759000000000
30
0.0
11
1393.244000000000
21
2644.759000000000
31
0.0
0
LINE
5
940
100
AcDbEntity
8
0-8寸法
6
CONTINUOUS
62
4
100
AcDbLine
10
993.244000000000
20
2524.872000000000
30
0.0
11
993.244000000000
21
2654.759000000000
31
0.0
0
LINE
5
941
100
AcDbEntity
8
0-8寸法
6
CONTINUOUS
62
4
100
AcDbLine
10
1393.244000000000
20
2524.872000000000
30
0.0
11
1393.244000000000
21
2654.759000000000
31
0.0
0
LINE
5
942
100
AcDbEntity
8
0-8寸法
6
CONTINUOUS
62
4
100
AcDbLine
10
993.244000000000
20
2644.759000000000
30
0.0
11
1012.563000000000
21
2649.935000000000
31
0.0
0
LINE
5
943
100
AcDbEntity
8
0-8寸法
6
CONTINUOUS
62
4
100
AcDbLine
10
993.244000000000
20
2644.759000000000
30
0.0
11
1012.563000000000
21
2639.583000000000
31
0.0
0
LINE
5
944
100
AcDbEntity
8
0-8寸法
6
CONTINUOUS
62
4
100
AcDbLine
10
1393.244000000000
20
2644.759000000000
30
0.0
11
1373.926000000000
21
2649.935000000000
31
0.0
0
LINE
5
945
100
AcDbEntity
8
0-8寸法
6
CONTINUOUS
62
4
100
AcDbLine
10
1393.244000000000
20
2644.759000000000
30
0.0
11
1373.926000000000
21
2639.583000000000
31
0.0
0
LINE
5
946
100
AcDbEntity
8
0-8寸法
6
CONTINUOUS
62
4
100
AcDbLine
10
1393.244000000000
20
2644.759000000000
30
0.0
11
1543.244000000000
21
2644.759000000000
31
0.0
0
LINE
5
947
100
AcDbEntity
8
0-8寸法
6
CONTINUOUS
62
4
100
AcDbLine
10
1393.244000000000
20
2644.759000000000
30
0.0
11
1412.563000000000
21
2649.935000000000
31
0.0
0
LINE
5
948
100
AcDbEntity
8
0-8寸法
6
CONTINUOUS
62
4
100
AcDbLine
10
1393.244000000000
20
2644.759000000000
30
0.0
11
1412.563000000000
21
2639.583000000000
31
0.0
0
LINE
5
949
100
AcDbEntity
8
0-8寸法
6
CONTINUOUS
62
4
100
AcDbLine
10
1543.244000000000
20
2644.759000000000
30
0.0
11
1523.926000000000
21
2649.935000000000
31
0.0
0
LINE
5
94a
100
AcDbEntity
8
0-8寸法
6
CONTINUOUS
62
4
100
AcDbLine
10
1543.244000000000
20
2644.759000000000
30
0.0
11
1523.926000000000
21
2639.583000000000
31
0.0
0
LINE
5
94b
100
AcDbEntity
8
0-8寸法
6
CONTINUOUS
62
4
100
AcDbLine
10
1543.244000000000
20
2449.253000000000
30
0.0
11
1543.244000000000
21
2654.759000000000
31
0.0
0
LINE
5
94c
100
AcDbEntity
8
0-8寸法
6
CONTINUOUS
62
4
100
AcDbLine
10
843.244000000000
20
2644.759000000000
30
0.0
11
993.244000000000
21
2644.759000000000
31
0.0
0
LINE
5
94d
100
AcDbEntity
8
0-8寸法
6
CONTINUOUS
62
4
100
AcDbLine
10
843.244000000000
20
2644.759000000000
30
0.0
11
862.562516525781
21
2649.935380902050
31
0.0
0
LINE
5
94e
100
AcDbEntity
8
0-8寸法
6
CONTINUOUS
62
4
100
AcDbLine
10
843.244000000000
20
2644.759000000000
30
0.0
11
862.562516525781
21
2639.582619097950
31
0.0
0
LINE
5
94f
100
AcDbEntity
8
0-8寸法
6
CONTINUOUS
62
4
100
AcDbLine
10
993.244000000000
20
2644.759000000000
30
0.0
11
973.925483474219
21
2639.582619097950
31
0.0
0
LINE
5
950
100
AcDbEntity
8
0-8寸法
6
CONTINUOUS
62
4
100
AcDbLine
10
993.244000000000
20
2644.759000000000
30
0.0
11
973.925483474219
21
2649.935380902050
31
0.0
0
LINE
5
951
100
AcDbEntity
8
0-8寸法
6
CONTINUOUS
62
4
100
AcDbLine
10
843.244000000000
20
2654.759000000000
30
0.0
11
843.244000000000
21
2449.759000000000
31
0.0
0
LINE
5
952
100
AcDbEntity
8
0-8寸法
6
CONTINUOUS
62
4
100
AcDbLine
10
993.244000000000
20
2654.759000000000
30
0.0
11
993.244000000000
21
2524.759000000000
31
0.0
0
LINE
5
953
100
AcDbEntity
8
0-8寸法
6
CONTINUOUS
62
4
100
AcDbLine
10
1393.244000000000
20
2574.758732011595
30
0.0
11
1393.244000000000
21
2524.759000000000
31
0.0
0
LINE
5
954
100
AcDbEntity
8
0-8寸法
6
CONTINUOUS
62
4
100
AcDbLine
10
1393.244000000000
20
2574.758732011595
30
0.0
11
1468.244000000000
21
2574.758732011595
31
0.0
0
LINE
5
955
100
AcDbEntity
8
0-8寸法
6
CONTINUOUS
62
4
100
AcDbLine
10
1393.244000000000
20
2574.758732011595
30
0.0
11
1412.562516525782
21
2579.935112913646
31
0.0
0
LINE
5
956
100
AcDbEntity
8
0-8寸法
6
CONTINUOUS
62
4
100
AcDbLine
10
1393.244000000000
20
2574.758732011595
30
0.0
11
1412.562516525782
21
2569.582351109545
31
0.0
0
LINE
5
957
100
AcDbEntity
8
0-8寸法
6
CONTINUOUS
62
4
100
AcDbLine
10
1468.244000000000
20
2574.758732011595
30
0.0
11
1448.925483474219
21
2579.935112913646
31
0.0
0
LINE
5
958
100
AcDbEntity
8
0-8寸法
6
CONTINUOUS
62
4
100
AcDbLine
10
1468.244000000000
20
2574.758732011595
30
0.0
11
1448.925483474219
21
2569.582351109545
31
0.0
0
LINE
5
959
100
AcDbEntity
8
0-8寸法
6
CONTINUOUS
62
4
100
AcDbLine
10
1393.244000000000
20
2584.758732011595
30
0.0
11
1393.244000000000
21
2449.759000000000
31
0.0
0
LINE
5
95a
100
AcDbEntity
8
0-8寸法
6
CONTINUOUS
62
4
100
AcDbLine
10
1468.244000000000
20
2584.758732011595
30
0.0
11
1468.244000000000
21
2499.759000000000
31
0.0
0
LINE
5
95b
100
AcDbEntity
8
0-8寸法
6
CONTINUOUS
62
4
100
AcDbLine
10
1393.244000000000
20
2514.759000000000
30
0.0
11
1393.244000000000
21
2374.759000000000
31
0.0
0
TEXT
5
95c
100
AcDbEntity
8
0-8寸法
62
7
370
-3
100
AcDbText
10
1437.398
20
2658.806
30
0.0
40
33.660
1
150
41
0.710
50
0.000
100
AcDbText
0
MTEXT
5
95d
100
AcDbEntity
8
0-8寸法
62
7
370
-3
100
AcDbMText
10
1083.774
20
2655.066
30
0.0
40
31.790
41
0.000
71
7
72
1
1
\W1.093;有効幅{\W0.787; 400}
7
STANDARD
11
1.00000
21
0.00000
31
0.0
0
TEXT
5
95e
100
AcDbEntity
8
0-8寸法
62
7
370
-3
100
AcDbText
10
887.344
20
2660.899
30
0.0
40
33.660
41
0.710
50
0.000
1
150
72
1
11
921.094
21
2657.159
31
0.0
100
AcDbText
73
1
0
TEXT
5
95f
100
AcDbEntity
8
0-8寸法
62
7
370
-3
100
AcDbText
10
1411.094
20
2590.899
30
0.0
40
33.660
41
0.586
50
0.000
1
75
72
1
11
1433.594
21
2587.159
31
0.0
100
AcDbText
73
1
0
TEXT
5
960
100
AcDbEntity
8
0-7図枠
62
7
370
-3
100
AcDbText
10
3321.600
20
2373.641
30
0.0
40
33.660
41
0.856
50
0.000
1
設　計　条　件
72
1
11
3460.000
21
2387.501
31
0.0
100
AcDbText
73
2
0
TEXT
5
961
100
AcDbEntity
8
0-7図枠
62
7
370
-3
100
AcDbText
10
3066.601
20
2306.140
30
0.0
40
33.660
41
0.856
50
0.000
1
通水断面
72
1
11
3145.001
21
2320.000
31
0.0
100
AcDbText
73
2
0
TEXT
5
962
100
AcDbEntity
8
0-7図枠
62
7
370
-3
100
AcDbText
10
3066.601
20
2246.140
30
0.0
40
33.660
41
0.856
50
0.000
1
扉体寸法
72
1
11
3145.001
21
2260.000
31
0.0
100
AcDbText
73
2
0
TEXT
5
963
100
AcDbEntity
8
0-7図枠
62
7
370
-3
100
AcDbText
10
3066.601
20
2186.140
30
0.0
40
33.660
41
0.856
50
0.000
1
設計水深
72
1
11
3145.001
21
2200.000
31
0.0
100
AcDbText
73
2
0
MTEXT
5
964
100
AcDbEntity
8
0-7図枠
62
7
370
-3
100
AcDbMText
10
3394.099
20
2322.400
30
0.0
40
31.790
41
0.000
71
5
72
1
1
\W0.972;有効幅{\W0.700;   0.40 m}
7
STANDARD
11
1.00000
21
0.00000
31
0.0
0
MTEXT
5
965
100
AcDbEntity
8
0-7図枠
62
7
370
-3
100
AcDbMText
10
3394.099
20
2262.400
30
0.0
40
31.790
41
0.000
71
5
72
1
1
\W0.972;扉体幅{\W0.700;   0.48 m}
7
STANDARD
11
1.00000
21
0.00000
31
0.0
0
MTEXT
5
966
100
AcDbEntity
8
0-7図枠
62
7
370
-3
100
AcDbMText
10
3394.099
20
2202.400
30
0.0
40
31.790
41
0.000
71
5
72
1
1
\W0.972;前水深{\W0.700;   3.40 m}
7
STANDARD
11
1.00000
21
0.00000
31
0.0
0
MTEXT
5
967
100
AcDbEntity
8
0-7図枠
62
7
370
-3
100
AcDbMText
10
3709.099
20
2322.400
30
0.0
40
31.790
41
0.000
71
5
72
1
1
\W0.972;有効高　{\W0.700; 0.40 m}
7
STANDARD
11
1.00000
21
0.00000
31
0.0
0
MTEXT
5
968
100
AcDbEntity
8
0-7図枠
62
7
370
-3
100
AcDbMText
10
3709.099
20
2262.400
30
0.0
40
31.790
41
0.000
71
5
72
1
1
\W0.972;扉体高{\W0.700;   0.48 m}
7
STANDARD
11
1.00000
21
0.00000
31
0.0
0
MTEXT
5
969
100
AcDbEntity
8
0-7図枠
62
7
370
-3
100
AcDbMText
10
3709.099
20
2202.400
30
0.0
40
31.790
41
0.000
71
5
72
1
1
\W0.972;後水深{\W0.700;   0.00 m}
7
STANDARD
11
1.00000
21
0.00000
31
0.0
0
TEXT
5
96a
100
AcDbEntity
8
0-A文字
62
7
370
-3
100
AcDbText
10
3071.802
20
923.365
30
0.0
40
29.405
1
　　　　　塗装とし、色調はグレー（マンセル値Ｎ７）
41
0.856
50
0.000
100
AcDbText
0
MTEXT
5
96b
100
AcDbEntity
8
0-8寸法
62
7
370
-3
100
AcDbMText
10
2523.742
20
1645.606
30
0.0
40
31.790
41
0.000
71
7
72
1
1
\W1.093;六角{\W0.787;BT}＆{\W0.787;NT M12(SUS304}相当{\W0.787;)}
7
STANDARD
11
1.00000
21
0.00000
31
0.0
0
MTEXT
5
96c
100
AcDbEntity
8
0-8寸法
62
7
370
-3
100
AcDbMText
10
2522.879
20
1744.889
30
0.0
40
31.790
41
0.000
71
7
72
1
1
\W1.093;吊り金具{\W0.787;   PL-9t(SUS304) }
7
STANDARD
11
1.00000
21
0.00000
31
0.0
0
LINE
5
96d
100
AcDbEntity
8
0-8寸法
6
CONTINUOUS
62
4
100
AcDbLine
10
2506.584000000000
20
1735.299000000000
30
0.0
11
3103.508345128567
21
1735.299000000000
31
0.0
0
LINE
5
96e
100
AcDbEntity
8
0-8寸法
6
CONTINUOUS
62
4
100
AcDbLine
10
2506.584000000000
20
1635.299000000000
30
0.0
11
3103.508345128567
21
1635.299000000000
31
0.0
0
LINE
5
96f
100
AcDbEntity
8
0-8寸法
6
CONTINUOUS
62
4
100
AcDbLine
10
2506.584000000000
20
1735.299000000000
30
0.0
11
2506.584000000000
21
1635.299000000000
31
0.0
0
ENDSEC
 0
SECTION
  2
OBJECTS
 0
DICTIONARY
  5
C
100
AcDbDictionary
  3
ACAD_GROUP
350
D
  3
ACAD_MLINESTYLE
350
E
 0
DICTIONARY
  5
D
102
{ACAD_REACTORS
102
}
100
AcDbDictionary
 0
DICTIONARY
  5
E
102
{ACAD_REACTORS
102
}
100
AcDbDictionary
  3
STANDARD
350
13
0
MLINESTYLE
  5
13
102
{ACAD_REACTORS
102
}
100
AcDbMlineStyle
  2
STANDARD
 70
    0
3

62
256
51
90.0
52
90.0
71
0
0
ACDBPLACEHOLDER
  5
14
102
{ACAD_REACTORS
102
}
0
ENDSEC
0
EOF
