0
SECTION
2
HEADER
9
$ACADVER
1
AC1015
9
$ACADMAINTVER
 70
6
9
$DWGCODEPAGE
3
ANSI_932
9
$EXTMIN
10
0.000
20
0.000
30
0.0
9
$EXTMAX
10
4200.000
20
2970.000
30
0.0
9
$LIMMIN
10
0.000
20
0.000
9
$LIMMAX
10
4200.000
20
2970.000
9
$DIMSCALE
40
10.000000
9
$LTSCALE
40
10.000
9
$PDMODE
70
0
9
$PDSIZE
40
40.0
9
$HANDSEED
5
61f8a
9
$UNITMODE
70
0
9
$VISRETAIN
70
0
9
$PLINEGEN
70
0
9
$PSLTSCALE
70
1
9
$TREEDEPTH
70
3020
9
$CMLSTYLE
2
STANDARD
9
$CMLJUST
70
0
9
$CMLSCALE
40
1.0
9
$PROXYGRAPHICS
70
1
9
$MEASUREMENT
70
0
9
$CELWEIGHT
370
-1
9
$ENDCAPS
280
0
9
$JOINSTYLE
280
0
9
$LWDISPLAY
290
0
9
$INSUNITS
70
0
9
$HYPERLINKBASE
1

9
$STYLESHEET
1

9
$XEDIT
290
1
9
$CEPSNTYPE
380
0
9
$PSTYLEMODE
290
1
9
$FINGERPRINTGUID
2
{5F082321-0195-11D3-BDFB-0060B0CD5109}
9
$VERSIONGUID
2
{12943756-294D-11D3-98C2-0060B087942D}
9
$EXTNAMES
290
1
9
$PSVPSCALE
40
0.0
9
$OLESTARTUP
290
0
0
ENDSEC
0
SECTION
  2
CLASSES
0
ENDSEC
0
SECTION
2
TABLES
0
TABLE
2
VPORT
5
190
100
AcDbSymbolTable
70
2
0
VPORT
5
191
100
AcDbSymbolTableRecord
100
AcDbViewportTableRecord
2
*ACTIVE
70
0
10
0.0
20
0.0
11
1.0
21
1.0
12
2100.000
22
1485.000
13
0.0
23
0.0
14
1.0
24
1.0
15
0.0
25
0.0
16
0.0
26
0.0
36
1.0
17
0.0
27
0.0
37
0.0
40
3043.478
41
2.0
42
50.0
43
0.0
44
0.0
50
0.0
51
0.0
71
0
72
1000
73
1
74
1
75
0
76
0
77
0
78
0
0
ENDTAB
0
TABLE
2
LTYPE
5
1f4
100
AcDbSymbolTable
70
9
0
LTYPE
5
1f5
100
AcDbSymbolTableRecord
100
AcDbLinetypeTableRecord
2
BYBLOCK
70
 64
3

72
 65
73
  0
40
0.0
0
LTYPE
5
1f6
100
AcDbSymbolTableRecord
100
AcDbLinetypeTableRecord
2
BYLAYER
70
 64
3

72
 65
73
  0
40
0.0
0
LTYPE
5
1f7
100
AcDbSymbolTableRecord
100
AcDbLinetypeTableRecord
2
CONTINUOUS
70
64
3
SolidLine
72
65
73
0
40
0.0
0
LTYPE
5
1f8
100
AcDbSymbolTableRecord
100
AcDbLinetypeTableRecord
2
DOT
70
64
3
--  --  --  --  --  --  --  --     
72
65
73
2
40
3.000
49
1.000
74
0
49
-2.000
74
0
0
LTYPE
5
1f9
100
AcDbSymbolTableRecord
100
AcDbLinetypeTableRecord
2
DASHED
70
64
3
----    ----    ----    ----    
72
65
73
2
40
5.000
49
2.000
74
0
49
-3.000
74
0
0
LTYPE
5
1fa
100
AcDbSymbolTableRecord
100
AcDbLinetypeTableRecord
2
DASHED2
70
64
3
------  ------  ------  ------ 
72
65
73
2
40
10.000
49
4.000
74
0
49
-6.000
74
0
0
LTYPE
5
1fb
100
AcDbSymbolTableRecord
100
AcDbLinetypeTableRecord
2
CENTER
70
64
3
----- - ----- - ----- - ----- - 
72
65
73
4
40
10.000
49
6.000
74
0
49
-3.000
74
0
49
1.000
74
0
49
-3.000
74
0
0
LTYPE
5
1fc
100
AcDbSymbolTableRecord
100
AcDbLinetypeTableRecord
2
CENTER2
70
64
3
----------  --  ----------  -- 
72
65
73
4
40
17.000
49
12.000
74
0
49
-5.000
74
0
49
2.000
74
0
49
-5.000
74
0
0
LTYPE
5
1fd
100
AcDbSymbolTableRecord
100
AcDbLinetypeTableRecord
2
PHANTOM
70
64
3
--- - - --- - - --- - - --- - -
72
65
73
6
40
13.000
49
5.000
74
0
49
-3.000
74
0
49
1.000
74
0
49
-3.000
74
0
49
1.000
74
0
49
-3.000
74
0
0
LTYPE
5
1fe
100
AcDbSymbolTableRecord
100
AcDbLinetypeTableRecord
2
PHANTOM2
70
64
3
--------  -  -  --------  -  -
72
65
73
6
40
20.000
49
6.000
74
0
49
-5.000
74
0
49
2.000
74
0
49
-5.000
74
0
49
2.000
74
0
49
-5.000
74
0
0
LTYPE
5
1ff
100
AcDbSymbolTableRecord
100
AcDbLinetypeTableRecord
2
HIDDEN
70
64
3
-   -   -   -   -   -   -   -   
72
65
73
2
40
3.000
49
0.500
74
0
49
-2.500
74
0
0
ENDTAB
0
TABLE
2
STYLE
5
200
100
AcDbSymbolTable
70
1
0
STYLE
5
201
100
AcDbSymbolTableRecord
100
AcDbTextStyleTableRecord
2
STANDARD
70
0
40
0.0
41
1.0
50
0.0
71
0
42
0.0
3
txt.shx
4
extfont.shx
0
STYLE
5
202
100
AcDbSymbolTableRecord
100
AcDbTextStyleTableRecord
2
TATEGAKI
70
4
40
0.0
41
1.0
50
0.0
71
0
42
0.0
3
txt.shx
4
extfont.shx
0
STYLE
5
203
100
AcDbSymbolTableRecord
100
AcDbTextStyleTableRecord
2
DIM
70
0
40
0.0
41
0.75
50
0.0
71
0
42
0.0
3
txt.shx
4
extfont.shx
0
STYLE
5
204
100
AcDbSymbolTableRecord
100
AcDbTextStyleTableRecord
2
_Gothic_
70
0
40
1.0
41
1.0
50
0.0
71
0
42
10.0
3

4

1001
ACAD
1000
MS Gothic
1071
32817
0
STYLE
5
205
100
AcDbSymbolTableRecord
100
AcDbTextStyleTableRecord
2
_TateGothic_
70
4
40
0.0
41
1.0
50
0.0
71
0
42
0.0
3
@MS Gothic
4

0
ENDTAB
0
TABLE
2
VIEW
5
206
100
AcDbSymbolTable
70
0
0
ENDTAB
0
TABLE
2
UCS
5
207
100
AcDbSymbolTable
70
0
0
ENDTAB
0
TABLE
2
APPID
5
208
100
AcDbSymbolTable
70
1
0
APPID
5
209
100
AcDbSymbolTableRecord
100
AcDbRegAppTableRecord
2
ACAD
70
0
0
ENDTAB
0
TABLE
2
DIMSTYLE
5
403
330
0
100
AcDbSymbolTable
70
1
100
AcDbDimStyleTable
71
0
0
DIMSTYLE
105
404
330
402
100
AcDbSymbolTableRecord
100
AcDbDimStyleTableRecord
2
JAC_DIM
70
0
41
20.000
42
0.000
44
0.0
73
0
74
0
77
1
78
8
79
2
140
0.000
170
0
171
2
172
0
173
0
174
0
175
0
176
0
177
0
178
0
270
2
271
0
272
0
273
2
274
2
340
201
275
0
280
0
281
0
282
0
283
0
284
0
285
0
286
0
287
3
288
0
0
ENDTAB
0
TABLE
2
BLOCK_RECORD
5
405
100
AcDbSymbolTable
70
0
0
BLOCK_RECORD
5
406
100
AcDbSymbolTableRecord
100
AcDbBlockTableRecord
2
*MODEL_SPACE
0
BLOCK_RECORD
5
407
100
AcDbSymbolTableRecord
100
AcDbBlockTableRecord
2
*PAPER_SPACE
0
BLOCK_RECORD
5
408
100
AcDbSymbolTableRecord
100
AcDbBlockTableRecord
2
_JACCONVERT_
0
ENDTAB
0
TABLE
2
LAYER
5
409
100
AcDbSymbolTable
70
10
0
LAYER
5
40a
100
AcDbSymbolTableRecord
100
AcDbLayerTableRecord
2
0
70
0
62
7
6
CONTINUOUS
370
-3
390
14
0
LAYER
5
40b
100
AcDbSymbolTableRecord
100
AcDbLayerTableRecord
2
0-00
70
0
62
7
6
CONTINUOUS
370
-3
390
14
0
LAYER
5
40c
100
AcDbSymbolTableRecord
100
AcDbLayerTableRecord
2
0-3RC
70
0
62
7
6
CONTINUOUS
370
-3
390
14
0
LAYER
5
40d
100
AcDbSymbolTableRecord
100
AcDbLayerTableRecord
2
0-4陰線
70
0
62
7
6
CONTINUOUS
370
-3
390
14
0
LAYER
5
40e
100
AcDbSymbolTableRecord
100
AcDbLayerTableRecord
2
0-5基準線
70
0
62
7
6
CONTINUOUS
370
-3
390
14
0
LAYER
5
40f
100
AcDbSymbolTableRecord
100
AcDbLayerTableRecord
2
0-6戸当り
70
0
62
7
6
CONTINUOUS
370
-3
390
14
0
LAYER
5
410
100
AcDbSymbolTableRecord
100
AcDbLayerTableRecord
2
0-7図枠
70
0
62
7
6
CONTINUOUS
370
-3
390
14
0
LAYER
5
411
100
AcDbSymbolTableRecord
100
AcDbLayerTableRecord
2
0-8寸法
70
0
62
7
6
CONTINUOUS
370
-3
390
14
0
LAYER
5
412
100
AcDbSymbolTableRecord
100
AcDbLayerTableRecord
2
0-9扉体
70
0
62
7
6
CONTINUOUS
370
-3
390
14
0
LAYER
5
413
100
AcDbSymbolTableRecord
100
AcDbLayerTableRecord
2
0-A文字
70
0
62
7
6
CONTINUOUS
370
-3
390
14
0
LAYER
5
414
100
AcDbSymbolTableRecord
100
AcDbLayerTableRecord
2
F-F_J_ADD
70
0
62
-7
6
CONTINUOUS
290
0
370
-3
390
14
0
ENDTAB
0
ENDSEC
0
SECTION
2
BLOCKS
0
BLOCK
5
415
100
AcDbEntity
67
1
8
0
100
AcDbBlockBegin
2
*MODEL_SPACE
70
0
10
0.0
20
0.0
30
0.0
3
*MODEL_SPACE
1

0
ENDBLK
5
416
100
AcDbEntity
8
0
100
AcDbBlockEnd
0
BLOCK
5
417
100
AcDbEntity
67
1
8
0
100
AcDbBlockBegin
2
*PAPER_SPACE
70
0
10
0.0
20
0.0
30
0.0
3
*PAPER_SPACE
1

0
ENDBLK
5
418
100
AcDbEntity
67
1
8
0
100
AcDbBlockEnd
0
BLOCK
5
419
100
AcDbEntity
8
0
100
AcDbBlockBegin
2
_JACCONVERT_
70
2
10
0.0
20
0.0
30
0.0
3
_JACCONVERT_
1
_JACCONVERT_
0
ATTDEF
5
41a
100
AcDbEntity
8
0
62
0
100
AcDbText
10
0.0
20
0.0
30
0.0
40
1.0
1
User:33307E08109409567083093083089083760830E50960850900C608B4808D6408F6408F4F08E
100
AcDbAttributeDefinition
3

2
USER
70
8
0
ATTDEF
5
41b
100
AcDbEntity
8
0
62
0
100
AcDbText
10
0.0
20
2.0
30
0.0
40
1.0
1
Date:24/01/30 10:34
100
AcDbAttributeDefinition
3

2
REVDATE
70
8
0
ATTDEF
5
41c
100
AcDbEntity
8
0
62
0
100
AcDbText
10
0.0
20
4.0
30
0.0
40
1.0
1
File:_MFR-A0505K.dxf
100
AcDbAttributeDefinition
3

2
FNAME
70
8
0
ATTDEF
5
41d
100
AcDbEntity
8
0
62
0
100
AcDbText
10
0.0
20
6.0
30
0.0
40
1.0
1
JacConvert Version3.13p copyright (c) 2001-2021 K.Nakahara
100
AcDbAttributeDefinition
3

2
VER
70
8
0
ENDBLK
5
41e
100
AcDbEntity
67
1
8
0
100
AcDbBlockEnd
0
ENDSEC
0
SECTION
2
ENTITIES
0
POLYLINE
5
41f
100
AcDbEntity
8
0-7図枠
6
CONTINUOUS
62
  7
100
AcDb2dPolyline
66
1
10
0.0
20
0.0
30
0.0
70
0
0
VERTEX
5
420
100
AcDbEntity
8
0-7図枠
6
CONTINUOUS
62
  7
100
AcDbVertex
100
AcDb2dVertex
10
4050.001000000000
20
2770.000000000000
30
0.0
0
VERTEX
5
421
100
AcDbEntity
8
0-7図枠
6
CONTINUOUS
62
  7
100
AcDbVertex
100
AcDb2dVertex
10
4050.001000000000
20
150.000000000000
30
0.0
0
VERTEX
5
422
100
AcDbEntity
8
0-7図枠
6
CONTINUOUS
62
  7
100
AcDbVertex
100
AcDb2dVertex
10
250.000000000000
20
150.000000000000
30
0.0
0
SEQEND
5
423
100
AcDbEntity
8
0-7図枠
0
POLYLINE
5
424
100
AcDbEntity
8
0-7図枠
6
CONTINUOUS
62
  7
100
AcDb2dPolyline
66
1
10
0.0
20
0.0
30
0.0
70
0
0
VERTEX
5
425
100
AcDbEntity
8
0-7図枠
6
CONTINUOUS
62
  7
100
AcDbVertex
100
AcDb2dVertex
10
4050.001000000000
20
2770.000000000000
30
0.0
0
VERTEX
5
426
100
AcDbEntity
8
0-7図枠
6
CONTINUOUS
62
  7
100
AcDbVertex
100
AcDb2dVertex
10
250.000000000000
20
2770.000000000000
30
0.0
0
VERTEX
5
427
100
AcDbEntity
8
0-7図枠
6
CONTINUOUS
62
  7
100
AcDbVertex
100
AcDb2dVertex
10
250.000000000000
20
150.000000000000
30
0.0
0
SEQEND
5
428
100
AcDbEntity
8
0-7図枠
0
LINE
5
429
100
AcDbEntity
8
0-7図枠
6
CONTINUOUS
62
7
100
AcDbLine
10
3105.001000000000
20
2695.000000000000
30
0.0
11
4050.001000000000
21
2695.000000000000
31
0.0
0
LINE
5
42a
100
AcDbEntity
8
0-7図枠
6
CONTINUOUS
62
7
100
AcDbLine
10
3105.001000000000
20
2770.000000000000
30
0.0
11
3105.001000000000
21
2695.000000000000
31
0.0
0
LINE
5
42b
100
AcDbEntity
8
0-7図枠
6
CONTINUOUS
62
7
100
AcDbLine
10
3655.001000000000
20
2770.000000000000
30
0.0
11
3655.001000000000
21
2695.000000000000
31
0.0
0
LINE
5
42c
100
AcDbEntity
8
0-7図枠
6
CONTINUOUS
62
7
100
AcDbLine
10
3855.001000000000
20
2770.000000000000
30
0.0
11
3855.001000000000
21
2695.000000000000
31
0.0
0
LINE
5
42d
100
AcDbEntity
8
0-7図枠
6
CONTINUOUS
62
7
100
AcDbLine
10
3215.001000000000
20
2770.000000000000
30
0.0
11
3215.001000000000
21
2695.000000000000
31
0.0
0
TEXT
5
42e
100
AcDbEntity
8
0-7図枠
62
7
370
-3
100
AcDbText
10
3128.899
20
2720.239
30
0.0
40
29.405
1
記号
41
0.856
50
0.000
100
AcDbText
0
TEXT
5
42f
100
AcDbEntity
8
0-7図枠
62
7
370
-3
100
AcDbText
10
3281.399
20
2720.239
30
0.0
40
29.405
1
修　　　　　　　正
41
0.856
50
0.000
100
AcDbText
0
TEXT
5
430
100
AcDbEntity
8
0-7図枠
62
7
370
-3
100
AcDbText
10
3688.899
20
2720.239
30
0.0
40
29.405
1
日　　付
41
0.856
50
0.000
100
AcDbText
0
TEXT
5
431
100
AcDbEntity
8
0-7図枠
62
7
370
-3
100
AcDbText
10
3886.399
20
2720.239
30
0.0
40
29.405
1
担　　当
41
0.856
50
0.000
100
AcDbText
0
LINE
5
432
100
AcDbEntity
8
F-F_J_ADD
6
HIDDEN
62
109
100
AcDbLine
10
0.000000000000
20
2970.000000000000
30
0.0
11
4200.001000000000
21
2970.000000000000
31
0.0
0
LINE
5
433
100
AcDbEntity
8
F-F_J_ADD
6
HIDDEN
62
109
100
AcDbLine
10
4200.001000000000
20
2970.000000000000
30
0.0
11
4200.001000000000
21
0.000000000000
31
0.0
0
LINE
5
434
100
AcDbEntity
8
F-F_J_ADD
6
HIDDEN
62
109
100
AcDbLine
10
0.000000000000
20
0.000000000000
30
0.0
11
4200.001000000000
21
0.000000000000
31
0.0
0
LINE
5
435
100
AcDbEntity
8
F-F_J_ADD
6
HIDDEN
62
109
100
AcDbLine
10
0.000000000000
20
2970.000000000000
30
0.0
11
0.000000000000
21
0.000000000000
31
0.0
0
LINE
5
436
100
AcDbEntity
8
0-6戸当り
6
CONTINUOUS
62
7
100
AcDbLine
10
2487.095000000000
20
1421.187000000000
30
0.0
11
2570.278000000000
21
1421.187000000000
31
0.0
0
ARC
5
437
100
AcDbEntity
8
0-9扉体
6
CONTINUOUS
62
3
100
AcDbCircle
10
2465.095000000000
20
1325.188000000000
30
0.0
40
10.000000000000
100
AcDbArc
50
270.000000000000
51
540.000000000000
0
ARC
5
438
100
AcDbEntity
8
0-9扉体
6
CONTINUOUS
62
3
100
AcDbCircle
10
2465.095000000000
20
1325.188000000000
30
0.0
40
10.000000000000
100
AcDbArc
50
270.000000000000
51
540.000000000000
0
POLYLINE
5
439
100
AcDbEntity
  8
0-8寸法
6
CONTINUOUS
62
4
100
AcDb2dPolyline
66
1
10
0
20
0
70
1
40
4.000
41
4.000
0
VERTEX
5
43a
100
AcDbEntity
  8
0-8寸法
6
CONTINUOUS
62
4
100
AcDbVertex
100
AcDb2dVertex
10
2447.094
20
1085.187
30
0.0
42
1.000
0
VERTEX
5
43b
100
AcDbEntity
  8
0-8寸法
6
CONTINUOUS
62
4
100
AcDbVertex
100
AcDb2dVertex
10
2451.094
20
1085.187
30
0.0
42
1.000
0
SEQEND
5
43c
100
AcDbEntity
  8
0-8寸法
0
POLYLINE
5
43d
100
AcDbEntity
  8
0-8寸法
6
CONTINUOUS
62
4
100
AcDb2dPolyline
66
1
10
0
20
0
70
1
40
4.000
41
4.000
0
VERTEX
5
43e
100
AcDbEntity
  8
0-8寸法
6
CONTINUOUS
62
4
100
AcDbVertex
100
AcDb2dVertex
10
2447.094
20
1085.187
30
0.0
42
1.000
0
VERTEX
5
43f
100
AcDbEntity
  8
0-8寸法
6
CONTINUOUS
62
4
100
AcDbVertex
100
AcDb2dVertex
10
2451.094
20
1085.187
30
0.0
42
1.000
0
SEQEND
5
440
100
AcDbEntity
  8
0-8寸法
0
LINE
5
441
100
AcDbEntity
8
0-3RC
6
CONTINUOUS
62
6
100
AcDbLine
10
2487.095000000000
20
1535.187000000000
30
0.0
11
2487.095000000000
21
998.928000000000
31
0.0
0
LINE
5
442
100
AcDbEntity
8
0-6戸当り
6
CONTINUOUS
62
7
100
AcDbLine
10
2487.095000000000
20
1409.187000000000
30
0.0
11
2582.094000000000
21
1409.187000000000
31
0.0
0
LINE
5
443
100
AcDbEntity
8
0-9扉体
6
CONTINUOUS
62
4
100
AcDbLine
10
2455.094000000000
20
1340.187000000000
30
0.0
11
2449.094000000000
21
1340.187000000000
31
0.0
0
LINE
5
444
100
AcDbEntity
8
0-9扉体
6
CONTINUOUS
62
3
100
AcDbLine
10
2455.094000000000
20
1275.188000000000
30
0.0
11
2463.094000000000
21
1275.188000000000
31
0.0
0
LINE
5
445
100
AcDbEntity
8
0-9扉体
6
CONTINUOUS
62
3
100
AcDbLine
10
2465.095000000000
20
1315.188000000000
30
0.0
11
2463.094000000000
21
1315.188000000000
31
0.0
0
LINE
5
446
100
AcDbEntity
8
0-9扉体
6
CONTINUOUS
62
3
100
AcDbLine
10
2463.094000000000
20
1314.188000000000
30
0.0
11
2469.095000000000
21
1314.188000000000
31
0.0
0
LINE
5
447
100
AcDbEntity
8
0-9扉体
6
CONTINUOUS
62
3
100
AcDbLine
10
2463.094000000000
20
1276.188000000000
30
0.0
11
2469.095000000000
21
1276.188000000000
31
0.0
0
LINE
5
448
100
AcDbEntity
8
0-9扉体
6
DOT
62
3
100
AcDbLine
10
2465.095000000000
20
1291.188000000000
30
0.0
11
2469.095000000000
21
1287.187000000000
31
0.0
0
LINE
5
449
100
AcDbEntity
8
0-9扉体
6
DOT
62
3
100
AcDbLine
10
2465.095000000000
20
1299.188000000000
30
0.0
11
2469.095000000000
21
1303.188000000000
31
0.0
0
LINE
5
44a
100
AcDbEntity
8
0-9扉体
6
DOT
62
3
100
AcDbLine
10
2465.095000000000
20
1291.188000000000
30
0.0
11
2465.095000000000
21
1299.188000000000
31
0.0
0
LINE
5
44b
100
AcDbEntity
8
0-9扉体
6
DOT
62
3
100
AcDbLine
10
2449.094000000000
20
1299.188000000000
30
0.0
11
2465.095000000000
21
1299.188000000000
31
0.0
0
LINE
5
44c
100
AcDbEntity
8
0-9扉体
6
DOT
62
3
100
AcDbLine
10
2449.094000000000
20
1291.188000000000
30
0.0
11
2465.095000000000
21
1291.188000000000
31
0.0
0
LINE
5
44d
100
AcDbEntity
8
0-9扉体
6
CONTINUOUS
62
3
100
AcDbLine
10
2447.494000000000
20
1286.187000000000
30
0.0
11
2449.094000000000
21
1286.187000000000
31
0.0
0
LINE
5
44e
100
AcDbEntity
8
0-9扉体
6
CONTINUOUS
62
3
100
AcDbLine
10
2447.494000000000
20
1304.188000000000
30
0.0
11
2449.094000000000
21
1304.188000000000
31
0.0
0
LINE
5
44f
100
AcDbEntity
8
0-9扉体
6
CONTINUOUS
62
3
100
AcDbLine
10
2434.094000000000
20
1291.188000000000
30
0.0
11
2434.094000000000
21
1299.188000000000
31
0.0
0
LINE
5
450
100
AcDbEntity
8
0-9扉体
6
CONTINUOUS
62
3
100
AcDbLine
10
2447.494000000000
20
1304.188000000000
30
0.0
11
2447.494000000000
21
1286.187000000000
31
0.0
0
LINE
5
451
100
AcDbEntity
8
0-9扉体
6
CONTINUOUS
62
7
100
AcDbLine
10
2440.995000000000
20
1288.687000000000
30
0.0
11
2441.575000000000
21
1287.682000000000
31
0.0
0
LINE
5
452
100
AcDbEntity
8
0-9扉体
6
CONTINUOUS
62
7
100
AcDbLine
10
2440.995000000000
20
1301.687000000000
30
0.0
11
2441.575000000000
21
1302.693000000000
31
0.0
0
LINE
5
453
100
AcDbEntity
8
0-9扉体
6
CONTINUOUS
62
7
100
AcDbLine
10
2440.995000000000
20
1288.687000000000
30
0.0
11
2440.995000000000
21
1301.687000000000
31
0.0
0
LINE
5
454
100
AcDbEntity
8
0-9扉体
6
CONTINUOUS
62
3
100
AcDbLine
10
2440.995000000000
20
1299.188000000000
30
0.0
11
2434.094000000000
21
1299.188000000000
31
0.0
0
LINE
5
455
100
AcDbEntity
8
0-9扉体
6
CONTINUOUS
62
3
100
AcDbLine
10
2440.995000000000
20
1291.188000000000
30
0.0
11
2434.094000000000
21
1291.188000000000
31
0.0
0
LINE
5
456
100
AcDbEntity
8
0-9扉体
6
CONTINUOUS
62
7
100
AcDbLine
10
2447.494000000000
20
1302.693000000000
30
0.0
11
2441.575000000000
21
1302.693000000000
31
0.0
0
LINE
5
457
100
AcDbEntity
8
0-9扉体
6
CONTINUOUS
62
7
100
AcDbLine
10
2447.494000000000
20
1298.940000000000
30
0.0
11
2441.575000000000
21
1298.940000000000
31
0.0
0
LINE
5
458
100
AcDbEntity
8
0-9扉体
6
CONTINUOUS
62
7
100
AcDbLine
10
2447.494000000000
20
1291.435000000000
30
0.0
11
2441.575000000000
21
1291.435000000000
31
0.0
0
LINE
5
459
100
AcDbEntity
8
0-9扉体
6
CONTINUOUS
62
7
100
AcDbLine
10
2447.494000000000
20
1287.682000000000
30
0.0
11
2441.575000000000
21
1287.682000000000
31
0.0
0
LINE
5
45a
100
AcDbEntity
8
0-9扉体
6
CONTINUOUS
62
2
100
AcDbLine
10
2440.995000000000
20
1298.188000000000
30
0.0
11
2434.094000000000
21
1298.188000000000
31
0.0
0
LINE
5
45b
100
AcDbEntity
8
0-9扉体
6
CONTINUOUS
62
2
100
AcDbLine
10
2440.995000000000
20
1292.188000000000
30
0.0
11
2434.094000000000
21
1292.188000000000
31
0.0
0
LINE
5
45c
100
AcDbEntity
8
0-9扉体
6
CONTINUOUS
62
3
100
AcDbLine
10
2455.094000000000
20
795.187000000000
30
0.0
11
2463.094000000000
21
795.187000000000
31
0.0
0
LINE
5
45d
100
AcDbEntity
8
0-9扉体
6
CONTINUOUS
62
3
100
AcDbLine
10
2465.095000000000
20
755.188000000000
30
0.0
11
2463.094000000000
21
755.188000000000
31
0.0
0
LINE
5
45e
100
AcDbEntity
8
0-9扉体
6
CONTINUOUS
62
3
100
AcDbLine
10
2463.094000000000
20
756.187000000000
30
0.0
11
2469.095000000000
21
756.187000000000
31
0.0
0
LINE
5
45f
100
AcDbEntity
8
0-9扉体
6
CONTINUOUS
62
3
100
AcDbLine
10
2463.094000000000
20
794.188000000000
30
0.0
11
2469.095000000000
21
794.188000000000
31
0.0
0
LINE
5
460
100
AcDbEntity
8
0-9扉体
6
DOT
62
3
100
AcDbLine
10
2465.095000000000
20
779.187000000000
30
0.0
11
2469.095000000000
21
783.188000000000
31
0.0
0
LINE
5
461
100
AcDbEntity
8
0-9扉体
6
DOT
62
3
100
AcDbLine
10
2465.095000000000
20
771.187000000000
30
0.0
11
2469.095000000000
21
767.187000000000
31
0.0
0
LINE
5
462
100
AcDbEntity
8
0-9扉体
6
DOT
62
3
100
AcDbLine
10
2465.095000000000
20
779.187000000000
30
0.0
11
2465.095000000000
21
771.187000000000
31
0.0
0
LINE
5
463
100
AcDbEntity
8
0-9扉体
6
DOT
62
3
100
AcDbLine
10
2449.094000000000
20
771.187000000000
30
0.0
11
2465.095000000000
21
771.187000000000
31
0.0
0
LINE
5
464
100
AcDbEntity
8
0-9扉体
6
DOT
62
3
100
AcDbLine
10
2449.094000000000
20
779.187000000000
30
0.0
11
2465.095000000000
21
779.187000000000
31
0.0
0
LINE
5
465
100
AcDbEntity
8
0-9扉体
6
CONTINUOUS
62
3
100
AcDbLine
10
2447.494000000000
20
784.188000000000
30
0.0
11
2449.094000000000
21
784.188000000000
31
0.0
0
LINE
5
466
100
AcDbEntity
8
0-9扉体
6
CONTINUOUS
62
3
100
AcDbLine
10
2447.494000000000
20
766.187000000000
30
0.0
11
2449.094000000000
21
766.187000000000
31
0.0
0
LINE
5
467
100
AcDbEntity
8
0-9扉体
6
CONTINUOUS
62
3
100
AcDbLine
10
2434.094000000000
20
779.187000000000
30
0.0
11
2434.094000000000
21
771.187000000000
31
0.0
0
LINE
5
468
100
AcDbEntity
8
0-9扉体
6
CONTINUOUS
62
3
100
AcDbLine
10
2447.494000000000
20
766.187000000000
30
0.0
11
2447.494000000000
21
784.188000000000
31
0.0
0
LINE
5
469
100
AcDbEntity
8
0-5基準線
6
CENTER2
62
7
100
AcDbLine
10
2431.691000000000
20
775.188000000000
30
0.0
11
2470.619000000000
21
775.188000000000
31
0.0
0
LINE
5
46a
100
AcDbEntity
8
0-9扉体
6
CONTINUOUS
62
7
100
AcDbLine
10
2440.995000000000
20
781.688000000000
30
0.0
11
2441.575000000000
21
782.693000000000
31
0.0
0
LINE
5
46b
100
AcDbEntity
8
0-9扉体
6
CONTINUOUS
62
7
100
AcDbLine
10
2440.995000000000
20
768.688000000000
30
0.0
11
2441.575000000000
21
767.682000000000
31
0.0
0
LINE
5
46c
100
AcDbEntity
8
0-9扉体
6
CONTINUOUS
62
7
100
AcDbLine
10
2440.995000000000
20
781.688000000000
30
0.0
11
2440.995000000000
21
768.688000000000
31
0.0
0
LINE
5
46d
100
AcDbEntity
8
0-9扉体
6
CONTINUOUS
62
3
100
AcDbLine
10
2440.995000000000
20
771.187000000000
30
0.0
11
2434.094000000000
21
771.187000000000
31
0.0
0
LINE
5
46e
100
AcDbEntity
8
0-9扉体
6
CONTINUOUS
62
3
100
AcDbLine
10
2440.995000000000
20
779.187000000000
30
0.0
11
2434.094000000000
21
779.187000000000
31
0.0
0
LINE
5
46f
100
AcDbEntity
8
0-9扉体
6
CONTINUOUS
62
7
100
AcDbLine
10
2447.494000000000
20
767.682000000000
30
0.0
11
2441.575000000000
21
767.682000000000
31
0.0
0
LINE
5
470
100
AcDbEntity
8
0-9扉体
6
CONTINUOUS
62
7
100
AcDbLine
10
2447.494000000000
20
771.435000000000
30
0.0
11
2441.575000000000
21
771.435000000000
31
0.0
0
LINE
5
471
100
AcDbEntity
8
0-9扉体
6
CONTINUOUS
62
7
100
AcDbLine
10
2447.494000000000
20
778.941000000000
30
0.0
11
2441.575000000000
21
778.941000000000
31
0.0
0
LINE
5
472
100
AcDbEntity
8
0-9扉体
6
CONTINUOUS
62
7
100
AcDbLine
10
2447.494000000000
20
782.693000000000
30
0.0
11
2441.575000000000
21
782.693000000000
31
0.0
0
LINE
5
473
100
AcDbEntity
8
0-9扉体
6
CONTINUOUS
62
2
100
AcDbLine
10
2440.995000000000
20
772.187000000000
30
0.0
11
2434.094000000000
21
772.187000000000
31
0.0
0
LINE
5
474
100
AcDbEntity
8
0-9扉体
6
CONTINUOUS
62
2
100
AcDbLine
10
2440.995000000000
20
778.187000000000
30
0.0
11
2434.094000000000
21
778.187000000000
31
0.0
0
LINE
5
475
100
AcDbEntity
8
0-5基準線
6
CENTER2
62
7
100
AcDbLine
10
2430.751000000000
20
1295.187000000000
30
0.0
11
2470.619000000000
21
1295.187000000000
31
0.0
0
LINE
5
476
100
AcDbEntity
8
0-9扉体
6
CONTINUOUS
62
7
100
AcDbLine
10
1054.163000000001
20
1359.487000000000
30
0.0
11
1054.163000000001
21
1349.487000000000
31
0.0
0
LINE
5
477
100
AcDbEntity
8
0-9扉体
6
CONTINUOUS
62
7
100
AcDbLine
10
1073.163000000000
20
1359.487000000000
30
0.0
11
1073.163000000000
21
1349.487000000000
31
0.0
0
LINE
5
478
100
AcDbEntity
8
0-9扉体
6
CONTINUOUS
62
7
100
AcDbLine
10
1073.163000000000
20
1359.487000000000
30
0.0
11
1054.163000000001
21
1359.487000000000
31
0.0
0
LINE
5
479
100
AcDbEntity
8
0-9扉体
6
CONTINUOUS
62
7
100
AcDbLine
10
1063.663000000000
20
1358.639000000000
30
0.0
11
1063.663000000000
21
1349.487000000000
31
0.0
0
LINE
5
47a
100
AcDbEntity
8
0-9扉体
6
CONTINUOUS
62
4
100
AcDbLine
10
2406.094000000000
20
1346.487000000000
30
0.0
11
2432.094000000000
21
1346.487000000000
31
0.0
0
LINE
5
47b
100
AcDbEntity
8
0-9扉体
6
CONTINUOUS
62
4
100
AcDbLine
10
2406.094000000000
20
1346.487000000000
30
0.0
11
2406.094000000000
21
1344.187000000000
31
0.0
0
LINE
5
47c
100
AcDbEntity
8
0-9扉体
6
CONTINUOUS
62
4
100
AcDbLine
10
2432.094000000000
20
1346.487000000000
30
0.0
11
2432.094000000000
21
1344.187000000000
31
0.0
0
LINE
5
47d
100
AcDbEntity
8
0-9扉体
6
CONTINUOUS
62
4
100
AcDbLine
10
2408.344000000000
20
1349.487000000000
30
0.0
11
2408.344000000000
21
1346.487000000000
31
0.0
0
LINE
5
47e
100
AcDbEntity
8
0-9扉体
6
CONTINUOUS
62
4
100
AcDbLine
10
2429.844000000000
20
1349.487000000000
30
0.0
11
2429.844000000000
21
1346.487000000000
31
0.0
0
LINE
5
47f
100
AcDbEntity
8
0-9扉体
6
CONTINUOUS
62
7
100
AcDbLine
10
2409.594000000000
20
1359.487000000000
30
0.0
11
2428.594000000000
21
1359.487000000000
31
0.0
0
LINE
5
480
100
AcDbEntity
8
0-9扉体
6
CONTINUOUS
62
7
100
AcDbLine
10
2409.594000000000
20
1359.487000000000
30
0.0
11
2408.125000000000
21
1358.639000000000
31
0.0
0
LINE
5
481
100
AcDbEntity
8
0-9扉体
6
CONTINUOUS
62
7
100
AcDbLine
10
2428.594000000000
20
1359.487000000000
30
0.0
11
2430.064000000000
21
1358.639000000000
31
0.0
0
LINE
5
482
100
AcDbEntity
8
0-9扉体
6
CONTINUOUS
62
7
100
AcDbLine
10
2408.125000000000
20
1349.487000000000
30
0.0
11
2408.125000000000
21
1358.639000000000
31
0.0
0
LINE
5
483
100
AcDbEntity
8
0-9扉体
6
CONTINUOUS
62
7
100
AcDbLine
10
2430.064000000000
20
1349.487000000000
30
0.0
11
2430.064000000000
21
1358.639000000000
31
0.0
0
LINE
5
484
100
AcDbEntity
8
0-9扉体
6
CONTINUOUS
62
4
100
AcDbLine
10
2408.125000000000
20
1349.487000000000
30
0.0
11
2430.064000000000
21
1349.487000000000
31
0.0
0
LINE
5
485
100
AcDbEntity
8
0-9扉体
6
CONTINUOUS
62
7
100
AcDbLine
10
2413.610000000000
20
1349.487000000000
30
0.0
11
2413.610000000000
21
1358.639000000000
31
0.0
0
LINE
5
486
100
AcDbEntity
8
0-9扉体
6
CONTINUOUS
62
7
100
AcDbLine
10
2424.579000000000
20
1349.487000000000
30
0.0
11
2424.579000000000
21
1358.639000000000
31
0.0
0
LINE
5
487
100
AcDbEntity
8
0-9扉体
6
CONTINUOUS
62
7
100
AcDbLine
10
2428.594000000000
20
1321.187000000000
30
0.0
11
2409.594000000000
21
1321.187000000000
31
0.0
0
LINE
5
488
100
AcDbEntity
8
0-9扉体
6
CONTINUOUS
62
7
100
AcDbLine
10
2428.594000000000
20
1321.187000000000
30
0.0
11
2430.064000000000
21
1322.036000000000
31
0.0
0
LINE
5
489
100
AcDbEntity
8
0-9扉体
6
CONTINUOUS
62
7
100
AcDbLine
10
2409.594000000000
20
1321.187000000000
30
0.0
11
2408.125000000000
21
1322.036000000000
31
0.0
0
LINE
5
48a
100
AcDbEntity
8
0-9扉体
6
CONTINUOUS
62
7
100
AcDbLine
10
2430.064000000000
20
1329.187000000000
30
0.0
11
2430.064000000000
21
1322.036000000000
31
0.0
0
LINE
5
48b
100
AcDbEntity
8
0-9扉体
6
CONTINUOUS
62
7
100
AcDbLine
10
2408.125000000000
20
1329.187000000000
30
0.0
11
2408.125000000000
21
1322.036000000000
31
0.0
0
LINE
5
48c
100
AcDbEntity
8
0-9扉体
6
CONTINUOUS
62
7
100
AcDbLine
10
2424.579000000000
20
1329.187000000000
30
0.0
11
2424.579000000000
21
1322.036000000000
31
0.0
0
LINE
5
48d
100
AcDbEntity
8
0-9扉体
6
CONTINUOUS
62
7
100
AcDbLine
10
2413.610000000000
20
1329.187000000000
30
0.0
11
2413.610000000000
21
1322.036000000000
31
0.0
0
LINE
5
48e
100
AcDbEntity
8
0-9扉体
6
CONTINUOUS
62
4
100
AcDbLine
10
2413.094000000000
20
1369.187000000000
30
0.0
11
2425.094000000000
21
1369.187000000000
31
0.0
0
LINE
5
48f
100
AcDbEntity
8
0-9扉体
6
CONTINUOUS
62
4
100
AcDbLine
10
2413.094000000000
20
1369.187000000000
30
0.0
11
2413.094000000000
21
1359.487000000000
31
0.0
0
LINE
5
490
100
AcDbEntity
8
0-9扉体
6
CONTINUOUS
62
4
100
AcDbLine
10
2425.094000000000
20
1369.187000000000
30
0.0
11
2425.094000000000
21
1359.487000000000
31
0.0
0
LINE
5
491
100
AcDbEntity
8
0-9扉体
6
CONTINUOUS
62
4
100
AcDbLine
10
2414.094000000000
20
1369.187000000000
30
0.0
11
2414.094000000000
21
1359.487000000000
31
0.0
0
LINE
5
492
100
AcDbEntity
8
0-9扉体
6
CONTINUOUS
62
4
100
AcDbLine
10
2424.094000000000
20
1369.187000000000
30
0.0
11
2424.094000000000
21
1359.487000000000
31
0.0
0
LINE
5
493
100
AcDbEntity
8
0-9扉体
6
CONTINUOUS
62
4
100
AcDbLine
10
2444.094000000000
20
1344.187000000000
30
0.0
11
2458.594000000000
21
1358.688000000000
31
0.0
0
LINE
5
494
100
AcDbEntity
8
0-5基準線
6
CENTER2
62
7
100
AcDbLine
10
2441.094000000000
20
1405.187000000000
30
0.0
11
2441.094000000000
21
1365.188000000000
31
0.0
0
LINE
5
495
100
AcDbEntity
8
0-9扉体
6
CONTINUOUS
62
4
100
AcDbLine
10
993.663000000000
20
1335.187000000000
30
0.0
11
1593.663000000000
21
1335.187000000000
31
0.0
0
LINE
5
496
100
AcDbEntity
8
0-9扉体
6
DOT
62
4
100
AcDbLine
10
999.663000000000
20
735.188000000000
30
0.0
11
999.663000000000
21
1335.187000000000
31
0.0
0
LINE
5
497
100
AcDbEntity
8
0-9扉体
6
DOT
62
4
100
AcDbLine
10
1587.663000000000
20
1335.187000000000
30
0.0
11
1587.663000000000
21
735.188000000000
31
0.0
0
LINE
5
498
100
AcDbEntity
8
0-9扉体
6
CONTINUOUS
62
4
100
AcDbLine
10
1533.663000000000
20
795.188000000000
30
0.0
11
1053.663000000000
21
795.188000000000
31
0.0
0
LINE
5
499
100
AcDbEntity
8
0-9扉体
6
DOT
62
4
100
AcDbLine
10
999.663000000000
20
1329.187000000000
30
0.0
11
1587.663000000000
21
1329.187000000000
31
0.0
0
LINE
5
49a
100
AcDbEntity
8
0-9扉体
6
CONTINUOUS
62
4
100
AcDbLine
10
1053.663000000000
20
1275.188000000000
30
0.0
11
1533.663000000000
21
1275.188000000000
31
0.0
0
LINE
5
49b
100
AcDbEntity
8
0-9扉体
6
CONTINUOUS
62
4
100
AcDbLine
10
2419.094000000000
20
1349.487000000000
30
0.0
11
2416.094000000000
21
1346.487000000000
31
0.0
0
LINE
5
49c
100
AcDbEntity
8
0-9扉体
6
CONTINUOUS
62
4
100
AcDbLine
10
2419.094000000000
20
1346.487000000000
30
0.0
11
2422.094000000000
21
1349.487000000000
31
0.0
0
LINE
5
49d
100
AcDbEntity
8
0-9扉体
6
CONTINUOUS
62
4
100
AcDbLine
10
1543.663000000000
20
1340.187000000000
30
0.0
11
1598.663000000000
21
1340.187000000000
31
0.0
0
LINE
5
49e
100
AcDbEntity
8
0-9扉体
6
CONTINUOUS
62
3
100
AcDbLine
10
1183.663000000000
20
1344.187000000000
30
0.0
11
1043.663000000000
21
1344.187000000000
31
0.0
0
LINE
5
49f
100
AcDbEntity
8
0-9扉体
6
CONTINUOUS
62
3
100
AcDbLine
10
1183.663000000000
20
1344.187000000000
30
0.0
11
1183.663000000000
21
1335.187000000000
31
0.0
0
LINE
5
4a0
100
AcDbEntity
8
0-9扉体
6
CONTINUOUS
62
3
100
AcDbLine
10
1043.663000000000
20
1344.187000000000
30
0.0
11
1043.663000000000
21
1335.187000000000
31
0.0
0
POLYLINE
5
4a1
100
AcDbEntity
8
0-9扉体
6
CONTINUOUS
62
  3
100
AcDb2dPolyline
66
1
10
0.0
20
0.0
30
0.0
70
0
0
VERTEX
5
4a2
100
AcDbEntity
8
0-9扉体
6
CONTINUOUS
62
  3
100
AcDbVertex
100
AcDb2dVertex
10
1083.663000000000
20
1409.187000000000
30
0.0
0
VERTEX
5
4a3
100
AcDbEntity
8
0-9扉体
6
CONTINUOUS
62
  3
100
AcDbVertex
100
AcDb2dVertex
10
1092.663000000000
20
1409.187000000000
30
0.0
0
VERTEX
5
4a4
100
AcDbEntity
8
0-9扉体
6
CONTINUOUS
62
  3
100
AcDbVertex
100
AcDb2dVertex
10
1092.663000000000
20
1344.187000000000
30
0.0
0
SEQEND
5
4a5
100
AcDbEntity
8
0-9扉体
0
LINE
5
4a6
100
AcDbEntity
8
0-9扉体
6
CONTINUOUS
62
3
100
AcDbLine
10
1083.663000000000
20
1409.187000000000
30
0.0
11
1083.663000000000
21
1344.187000000000
31
0.0
0
LINE
5
4a7
100
AcDbEntity
8
0-6戸当り
6
DOT
62
6
100
AcDbLine
10
1094.663000000000
20
1376.188000000000
30
0.0
11
1132.663000000000
21
1376.188000000000
31
0.0
0
LINE
5
4a8
100
AcDbEntity
8
0-6戸当り
6
CONTINUOUS
62
6
100
AcDbLine
10
1094.663000000000
20
1368.188000000000
30
0.0
11
1132.663000000000
21
1368.188000000000
31
0.0
0
LINE
5
4a9
100
AcDbEntity
8
0-6戸当り
6
CONTINUOUS
62
6
100
AcDbLine
10
1094.663000000000
20
1402.187000000000
30
0.0
11
1094.663000000000
21
1368.188000000000
31
0.0
0
POLYLINE
5
4aa
100
AcDbEntity
8
0-6戸当り
6
CONTINUOUS
62
  6
100
AcDb2dPolyline
66
1
10
0.0
20
0.0
30
0.0
70
0
0
VERTEX
5
4ab
100
AcDbEntity
8
0-6戸当り
6
CONTINUOUS
62
  6
100
AcDbVertex
100
AcDb2dVertex
10
1094.663000000000
20
1402.187000000000
30
0.0
0
VERTEX
5
4ac
100
AcDbEntity
8
0-6戸当り
6
CONTINUOUS
62
  6
100
AcDbVertex
100
AcDb2dVertex
10
1132.663000000000
20
1402.187000000000
30
0.0
0
VERTEX
5
4ad
100
AcDbEntity
8
0-6戸当り
6
CONTINUOUS
62
  6
100
AcDbVertex
100
AcDb2dVertex
10
1132.663000000000
20
1368.188000000000
30
0.0
0
SEQEND
5
4ae
100
AcDbEntity
8
0-6戸当り
0
LINE
5
4af
100
AcDbEntity
8
0-9扉体
6
CONTINUOUS
62
6
100
AcDbLine
10
1081.063000000000
20
1401.187000000000
30
0.0
11
1081.063000000000
21
1369.188000000000
31
0.0
0
LINE
5
4b0
100
AcDbEntity
8
0-9扉体
6
CONTINUOUS
62
6
100
AcDbLine
10
1070.163000000000
20
1393.187000000000
30
0.0
11
1070.163000000000
21
1377.188000000000
31
0.0
0
LINE
5
4b1
100
AcDbEntity
8
0-9扉体
6
CONTINUOUS
62
6
100
AcDbLine
10
1070.163000000000
20
1393.187000000000
30
0.0
11
1081.063000000000
21
1393.187000000000
31
0.0
0
LINE
5
4b2
100
AcDbEntity
8
0-9扉体
6
CONTINUOUS
62
6
100
AcDbLine
10
1070.163000000000
20
1377.188000000000
30
0.0
11
1081.063000000000
21
1377.188000000000
31
0.0
0
LINE
5
4b3
100
AcDbEntity
8
0-9扉体
6
CONTINUOUS
62
6
100
AcDbLine
10
1092.663000000000
20
1377.188000000000
30
0.0
11
1094.663000000000
21
1377.188000000000
31
0.0
0
LINE
5
4b4
100
AcDbEntity
8
0-6戸当り
6
DOT
62
6
100
AcDbLine
10
1094.663000000000
20
1394.188000000000
30
0.0
11
1132.663000000000
21
1394.188000000000
31
0.0
0
LINE
5
4b5
100
AcDbEntity
8
0-9扉体
6
CONTINUOUS
62
6
100
AcDbLine
10
1092.663000000000
20
1393.187000000000
30
0.0
11
1094.663000000000
21
1393.187000000000
31
0.0
0
LINE
5
4b6
100
AcDbEntity
8
0-9扉体
6
CONTINUOUS
62
6
100
AcDbLine
10
1146.263000000000
20
1401.187000000000
30
0.0
11
1146.263000000000
21
1369.188000000000
31
0.0
0
LINE
5
4b7
100
AcDbEntity
8
0-9扉体
6
CONTINUOUS
62
6
100
AcDbLine
10
1146.263000000000
20
1401.187000000000
30
0.0
11
1143.663000000000
21
1401.187000000000
31
0.0
0
LINE
5
4b8
100
AcDbEntity
8
0-9扉体
6
CONTINUOUS
62
6
100
AcDbLine
10
1146.263000000000
20
1369.188000000000
30
0.0
11
1143.663000000000
21
1369.188000000000
31
0.0
0
LINE
5
4b9
100
AcDbEntity
8
0-9扉体
6
CONTINUOUS
62
6
100
AcDbLine
10
1157.163000000000
20
1393.187000000000
30
0.0
11
1157.163000000000
21
1377.188000000000
31
0.0
0
LINE
5
4ba
100
AcDbEntity
8
0-9扉体
6
CONTINUOUS
62
6
100
AcDbLine
10
1157.163000000000
20
1393.187000000000
30
0.0
11
1146.263000000000
21
1393.187000000000
31
0.0
0
LINE
5
4bb
100
AcDbEntity
8
0-9扉体
6
CONTINUOUS
62
6
100
AcDbLine
10
1157.163000000000
20
1377.188000000000
30
0.0
11
1146.263000000000
21
1377.188000000000
31
0.0
0
LINE
5
4bc
100
AcDbEntity
8
0-9扉体
6
CONTINUOUS
62
6
100
AcDbLine
10
1134.663000000000
20
1377.188000000000
30
0.0
11
1132.663000000000
21
1377.188000000000
31
0.0
0
LINE
5
4bd
100
AcDbEntity
8
0-9扉体
6
CONTINUOUS
62
6
100
AcDbLine
10
1134.663000000000
20
1393.187000000000
30
0.0
11
1132.663000000000
21
1393.187000000000
31
0.0
0
POLYLINE
5
4be
100
AcDbEntity
8
0-9扉体
6
CONTINUOUS
62
  3
100
AcDb2dPolyline
66
1
10
0.0
20
0.0
30
0.0
70
0
0
VERTEX
5
4bf
100
AcDbEntity
8
0-9扉体
6
CONTINUOUS
62
  3
100
AcDbVertex
100
AcDb2dVertex
10
1143.663000000000
20
1409.187000000000
30
0.0
0
VERTEX
5
4c0
100
AcDbEntity
8
0-9扉体
6
CONTINUOUS
62
  3
100
AcDbVertex
100
AcDb2dVertex
10
1134.663000000000
20
1409.187000000000
30
0.0
0
VERTEX
5
4c1
100
AcDbEntity
8
0-9扉体
6
CONTINUOUS
62
  3
100
AcDbVertex
100
AcDb2dVertex
10
1134.663000000000
20
1344.187000000000
30
0.0
0
SEQEND
5
4c2
100
AcDbEntity
8
0-9扉体
0
LINE
5
4c3
100
AcDbEntity
8
0-9扉体
6
CONTINUOUS
62
3
100
AcDbLine
10
1143.663000000000
20
1409.187000000000
30
0.0
11
1143.663000000000
21
1344.187000000000
31
0.0
0
LINE
5
4c4
100
AcDbEntity
8
0-6戸当り
6
CONTINUOUS
62
7
100
AcDbLine
10
1053.163000000000
20
1420.672000000000
30
0.0
11
1043.663000000000
21
1426.157000000000
31
0.0
0
LINE
5
4c5
100
AcDbEntity
8
0-6戸当り
6
CONTINUOUS
62
7
100
AcDbLine
10
1053.163000000000
20
1420.672000000000
30
0.0
11
1053.163000000000
21
1409.703000000000
31
0.0
0
LINE
5
4c6
100
AcDbEntity
8
0-6戸当り
6
CONTINUOUS
62
7
100
AcDbLine
10
1043.663000000000
20
1404.218000000000
30
0.0
11
1053.163000000000
21
1409.703000000000
31
0.0
0
POLYLINE
5
4c7
100
AcDbEntity
8
0-6戸当り
6
CONTINUOUS
62
  7
100
AcDb2dPolyline
66
1
10
0.0
20
0.0
30
0.0
70
0
0
VERTEX
5
4c8
100
AcDbEntity
8
0-6戸当り
6
CONTINUOUS
62
  7
100
AcDbVertex
100
AcDb2dVertex
10
1043.663000000000
20
1404.218000000000
30
0.0
0
VERTEX
5
4c9
100
AcDbEntity
8
0-6戸当り
6
CONTINUOUS
62
  7
100
AcDbVertex
100
AcDb2dVertex
10
1034.163000000001
20
1409.703000000000
30
0.0
0
VERTEX
5
4ca
100
AcDbEntity
8
0-6戸当り
6
CONTINUOUS
62
  7
100
AcDbVertex
100
AcDb2dVertex
10
1034.163000000001
20
1420.672000000000
30
0.0
0
VERTEX
5
4cb
100
AcDbEntity
8
0-6戸当り
6
CONTINUOUS
62
  7
100
AcDbVertex
100
AcDb2dVertex
10
1043.663000000000
20
1426.157000000000
30
0.0
0
SEQEND
5
4cc
100
AcDbEntity
8
0-6戸当り
0
LINE
5
4cd
100
AcDbEntity
8
0-9扉体
6
CONTINUOUS
62
4
100
AcDbLine
10
988.663000000000
20
1340.187000000000
30
0.0
11
1043.663000000000
21
1340.187000000000
31
0.0
0
LINE
5
4ce
100
AcDbEntity
8
0-9扉体
6
CONTINUOUS
62
4
100
AcDbLine
10
1183.663000000000
20
1340.187000000000
30
0.0
11
1268.662000000000
21
1340.187000000000
31
0.0
0
LINE
5
4cf
100
AcDbEntity
8
0-9扉体
6
CONTINUOUS
62
4
100
AcDbLine
10
2423.595000000000
20
1409.187000000000
30
0.0
11
2394.094000000000
21
1344.187000000000
31
0.0
0
LINE
5
4d0
100
AcDbEntity
8
0-5基準線
6
CENTER2
62
7
100
AcDbLine
10
2422.375000000000
20
1385.188000000000
30
0.0
11
2460.334000000000
21
1385.188000000000
31
0.0
0
LINE
5
4d1
100
AcDbEntity
8
0-9扉体
6
CONTINUOUS
62
6
100
AcDbLine
10
2466.088000000000
20
735.237000000000
30
0.0
11
2475.045000000000
21
744.195000000000
31
0.0
0
LINE
5
4d2
100
AcDbEntity
8
0-9扉体
6
CONTINUOUS
62
6
100
AcDbLine
10
2464.635000000000
20
735.198000000000
30
0.0
11
2475.084000000000
21
745.648000000000
31
0.0
0
LINE
5
4d3
100
AcDbEntity
8
0-9扉体
6
CONTINUOUS
62
6
100
AcDbLine
10
2455.094000000000
20
752.528000000000
30
0.0
11
2463.094000000000
21
760.528000000000
31
0.0
0
LINE
5
4d4
100
AcDbEntity
8
0-9扉体
6
CONTINUOUS
62
6
100
AcDbLine
10
2455.094000000000
20
753.942000000000
30
0.0
11
2463.094000000000
21
761.942000000000
31
0.0
0
LINE
5
4d5
100
AcDbEntity
8
0-9扉体
6
CONTINUOUS
62
6
100
AcDbLine
10
2455.094000000000
20
766.670000000000
30
0.0
11
2463.094000000000
21
774.670000000000
31
0.0
0
LINE
5
4d6
100
AcDbEntity
8
0-9扉体
6
CONTINUOUS
62
6
100
AcDbLine
10
2455.094000000000
20
768.085000000000
30
0.0
11
2463.094000000000
21
776.085000000000
31
0.0
0
LINE
5
4d7
100
AcDbEntity
8
0-9扉体
6
CONTINUOUS
62
6
100
AcDbLine
10
2455.094000000000
20
780.812000000000
30
0.0
11
2463.094000000000
21
788.812000000000
31
0.0
0
LINE
5
4d8
100
AcDbEntity
8
0-9扉体
6
CONTINUOUS
62
6
100
AcDbLine
10
2455.094000000000
20
782.227000000000
30
0.0
11
2463.094000000000
21
790.227000000000
31
0.0
0
LINE
5
4d9
100
AcDbEntity
8
0-9扉体
6
CONTINUOUS
62
6
100
AcDbLine
10
2455.094000000000
20
794.955000000000
30
0.0
11
2455.327000000000
21
795.187000000000
31
0.0
0
LINE
5
4da
100
AcDbEntity
8
0-9扉体
6
CONTINUOUS
62
6
100
AcDbLine
10
2456.607000000000
20
739.899000000000
30
0.0
11
2461.163000000001
21
744.454000000000
31
0.0
0
LINE
5
4db
100
AcDbEntity
8
0-9扉体
6
CONTINUOUS
62
6
100
AcDbLine
10
2465.828000000000
20
749.120000000000
30
0.0
11
2470.383000000000
21
753.675000000000
31
0.0
0
LINE
5
4dc
100
AcDbEntity
8
0-9扉体
6
CONTINUOUS
62
6
100
AcDbLine
10
2456.104000000000
20
740.810000000000
30
0.0
11
2461.151000000000
21
745.857000000000
31
0.0
0
LINE
5
4dd
100
AcDbEntity
8
0-9扉体
6
CONTINUOUS
62
6
100
AcDbLine
10
2464.425000000000
20
749.131000000000
30
0.0
11
2469.473000000000
21
754.178000000000
31
0.0
0
LINE
5
4de
100
AcDbEntity
8
0-9扉体
6
CONTINUOUS
62
6
100
AcDbLine
10
2460.770000000000
20
1275.188000000000
30
0.0
11
2463.094000000000
21
1277.513000000000
31
0.0
0
LINE
5
4df
100
AcDbEntity
8
0-9扉体
6
CONTINUOUS
62
6
100
AcDbLine
10
2459.355000000000
20
1275.188000000000
30
0.0
11
2463.094000000000
21
1278.927000000000
31
0.0
0
LINE
5
4e0
100
AcDbEntity
8
0-9扉体
6
CONTINUOUS
62
6
100
AcDbLine
10
2455.094000000000
20
1283.655000000000
30
0.0
11
2463.094000000000
21
1291.655000000000
31
0.0
0
LINE
5
4e1
100
AcDbEntity
8
0-9扉体
6
CONTINUOUS
62
6
100
AcDbLine
10
2455.094000000000
20
1285.069000000000
30
0.0
11
2463.094000000000
21
1293.069000000000
31
0.0
0
LINE
5
4e2
100
AcDbEntity
8
0-9扉体
6
CONTINUOUS
62
6
100
AcDbLine
10
2455.094000000000
20
1297.797000000000
30
0.0
11
2463.094000000000
21
1305.797000000000
31
0.0
0
LINE
5
4e3
100
AcDbEntity
8
0-9扉体
6
CONTINUOUS
62
6
100
AcDbLine
10
2455.094000000000
20
1299.211000000000
30
0.0
11
2463.094000000000
21
1307.211000000000
31
0.0
0
LINE
5
4e4
100
AcDbEntity
8
0-9扉体
6
CONTINUOUS
62
6
100
AcDbLine
10
2455.139000000000
20
1326.126000000000
30
0.0
11
2464.156000000000
21
1335.143000000000
31
0.0
0
LINE
5
4e5
100
AcDbEntity
8
0-9扉体
6
CONTINUOUS
62
6
100
AcDbLine
10
2455.458000000000
20
1327.860000000000
30
0.0
11
2462.423000000000
21
1334.824000000000
31
0.0
0
LINE
5
4e6
100
AcDbEntity
8
0-9扉体
6
CONTINUOUS
62
6
100
AcDbLine
10
2468.687000000000
20
1326.946000000000
30
0.0
11
2473.023000000000
21
1331.282000000000
31
0.0
0
LINE
5
4e7
100
AcDbEntity
8
0-9扉体
6
CONTINUOUS
62
6
100
AcDbLine
10
2455.094000000000
20
1311.939000000000
30
0.0
11
2464.403000000000
21
1321.248000000000
31
0.0
0
LINE
5
4e8
100
AcDbEntity
8
0-9扉体
6
CONTINUOUS
62
6
100
AcDbLine
10
2469.034000000000
20
1325.879000000000
30
0.0
11
2473.601000000000
21
1330.446000000000
31
0.0
0
LINE
5
4e9
100
AcDbEntity
8
0-A文字
6
CONTINUOUS
62
7
100
AcDbLine
10
2052.113000000000
20
1055.188000000000
30
0.0
11
2252.812000000000
21
1055.188000000000
31
0.0
0
LINE
5
4ea
100
AcDbEntity
8
0-A文字
6
CONTINUOUS
62
7
100
AcDbLine
10
2052.113000000000
20
1015.188000000000
30
0.0
11
2252.812000000000
21
1015.188000000000
31
0.0
0
LINE
5
4eb
100
AcDbEntity
8
0-A文字
6
CONTINUOUS
62
7
100
AcDbLine
10
2052.113000000000
20
1055.188000000000
30
0.0
11
2052.113000000000
21
1015.188000000000
31
0.0
0
LINE
5
4ec
100
AcDbEntity
8
0-A文字
6
CONTINUOUS
62
7
100
AcDbLine
10
2252.812000000000
20
1055.188000000000
30
0.0
11
2252.812000000000
21
1075.188000000000
31
0.0
0
LINE
5
4ed
100
AcDbEntity
8
0-A文字
6
CONTINUOUS
62
7
100
AcDbLine
10
2252.812000000000
20
1015.188000000000
30
0.0
11
2252.812000000000
21
995.187000000000
31
0.0
0
LINE
5
4ee
100
AcDbEntity
8
0-A文字
6
CONTINUOUS
62
7
100
AcDbLine
10
2252.812000000000
20
1075.188000000000
30
0.0
11
2322.094000000000
21
1035.188000000000
31
0.0
0
LINE
5
4ef
100
AcDbEntity
8
0-A文字
6
CONTINUOUS
62
7
100
AcDbLine
10
2252.812000000000
20
995.187000000000
30
0.0
11
2322.094000000000
21
1035.188000000000
31
0.0
0
LINE
5
4f0
100
AcDbEntity
8
0-8寸法
6
CONTINUOUS
62
4
100
AcDbLine
10
2787.095000000000
20
785.188000000000
30
0.0
11
2787.095000000000
21
1285.187000000000
31
0.0
0
LINE
5
4f1
100
AcDbEntity
8
0-8寸法
6
CONTINUOUS
62
4
100
AcDbLine
10
2787.095000000000
20
785.188000000000
30
0.0
11
2781.918000000001
21
804.506000000000
31
0.0
0
LINE
5
4f2
100
AcDbEntity
8
0-8寸法
6
CONTINUOUS
62
4
100
AcDbLine
10
2787.095000000000
20
785.188000000000
30
0.0
11
2792.271000000000
21
804.506000000000
31
0.0
0
LINE
5
4f3
100
AcDbEntity
8
0-8寸法
6
CONTINUOUS
62
4
100
AcDbLine
10
2787.095000000000
20
1285.187000000000
30
0.0
11
2781.918000000001
21
1265.869000000000
31
0.0
0
LINE
5
4f4
100
AcDbEntity
8
0-8寸法
6
CONTINUOUS
62
4
100
AcDbLine
10
2787.095000000000
20
1285.187000000000
30
0.0
11
2792.271000000000
21
1265.869000000000
31
0.0
0
LINE
5
4f5
100
AcDbEntity
8
0-8寸法
6
CONTINUOUS
62
4
100
AcDbLine
10
993.663000000000
20
535.188000000000
30
0.0
11
1593.663000000000
21
535.188000000000
31
0.0
0
LINE
5
4f6
100
AcDbEntity
8
0-8寸法
6
CONTINUOUS
62
4
100
AcDbLine
10
993.663000000000
20
535.188000000000
30
0.0
11
1012.981000000000
21
540.364000000000
31
0.0
0
LINE
5
4f7
100
AcDbEntity
8
0-8寸法
6
CONTINUOUS
62
4
100
AcDbLine
10
993.663000000000
20
535.188000000000
30
0.0
11
1012.981000000000
21
530.011000000000
31
0.0
0
LINE
5
4f8
100
AcDbEntity
8
0-8寸法
6
CONTINUOUS
62
4
100
AcDbLine
10
1593.663000000000
20
535.188000000000
30
0.0
11
1574.344000000000
21
540.364000000000
31
0.0
0
LINE
5
4f9
100
AcDbEntity
8
0-8寸法
6
CONTINUOUS
62
4
100
AcDbLine
10
1593.663000000000
20
535.188000000000
30
0.0
11
1574.344000000000
21
530.011000000000
31
0.0
0
LINE
5
4fa
100
AcDbEntity
8
0-8寸法
6
CONTINUOUS
62
4
100
AcDbLine
10
793.663000000000
20
735.188000000000
30
0.0
11
793.663000000000
21
1335.187000000000
31
0.0
0
LINE
5
4fb
100
AcDbEntity
8
0-8寸法
6
CONTINUOUS
62
4
100
AcDbLine
10
981.338000000000
20
735.188000000000
30
0.0
11
783.663000000000
21
735.188000000000
31
0.0
0
LINE
5
4fc
100
AcDbEntity
8
0-8寸法
6
CONTINUOUS
62
4
100
AcDbLine
10
981.338000000000
20
1335.187000000000
30
0.0
11
783.663000000000
21
1335.187000000000
31
0.0
0
LINE
5
4fd
100
AcDbEntity
8
0-8寸法
6
CONTINUOUS
62
4
100
AcDbLine
10
793.663000000000
20
735.188000000000
30
0.0
11
788.486000000000
21
754.506000000000
31
0.0
0
LINE
5
4fe
100
AcDbEntity
8
0-8寸法
6
CONTINUOUS
62
4
100
AcDbLine
10
793.663000000000
20
735.188000000000
30
0.0
11
798.839000000000
21
754.506000000000
31
0.0
0
LINE
5
4ff
100
AcDbEntity
8
0-8寸法
6
CONTINUOUS
62
4
100
AcDbLine
10
793.663000000000
20
1335.187000000000
30
0.0
11
788.486000000000
21
1315.869000000000
31
0.0
0
LINE
5
500
100
AcDbEntity
8
0-8寸法
6
CONTINUOUS
62
4
100
AcDbLine
10
793.663000000000
20
1335.187000000000
30
0.0
11
798.839000000000
21
1315.869000000000
31
0.0
0
LINE
5
501
100
AcDbEntity
8
0-8寸法
6
CONTINUOUS
62
4
100
AcDbLine
10
993.663000000000
20
728.332000000000
30
0.0
11
993.663000000000
21
525.188000000000
31
0.0
0
LINE
5
502
100
AcDbEntity
8
0-8寸法
6
CONTINUOUS
62
4
100
AcDbLine
10
1593.663000000000
20
728.332000000000
30
0.0
11
1593.663000000000
21
525.188000000000
31
0.0
0
LINE
5
503
100
AcDbEntity
8
0-8寸法
6
CONTINUOUS
62
4
100
AcDbLine
10
1113.663000000000
20
1660.187000000000
30
0.0
11
1473.663000000000
21
1660.187000000000
31
0.0
0
LINE
5
504
100
AcDbEntity
8
0-8寸法
6
CONTINUOUS
62
4
100
AcDbLine
10
1113.663000000000
20
1660.187000000000
30
0.0
11
1132.981000000000
21
1665.364000000000
31
0.0
0
LINE
5
505
100
AcDbEntity
8
0-8寸法
6
CONTINUOUS
62
4
100
AcDbLine
10
1113.663000000000
20
1660.187000000000
30
0.0
11
1132.981000000000
21
1655.011000000000
31
0.0
0
LINE
5
506
100
AcDbEntity
8
0-8寸法
6
CONTINUOUS
62
4
100
AcDbLine
10
1473.663000000000
20
1660.187000000000
30
0.0
11
1454.344000000000
21
1665.364000000000
31
0.0
0
LINE
5
507
100
AcDbEntity
8
0-8寸法
6
CONTINUOUS
62
4
100
AcDbLine
10
1473.663000000000
20
1660.187000000000
30
0.0
11
1454.344000000000
21
1655.011000000000
31
0.0
0
LINE
5
508
100
AcDbEntity
8
0-8寸法
6
CONTINUOUS
62
4
100
AcDbLine
10
361.380000000000
20
1660.188000000000
30
0.0
11
993.663000000000
21
1660.188000000000
31
0.0
0
LINE
5
509
100
AcDbEntity
8
0-8寸法
6
CONTINUOUS
62
4
100
AcDbLine
10
361.380000000000
20
1760.188000000000
30
0.0
11
993.663000000000
21
1760.188000000000
31
0.0
0
POLYLINE
5
50a
100
AcDbEntity
8
0-9扉体
6
CONTINUOUS
62
  4
100
AcDb2dPolyline
66
1
10
0.0
20
0.0
30
0.0
70
0
0
VERTEX
5
50b
100
AcDbEntity
8
0-9扉体
6
CONTINUOUS
62
  4
100
AcDbVertex
100
AcDb2dVertex
10
993.663000000000
20
2206.647000000000
30
0.0
0
VERTEX
5
50c
100
AcDbEntity
8
0-9扉体
6
CONTINUOUS
62
  4
100
AcDbVertex
100
AcDb2dVertex
10
1593.663000000000
20
2206.647000000000
30
0.0
0
VERTEX
5
50d
100
AcDbEntity
8
0-9扉体
6
CONTINUOUS
62
  4
100
AcDbVertex
100
AcDb2dVertex
10
1593.663000000000
20
2266.647000000000
30
0.0
0
SEQEND
5
50e
100
AcDbEntity
8
0-9扉体
0
LINE
5
50f
100
AcDbEntity
8
0-9扉体
6
CONTINUOUS
62
3
100
AcDbLine
10
1533.663000000000
20
2272.647000000000
30
0.0
11
1533.663000000000
21
2280.647000000000
31
0.0
0
LINE
5
510
100
AcDbEntity
8
0-9扉体
6
CONTINUOUS
62
3
100
AcDbLine
10
1573.663000000000
20
2282.647000000000
30
0.0
11
1573.663000000000
21
2280.647000000000
31
0.0
0
LINE
5
511
100
AcDbEntity
8
0-9扉体
6
CONTINUOUS
62
3
100
AcDbLine
10
1572.663000000000
20
2280.647000000000
30
0.0
11
1572.663000000000
21
2286.647000000000
31
0.0
0
LINE
5
512
100
AcDbEntity
8
0-9扉体
6
CONTINUOUS
62
3
100
AcDbLine
10
1534.663000000000
20
2280.647000000000
30
0.0
11
1534.663000000000
21
2286.647000000000
31
0.0
0
LINE
5
513
100
AcDbEntity
8
0-9扉体
6
DOT
62
3
100
AcDbLine
10
1549.663000000000
20
2282.647000000000
30
0.0
11
1545.663000000000
21
2286.647000000000
31
0.0
0
LINE
5
514
100
AcDbEntity
8
0-9扉体
6
DOT
62
3
100
AcDbLine
10
1557.663000000000
20
2282.647000000000
30
0.0
11
1561.663000000000
21
2286.647000000000
31
0.0
0
LINE
5
515
100
AcDbEntity
8
0-9扉体
6
DOT
62
3
100
AcDbLine
10
1549.663000000000
20
2282.647000000000
30
0.0
11
1557.663000000000
21
2282.647000000000
31
0.0
0
LINE
5
516
100
AcDbEntity
8
0-9扉体
6
DOT
62
3
100
AcDbLine
10
1557.663000000000
20
2266.647000000000
30
0.0
11
1557.663000000000
21
2282.647000000000
31
0.0
0
LINE
5
517
100
AcDbEntity
8
0-9扉体
6
DOT
62
3
100
AcDbLine
10
1549.663000000000
20
2266.647000000000
30
0.0
11
1549.663000000000
21
2282.647000000000
31
0.0
0
LINE
5
518
100
AcDbEntity
8
0-9扉体
6
CONTINUOUS
62
3
100
AcDbLine
10
1544.662000000000
20
2265.047000000000
30
0.0
11
1544.662000000000
21
2266.647000000000
31
0.0
0
LINE
5
519
100
AcDbEntity
8
0-9扉体
6
CONTINUOUS
62
3
100
AcDbLine
10
1562.663000000000
20
2265.047000000000
30
0.0
11
1562.663000000000
21
2266.647000000000
31
0.0
0
LINE
5
51a
100
AcDbEntity
8
0-9扉体
6
CONTINUOUS
62
3
100
AcDbLine
10
1549.663000000000
20
2251.647000000000
30
0.0
11
1557.663000000000
21
2251.647000000000
31
0.0
0
LINE
5
51b
100
AcDbEntity
8
0-9扉体
6
CONTINUOUS
62
3
100
AcDbLine
10
1562.663000000000
20
2265.047000000000
30
0.0
11
1544.662000000000
21
2265.047000000000
31
0.0
0
LINE
5
51c
100
AcDbEntity
8
0-5基準線
6
CENTER2
62
7
100
AcDbLine
10
1553.663000000000
20
2249.244000000000
30
0.0
11
1553.663000000000
21
2288.172000000000
31
0.0
0
LINE
5
51d
100
AcDbEntity
8
0-9扉体
6
CONTINUOUS
62
7
100
AcDbLine
10
1547.163000000000
20
2258.547000000000
30
0.0
11
1546.157000000000
21
2259.128000000000
31
0.0
0
LINE
5
51e
100
AcDbEntity
8
0-9扉体
6
CONTINUOUS
62
7
100
AcDbLine
10
1560.163000000000
20
2258.547000000000
30
0.0
11
1561.168000000000
21
2259.128000000000
31
0.0
0
LINE
5
51f
100
AcDbEntity
8
0-9扉体
6
CONTINUOUS
62
7
100
AcDbLine
10
1547.163000000000
20
2258.547000000000
30
0.0
11
1560.163000000000
21
2258.547000000000
31
0.0
0
LINE
5
520
100
AcDbEntity
8
0-9扉体
6
CONTINUOUS
62
3
100
AcDbLine
10
1557.663000000000
20
2258.547000000000
30
0.0
11
1557.663000000000
21
2251.647000000000
31
0.0
0
LINE
5
521
100
AcDbEntity
8
0-9扉体
6
CONTINUOUS
62
3
100
AcDbLine
10
1549.663000000000
20
2258.547000000000
30
0.0
11
1549.663000000000
21
2251.647000000000
31
0.0
0
LINE
5
522
100
AcDbEntity
8
0-9扉体
6
CONTINUOUS
62
7
100
AcDbLine
10
1561.168000000000
20
2265.047000000000
30
0.0
11
1561.168000000000
21
2259.128000000000
31
0.0
0
LINE
5
523
100
AcDbEntity
8
0-9扉体
6
CONTINUOUS
62
7
100
AcDbLine
10
1557.415000000000
20
2265.047000000000
30
0.0
11
1557.415000000000
21
2259.128000000000
31
0.0
0
LINE
5
524
100
AcDbEntity
8
0-9扉体
6
CONTINUOUS
62
7
100
AcDbLine
10
1549.910000000000
20
2265.047000000000
30
0.0
11
1549.910000000000
21
2259.128000000000
31
0.0
0
LINE
5
525
100
AcDbEntity
8
0-9扉体
6
CONTINUOUS
62
7
100
AcDbLine
10
1546.157000000000
20
2265.047000000000
30
0.0
11
1546.157000000000
21
2259.128000000000
31
0.0
0
LINE
5
526
100
AcDbEntity
8
0-9扉体
6
CONTINUOUS
62
2
100
AcDbLine
10
1556.663000000000
20
2258.547000000000
30
0.0
11
1556.663000000000
21
2251.647000000000
31
0.0
0
LINE
5
527
100
AcDbEntity
8
0-9扉体
6
CONTINUOUS
62
2
100
AcDbLine
10
1550.663000000000
20
2258.547000000000
30
0.0
11
1550.663000000000
21
2251.647000000000
31
0.0
0
LINE
5
528
100
AcDbEntity
8
0-9扉体
6
CONTINUOUS
62
6
100
AcDbLine
10
1593.613000000000
20
2283.640000000000
30
0.0
11
1584.656000000000
21
2292.598000000000
31
0.0
0
LINE
5
529
100
AcDbEntity
8
0-9扉体
6
CONTINUOUS
62
6
100
AcDbLine
10
1593.652000000000
20
2282.187000000000
30
0.0
11
1583.203000000000
21
2292.637000000000
31
0.0
0
LINE
5
52a
100
AcDbEntity
8
0-9扉体
6
CONTINUOUS
62
6
100
AcDbLine
10
1576.322000000000
20
2272.647000000000
30
0.0
11
1568.322000000000
21
2280.647000000000
31
0.0
0
LINE
5
52b
100
AcDbEntity
8
0-9扉体
6
CONTINUOUS
62
6
100
AcDbLine
10
1574.908000000000
20
2272.647000000000
30
0.0
11
1566.908000000000
21
2280.647000000000
31
0.0
0
LINE
5
52c
100
AcDbEntity
8
0-9扉体
6
CONTINUOUS
62
6
100
AcDbLine
10
1562.180000000000
20
2272.647000000000
30
0.0
11
1554.180000000000
21
2280.647000000000
31
0.0
0
LINE
5
52d
100
AcDbEntity
8
0-9扉体
6
CONTINUOUS
62
6
100
AcDbLine
10
1560.766000000000
20
2272.647000000000
30
0.0
11
1552.766000000000
21
2280.647000000000
31
0.0
0
LINE
5
52e
100
AcDbEntity
8
0-9扉体
6
CONTINUOUS
62
6
100
AcDbLine
10
1548.038000000000
20
2272.647000000000
30
0.0
11
1540.038000000000
21
2280.647000000000
31
0.0
0
LINE
5
52f
100
AcDbEntity
8
0-9扉体
6
CONTINUOUS
62
6
100
AcDbLine
10
1546.623000000000
20
2272.647000000000
30
0.0
11
1538.623000000000
21
2280.647000000000
31
0.0
0
LINE
5
530
100
AcDbEntity
8
0-9扉体
6
CONTINUOUS
62
6
100
AcDbLine
10
1533.896000000000
20
2272.647000000000
30
0.0
11
1533.663000000000
21
2272.880000000000
31
0.0
0
LINE
5
531
100
AcDbEntity
8
0-9扉体
6
CONTINUOUS
62
6
100
AcDbLine
10
1588.951000000000
20
2274.160000000000
30
0.0
11
1584.396000000000
21
2278.715000000000
31
0.0
0
LINE
5
532
100
AcDbEntity
8
0-9扉体
6
CONTINUOUS
62
6
100
AcDbLine
10
1579.730000000000
20
2283.381000000000
30
0.0
11
1575.175000000000
21
2287.936000000000
31
0.0
0
LINE
5
533
100
AcDbEntity
8
0-9扉体
6
CONTINUOUS
62
6
100
AcDbLine
10
1588.041000000000
20
2273.657000000000
30
0.0
11
1582.993000000000
21
2278.704000000000
31
0.0
0
LINE
5
534
100
AcDbEntity
8
0-9扉体
6
CONTINUOUS
62
6
100
AcDbLine
10
1579.719000000000
20
2281.978000000000
30
0.0
11
1574.672000000000
21
2287.025000000000
31
0.0
0
LINE
5
535
100
AcDbEntity
8
0-9扉体
6
CONTINUOUS
62
4
100
AcDbLine
10
1598.663000000000
20
2266.647000000000
30
0.0
11
1598.663000000000
21
2272.647000000000
31
0.0
0
LINE
5
536
100
AcDbEntity
8
0-9扉体
6
CONTINUOUS
62
6
100
AcDbLine
10
1043.663000000000
20
2211.647000000000
30
0.0
11
1043.663000000000
21
2261.647000000000
31
0.0
0
LINE
5
537
100
AcDbEntity
8
0-9扉体
6
CONTINUOUS
62
6
100
AcDbLine
10
1043.663000000000
20
2211.647000000000
30
0.0
11
1183.662000000000
21
2211.647000000000
31
0.0
0
LINE
5
538
100
AcDbEntity
8
0-9扉体
6
CONTINUOUS
62
6
100
AcDbLine
10
1083.663000000000
20
2276.147000000000
30
0.0
11
1092.663000000000
21
2276.147000000000
31
0.0
0
LINE
5
539
100
AcDbEntity
8
0-9扉体
6
CONTINUOUS
62
6
100
AcDbLine
10
1083.663000000000
20
2241.147000000000
30
0.0
11
1092.663000000000
21
2241.147000000000
31
0.0
0
LINE
5
53a
100
AcDbEntity
8
0-9扉体
6
CONTINUOUS
62
4
100
AcDbLine
10
1050.663000000000
20
1346.487000000000
30
0.0
11
1076.663000000001
21
1346.487000000000
31
0.0
0
LINE
5
53b
100
AcDbEntity
8
0-9扉体
6
CONTINUOUS
62
4
100
AcDbLine
10
1050.663000000000
20
1346.487000000000
30
0.0
11
1050.663000000000
21
1344.187000000000
31
0.0
0
LINE
5
53c
100
AcDbEntity
8
0-9扉体
6
CONTINUOUS
62
4
100
AcDbLine
10
1076.663000000001
20
1346.487000000000
30
0.0
11
1076.663000000001
21
1344.187000000000
31
0.0
0
LINE
5
53d
100
AcDbEntity
8
0-9扉体
6
CONTINUOUS
62
4
100
AcDbLine
10
1057.663000000000
20
1369.187000000000
30
0.0
11
1069.663000000000
21
1369.187000000000
31
0.0
0
LINE
5
53e
100
AcDbEntity
8
0-9扉体
6
CONTINUOUS
62
4
100
AcDbLine
10
1057.663000000000
20
1369.187000000000
30
0.0
11
1057.663000000000
21
1359.487000000000
31
0.0
0
LINE
5
53f
100
AcDbEntity
8
0-9扉体
6
CONTINUOUS
62
4
100
AcDbLine
10
1069.663000000000
20
1369.187000000000
30
0.0
11
1069.663000000000
21
1359.487000000000
31
0.0
0
LINE
5
540
100
AcDbEntity
8
0-9扉体
6
CONTINUOUS
62
4
100
AcDbLine
10
1058.663000000000
20
1369.187000000000
30
0.0
11
1058.663000000000
21
1359.487000000000
31
0.0
0
LINE
5
541
100
AcDbEntity
8
0-9扉体
6
CONTINUOUS
62
4
100
AcDbLine
10
1068.663000000000
20
1369.187000000000
30
0.0
11
1068.663000000000
21
1359.487000000000
31
0.0
0
LINE
5
542
100
AcDbEntity
8
0-9扉体
6
CONTINUOUS
62
4
100
AcDbLine
10
1063.663000000000
20
1349.487000000000
30
0.0
11
1060.663000000000
21
1346.487000000000
31
0.0
0
LINE
5
543
100
AcDbEntity
8
0-9扉体
6
CONTINUOUS
62
4
100
AcDbLine
10
1063.663000000000
20
1346.487000000000
30
0.0
11
1066.663000000001
21
1349.487000000000
31
0.0
0
LINE
5
544
100
AcDbEntity
8
0-9扉体
6
CONTINUOUS
62
4
100
AcDbLine
10
1052.913000000001
20
1349.487000000000
30
0.0
11
1052.913000000001
21
1346.487000000000
31
0.0
0
LINE
5
545
100
AcDbEntity
8
0-9扉体
6
CONTINUOUS
62
4
100
AcDbLine
10
1074.413000000000
20
1349.487000000000
30
0.0
11
1074.413000000000
21
1346.487000000000
31
0.0
0
LINE
5
546
100
AcDbEntity
8
0-5基準線
6
CENTER2
62
7
100
AcDbLine
10
1063.663000000000
20
1372.142000000000
30
0.0
11
1063.663000000000
21
1358.639000000000
31
0.0
0
LINE
5
547
100
AcDbEntity
8
0-9扉体
6
CONTINUOUS
62
7
100
AcDbLine
10
1173.163000000000
20
1359.487000000000
30
0.0
11
1173.163000000000
21
1349.487000000000
31
0.0
0
LINE
5
548
100
AcDbEntity
8
0-9扉体
6
CONTINUOUS
62
7
100
AcDbLine
10
1154.163000000001
20
1359.487000000000
30
0.0
11
1154.163000000001
21
1349.487000000000
31
0.0
0
LINE
5
549
100
AcDbEntity
8
0-9扉体
6
CONTINUOUS
62
7
100
AcDbLine
10
1154.163000000001
20
1359.487000000000
30
0.0
11
1173.163000000000
21
1359.487000000000
31
0.0
0
LINE
5
54a
100
AcDbEntity
8
0-9扉体
6
CONTINUOUS
62
7
100
AcDbLine
10
1163.663000000000
20
1358.639000000000
30
0.0
11
1163.663000000000
21
1349.487000000000
31
0.0
0
LINE
5
54b
100
AcDbEntity
8
0-9扉体
6
CONTINUOUS
62
4
100
AcDbLine
10
1176.663000000001
20
1346.487000000000
30
0.0
11
1150.663000000000
21
1346.487000000000
31
0.0
0
LINE
5
54c
100
AcDbEntity
8
0-9扉体
6
CONTINUOUS
62
4
100
AcDbLine
10
1176.663000000001
20
1346.487000000000
30
0.0
11
1176.663000000001
21
1344.187000000000
31
0.0
0
LINE
5
54d
100
AcDbEntity
8
0-9扉体
6
CONTINUOUS
62
4
100
AcDbLine
10
1150.663000000000
20
1346.487000000000
30
0.0
11
1150.663000000000
21
1344.187000000000
31
0.0
0
LINE
5
54e
100
AcDbEntity
8
0-9扉体
6
CONTINUOUS
62
4
100
AcDbLine
10
1169.663000000000
20
1369.187000000000
30
0.0
11
1157.663000000000
21
1369.187000000000
31
0.0
0
LINE
5
54f
100
AcDbEntity
8
0-9扉体
6
CONTINUOUS
62
4
100
AcDbLine
10
1169.663000000000
20
1369.187000000000
30
0.0
11
1169.663000000000
21
1359.487000000000
31
0.0
0
LINE
5
550
100
AcDbEntity
8
0-9扉体
6
CONTINUOUS
62
4
100
AcDbLine
10
1157.663000000000
20
1369.187000000000
30
0.0
11
1157.663000000000
21
1359.487000000000
31
0.0
0
LINE
5
551
100
AcDbEntity
8
0-9扉体
6
CONTINUOUS
62
4
100
AcDbLine
10
1168.663000000000
20
1369.187000000000
30
0.0
11
1168.663000000000
21
1359.487000000000
31
0.0
0
LINE
5
552
100
AcDbEntity
8
0-9扉体
6
CONTINUOUS
62
4
100
AcDbLine
10
1158.663000000000
20
1369.187000000000
30
0.0
11
1158.663000000000
21
1359.487000000000
31
0.0
0
LINE
5
553
100
AcDbEntity
8
0-9扉体
6
CONTINUOUS
62
4
100
AcDbLine
10
1163.663000000000
20
1349.487000000000
30
0.0
11
1166.663000000001
21
1346.487000000000
31
0.0
0
LINE
5
554
100
AcDbEntity
8
0-9扉体
6
CONTINUOUS
62
4
100
AcDbLine
10
1163.663000000000
20
1346.487000000000
30
0.0
11
1160.663000000000
21
1349.487000000000
31
0.0
0
LINE
5
555
100
AcDbEntity
8
0-9扉体
6
CONTINUOUS
62
4
100
AcDbLine
10
1174.413000000000
20
1349.487000000000
30
0.0
11
1174.413000000000
21
1346.487000000000
31
0.0
0
POLYLINE
5
556
100
AcDbEntity
8
0-9扉体
6
CONTINUOUS
62
  4
100
AcDb2dPolyline
66
1
10
0.0
20
0.0
30
0.0
70
0
0
VERTEX
5
557
100
AcDbEntity
8
0-9扉体
6
CONTINUOUS
62
  4
100
AcDbVertex
100
AcDb2dVertex
10
1174.413000000000
20
1349.487000000000
30
0.0
0
VERTEX
5
558
100
AcDbEntity
8
0-9扉体
6
CONTINUOUS
62
  4
100
AcDbVertex
100
AcDb2dVertex
10
1152.913000000001
20
1349.487000000000
30
0.0
0
VERTEX
5
559
100
AcDbEntity
8
0-9扉体
6
CONTINUOUS
62
  4
100
AcDbVertex
100
AcDb2dVertex
10
1152.913000000001
20
1346.487000000000
30
0.0
0
SEQEND
5
55a
100
AcDbEntity
8
0-9扉体
0
LINE
5
55b
100
AcDbEntity
8
0-5基準線
6
CENTER2
62
7
100
AcDbLine
10
1163.663000000000
20
1349.487000000000
30
0.0
11
1163.663000000000
21
1333.723000000000
31
0.0
0
LINE
5
55c
100
AcDbEntity
8
0-5基準線
6
CENTER2
62
7
100
AcDbLine
10
1163.663000000000
20
1372.142000000000
30
0.0
11
1163.663000000000
21
1358.639000000000
31
0.0
0
LINE
5
55d
100
AcDbEntity
8
0-9扉体
6
CONTINUOUS
62
7
100
AcDbLine
10
1073.163000000000
20
2242.132000000000
30
0.0
11
1063.663000000000
21
2247.617000000000
31
0.0
0
LINE
5
55e
100
AcDbEntity
8
0-9扉体
6
CONTINUOUS
62
7
100
AcDbLine
10
1073.163000000000
20
2242.132000000000
30
0.0
11
1073.163000000000
21
2231.162000000000
31
0.0
0
LINE
5
55f
100
AcDbEntity
8
0-9扉体
6
CONTINUOUS
62
7
100
AcDbLine
10
1063.663000000000
20
2225.678000000000
30
0.0
11
1073.163000000000
21
2231.162000000000
31
0.0
0
POLYLINE
5
560
100
AcDbEntity
8
0-9扉体
6
CONTINUOUS
62
  7
100
AcDb2dPolyline
66
1
10
0.0
20
0.0
30
0.0
70
0
0
VERTEX
5
561
100
AcDbEntity
8
0-9扉体
6
CONTINUOUS
62
  7
100
AcDbVertex
100
AcDb2dVertex
10
1063.663000000000
20
2225.678000000000
30
0.0
0
VERTEX
5
562
100
AcDbEntity
8
0-9扉体
6
CONTINUOUS
62
  7
100
AcDbVertex
100
AcDb2dVertex
10
1054.163000000001
20
2231.162000000000
30
0.0
0
VERTEX
5
563
100
AcDbEntity
8
0-9扉体
6
CONTINUOUS
62
  7
100
AcDbVertex
100
AcDb2dVertex
10
1054.163000000001
20
2242.132000000000
30
0.0
0
VERTEX
5
564
100
AcDbEntity
8
0-9扉体
6
CONTINUOUS
62
  7
100
AcDbVertex
100
AcDb2dVertex
10
1063.663000000000
20
2247.617000000000
30
0.0
0
SEQEND
5
565
100
AcDbEntity
8
0-9扉体
0
LINE
5
566
100
AcDbEntity
8
0-5基準線
6
CENTER2
62
7
100
AcDbLine
10
1063.663000000000
20
2250.647000000000
30
0.0
11
1063.663000000000
21
2222.647000000000
31
0.0
0
LINE
5
567
100
AcDbEntity
8
0-5基準線
6
CENTER2
62
7
100
AcDbLine
10
1077.663000000000
20
2236.647000000000
30
0.0
11
1049.663000000000
21
2236.647000000000
31
0.0
0
LINE
5
568
100
AcDbEntity
8
0-9扉体
6
CONTINUOUS
62
6
100
AcDbLine
10
1081.063000000000
20
1401.187000000000
30
0.0
11
1083.663000000000
21
1401.187000000000
31
0.0
0
LINE
5
569
100
AcDbEntity
8
0-9扉体
6
CONTINUOUS
62
6
100
AcDbLine
10
1081.063000000000
20
1369.188000000000
30
0.0
11
1083.663000000000
21
1369.188000000000
31
0.0
0
LINE
5
56a
100
AcDbEntity
8
0-9扉体
6
CONTINUOUS
62
6
100
AcDbLine
10
1081.063000000000
20
2274.647000000000
30
0.0
11
1081.063000000000
21
2242.647000000000
31
0.0
0
LINE
5
56b
100
AcDbEntity
8
0-9扉体
6
CONTINUOUS
62
6
100
AcDbLine
10
1070.163000000000
20
2250.647000000000
30
0.0
11
1081.063000000000
21
2250.647000000000
31
0.0
0
LINE
5
56c
100
AcDbEntity
8
0-9扉体
6
CONTINUOUS
62
6
100
AcDbLine
10
1092.663000000000
20
2250.647000000000
30
0.0
11
1094.663000000000
21
2250.647000000000
31
0.0
0
LINE
5
56d
100
AcDbEntity
8
0-9扉体
6
CONTINUOUS
62
6
100
AcDbLine
10
1092.663000000000
20
2266.647000000000
30
0.0
11
1094.663000000000
21
2266.647000000000
31
0.0
0
LINE
5
56e
100
AcDbEntity
8
0-5基準線
6
CENTER2
62
7
100
AcDbLine
10
1066.663000000001
20
2258.647000000000
30
0.0
11
1160.663000000000
21
2258.647000000000
31
0.0
0
LINE
5
56f
100
AcDbEntity
8
0-9扉体
6
CONTINUOUS
62
6
100
AcDbLine
10
1146.262000000000
20
2274.647000000000
30
0.0
11
1146.262000000000
21
2242.647000000000
31
0.0
0
LINE
5
570
100
AcDbEntity
8
0-9扉体
6
CONTINUOUS
62
6
100
AcDbLine
10
1146.262000000000
20
2274.647000000000
30
0.0
11
1143.662000000000
21
2274.647000000000
31
0.0
0
LINE
5
571
100
AcDbEntity
8
0-9扉体
6
CONTINUOUS
62
6
100
AcDbLine
10
1146.262000000000
20
2242.647000000000
30
0.0
11
1143.662000000000
21
2242.647000000000
31
0.0
0
LINE
5
572
100
AcDbEntity
8
0-9扉体
6
CONTINUOUS
62
6
100
AcDbLine
10
1157.163000000000
20
2250.647000000000
30
0.0
11
1146.262000000000
21
2250.647000000000
31
0.0
0
LINE
5
573
100
AcDbEntity
8
0-9扉体
6
CONTINUOUS
62
6
100
AcDbLine
10
1134.663000000000
20
2250.647000000000
30
0.0
11
1132.663000000000
21
2250.647000000000
31
0.0
0
LINE
5
574
100
AcDbEntity
8
0-9扉体
6
CONTINUOUS
62
6
100
AcDbLine
10
1134.663000000000
20
2266.647000000000
30
0.0
11
1132.663000000000
21
2266.647000000000
31
0.0
0
LINE
5
575
100
AcDbEntity
8
0-9扉体
6
CONTINUOUS
62
6
100
AcDbLine
10
1081.063000000000
20
2274.647000000000
30
0.0
11
1083.663000000000
21
2274.647000000000
31
0.0
0
LINE
5
576
100
AcDbEntity
8
0-9扉体
6
CONTINUOUS
62
6
100
AcDbLine
10
1081.063000000000
20
2242.647000000000
30
0.0
11
1083.663000000000
21
2242.647000000000
31
0.0
0
LINE
5
577
100
AcDbEntity
8
0-6戸当り
6
DOT
62
2
100
AcDbLine
10
1094.663000000000
20
2235.647000000000
30
0.0
11
1132.663000000000
21
2235.647000000000
31
0.0
0
LINE
5
578
100
AcDbEntity
8
0-6戸当り
6
CONTINUOUS
62
2
100
AcDbLine
10
1094.663000000000
20
2227.647000000000
30
0.0
11
1132.663000000000
21
2227.647000000000
31
0.0
0
LINE
5
579
100
AcDbEntity
8
0-9扉体
6
CONTINUOUS
62
6
100
AcDbLine
10
1143.662000000000
20
2276.147000000000
30
0.0
11
1134.663000000000
21
2276.147000000000
31
0.0
0
LINE
5
57a
100
AcDbEntity
8
0-9扉体
6
CONTINUOUS
62
6
100
AcDbLine
10
1143.662000000000
20
2241.147000000000
30
0.0
11
1134.663000000000
21
2241.147000000000
31
0.0
0
LINE
5
57b
100
AcDbEntity
8
0-9扉体
6
CONTINUOUS
62
6
100
AcDbLine
10
1043.663000000000
20
2261.647000000000
30
0.0
11
1070.163000000000
21
2261.647000000000
31
0.0
0
LINE
5
57c
100
AcDbEntity
8
0-9扉体
6
CONTINUOUS
62
4
100
AcDbLine
10
993.663000000000
20
2206.647000000000
30
0.0
11
993.663000000000
21
2266.647000000000
31
0.0
0
LINE
5
57d
100
AcDbEntity
8
0-5基準線
6
CENTER2
62
7
100
AcDbLine
10
1113.663000000000
20
2199.192000000000
30
0.0
11
1113.663000000000
21
2372.268000000000
31
0.0
0
LINE
5
57e
100
AcDbEntity
8
0-8寸法
6
CONTINUOUS
62
4
100
AcDbLine
10
2041.886000000000
20
1435.187000000000
30
0.0
11
2240.114000000000
21
1435.187000000000
31
0.0
0
LINE
5
57f
100
AcDbEntity
8
0-8寸法
6
CONTINUOUS
62
4
100
AcDbLine
10
2056.195000000000
20
1425.187000000000
30
0.0
11
2226.137000000000
21
1425.187000000000
31
0.0
0
LINE
5
580
100
AcDbEntity
8
0-8寸法
6
CONTINUOUS
62
4
100
AcDbLine
10
2074.587000000000
20
1415.187000000000
30
0.0
11
2205.537000000000
21
1415.187000000000
31
0.0
0
LINE
5
581
100
AcDbEntity
8
0-8寸法
6
CONTINUOUS
62
4
100
AcDbLine
10
2094.450000000000
20
1405.187000000000
30
0.0
11
2187.146000000000
21
1405.187000000000
31
0.0
0
LINE
5
582
100
AcDbEntity
8
0-8寸法
6
CONTINUOUS
62
4
100
AcDbLine
10
2112.842000000000
20
1395.187000000000
30
0.0
11
2165.811000000000
21
1395.187000000000
31
0.0
0
LINE
5
583
100
AcDbEntity
8
0-8寸法
6
CONTINUOUS
62
4
100
AcDbLine
10
2125.349000000000
20
1385.187000000000
30
0.0
11
2151.097000000000
21
1385.187000000000
31
0.0
0
LINE
5
584
100
AcDbEntity
8
0-8寸法
6
CONTINUOUS
62
4
100
AcDbLine
10
2441.094000000000
20
1635.187000000000
30
0.0
11
2421.776000000000
21
1640.364000000000
31
0.0
0
LINE
5
585
100
AcDbEntity
8
0-8寸法
6
CONTINUOUS
62
4
100
AcDbLine
10
2441.094000000000
20
1635.187000000000
30
0.0
11
2421.776000000000
21
1630.011000000000
31
0.0
0
LINE
5
586
100
AcDbEntity
8
0-8寸法
6
CONTINUOUS
62
4
100
AcDbLine
10
1972.095000000000
20
735.188000000000
30
0.0
11
1972.095000000000
21
1435.187000000000
31
0.0
0
LINE
5
587
100
AcDbEntity
8
0-8寸法
6
CONTINUOUS
62
4
100
AcDbLine
10
2014.977000000000
20
1435.187000000000
30
0.0
11
1962.095000000000
21
1435.187000000000
31
0.0
0
LINE
5
588
100
AcDbEntity
8
0-8寸法
6
CONTINUOUS
62
4
100
AcDbLine
10
1972.095000000000
20
735.188000000000
30
0.0
11
1966.918000000000
21
754.506000000000
31
0.0
0
LINE
5
589
100
AcDbEntity
8
0-8寸法
6
CONTINUOUS
62
4
100
AcDbLine
10
1972.095000000000
20
735.188000000000
30
0.0
11
1977.271000000000
21
754.506000000000
31
0.0
0
LINE
5
58a
100
AcDbEntity
8
0-8寸法
6
CONTINUOUS
62
4
100
AcDbLine
10
1972.095000000000
20
1435.187000000000
30
0.0
11
1966.918000000000
21
1415.869000000000
31
0.0
0
LINE
5
58b
100
AcDbEntity
8
0-8寸法
6
CONTINUOUS
62
4
100
AcDbLine
10
1972.095000000000
20
1435.187000000000
30
0.0
11
1977.271000000000
21
1415.869000000000
31
0.0
0
LINE
5
58c
100
AcDbEntity
8
0-8寸法
6
CONTINUOUS
62
4
100
AcDbLine
10
2380.223000000000
20
735.188000000000
30
0.0
11
1962.095000000000
21
735.188000000000
31
0.0
0
LINE
5
58d
100
AcDbEntity
8
0-8寸法
6
CONTINUOUS
62
4
100
AcDbLine
10
1651.678000000000
20
2110.188000000000
30
0.0
11
2336.141000000000
21
2110.188000000000
31
0.0
0
LINE
5
58e
100
AcDbEntity
8
0-8寸法
6
CONTINUOUS
62
4
100
AcDbLine
10
1651.678000000000
20
2010.188000000000
30
0.0
11
2336.141000000000
21
2010.188000000000
31
0.0
0
LINE
5
58f
100
AcDbEntity
8
0-8寸法
6
CONTINUOUS
62
4
100
AcDbLine
10
1651.678000000000
20
1910.188000000000
30
0.0
11
2336.141000000000
21
1910.188000000000
31
0.0
0
LINE
5
590
100
AcDbEntity
8
0-8寸法
6
CONTINUOUS
62
4
100
AcDbLine
10
2352.095000000000
20
535.188000000000
30
0.0
11
2352.095000000000
21
435.188000000000
31
0.0
0
LINE
5
591
100
AcDbEntity
8
0-8寸法
6
CONTINUOUS
62
4
100
AcDbLine
10
1043.663000000000
20
2604.647000000000
30
0.0
11
1543.663000000000
21
2604.647000000000
31
0.0
0
LINE
5
592
100
AcDbEntity
8
0-8寸法
6
CONTINUOUS
62
4
100
AcDbLine
10
1043.663000000000
20
2604.647000000000
30
0.0
11
1062.981000000000
21
2609.823000000000
31
0.0
0
LINE
5
593
100
AcDbEntity
8
0-8寸法
6
CONTINUOUS
62
4
100
AcDbLine
10
1043.663000000000
20
2604.647000000000
30
0.0
11
1062.981000000000
21
2599.471000000000
31
0.0
0
LINE
5
594
100
AcDbEntity
8
0-8寸法
6
CONTINUOUS
62
4
100
AcDbLine
10
1543.663000000000
20
2604.647000000000
30
0.0
11
1524.344000000000
21
2609.823000000000
31
0.0
0
LINE
5
595
100
AcDbEntity
8
0-8寸法
6
CONTINUOUS
62
4
100
AcDbLine
10
1543.663000000000
20
2604.647000000000
30
0.0
11
1524.344000000000
21
2599.471000000000
31
0.0
0
LINE
5
596
100
AcDbEntity
8
0-8寸法
6
CONTINUOUS
62
4
100
AcDbLine
10
1651.678000000000
20
1660.188000000000
30
0.0
11
2238.947000000000
21
1660.188000000000
31
0.0
0
LINE
5
597
100
AcDbEntity
8
0-8寸法
6
CONTINUOUS
62
4
100
AcDbLine
10
1651.678000000000
20
1560.188000000000
30
0.0
11
2238.947000000000
21
1560.188000000000
31
0.0
0
LINE
5
598
100
AcDbEntity
8
0-8寸法
6
CONTINUOUS
62
4
100
AcDbLine
10
2455.094000000000
20
1085.188000000000
30
0.0
11
2474.413000000001
21
1090.364000000000
31
0.0
0
LINE
5
599
100
AcDbEntity
8
0-8寸法
6
CONTINUOUS
62
4
100
AcDbLine
10
2455.094000000000
20
1085.188000000000
30
0.0
11
2474.413000000001
21
1080.011000000000
31
0.0
0
LINE
5
59a
100
AcDbEntity
8
0-8寸法
6
CONTINUOUS
62
4
100
AcDbLine
10
2389.094000000000
20
1085.188000000000
30
0.0
11
2369.776000000000
21
1090.364000000000
31
0.0
0
LINE
5
59b
100
AcDbEntity
8
0-8寸法
6
CONTINUOUS
62
4
100
AcDbLine
10
2389.094000000000
20
1085.188000000000
30
0.0
11
2369.776000000000
21
1080.011000000000
31
0.0
0
LINE
5
59c
100
AcDbEntity
8
0-8寸法
6
CONTINUOUS
62
4
100
AcDbLine
10
2449.094000000000
20
1085.188000000000
30
0.0
11
2311.507000000000
21
1085.188000000000
31
0.0
0
LINE
5
59d
100
AcDbEntity
8
0-8寸法
6
CONTINUOUS
62
4
100
AcDbLine
10
1651.678000000000
20
2110.188000000000
30
0.0
11
1651.678000000000
21
1910.188000000000
31
0.0
0
LINE
5
59e
100
AcDbEntity
8
0-8寸法
6
CONTINUOUS
62
4
100
AcDbLine
10
1651.678000000000
20
2110.188000000000
30
0.0
11
1577.700000000000
21
2277.688000000000
31
0.0
0
LINE
5
59f
100
AcDbEntity
8
0-9扉体
6
CONTINUOUS
62
4
100
AcDbLine
10
1533.663000000000
20
1335.187000000000
30
0.0
11
1533.663000000000
21
735.188000000000
31
0.0
0
LINE
5
5a0
100
AcDbEntity
8
0-9扉体
6
CONTINUOUS
62
4
100
AcDbLine
10
1053.663000000000
20
735.188000000000
30
0.0
11
1053.663000000000
21
1335.187000000000
31
0.0
0
LINE
5
5a1
100
AcDbEntity
8
0-9扉体
6
CONTINUOUS
62
4
100
AcDbLine
10
2446.095000000000
20
1329.187000000000
30
0.0
11
2401.094000000000
21
1329.187000000000
31
0.0
0
LINE
5
5a2
100
AcDbEntity
8
0-9扉体
6
CONTINUOUS
62
4
100
AcDbLine
10
2395.094000000000
20
1278.187000000000
30
0.0
11
2395.094000000000
21
1323.187000000000
31
0.0
0
LINE
5
5a3
100
AcDbEntity
8
0-9扉体
6
CONTINUOUS
62
4
100
AcDbLine
10
2392.094000000000
20
1275.188000000000
30
0.0
11
2389.095000000000
21
1275.188000000000
31
0.0
0
LINE
5
5a4
100
AcDbEntity
8
0-9扉体
6
CONTINUOUS
62
4
100
AcDbLine
10
2389.095000000000
20
1335.187000000000
30
0.0
11
2449.094000000000
21
1335.187000000000
31
0.0
0
LINE
5
5a5
100
AcDbEntity
8
0-9扉体
6
DOT
62
4
100
AcDbLine
10
1310.673000000000
20
1329.187000000000
30
0.0
11
1310.673000000000
21
1275.188000000000
31
0.0
0
LINE
5
5a6
100
AcDbEntity
8
0-A文字
6
CONTINUOUS
62
4
100
AcDbLine
10
1170.594000000000
20
1065.743000000000
30
0.0
11
1423.121000000000
21
1065.743000000000
31
0.0
0
LINE
5
5a7
100
AcDbEntity
8
0-9扉体
6
CONTINUOUS
62
4
100
AcDbLine
10
1250.673000000000
20
958.711000000000
30
0.0
11
1250.673000000000
21
795.188000000000
31
0.0
0
LINE
5
5a8
100
AcDbEntity
8
0-9扉体
6
CONTINUOUS
62
4
100
AcDbLine
10
1310.673000000000
20
958.711000000000
30
0.0
11
1310.673000000000
21
795.188000000000
31
0.0
0
LINE
5
5a9
100
AcDbEntity
8
0-9扉体
6
CONTINUOUS
62
4
100
AcDbLine
10
1250.673000000000
20
1275.188000000000
30
0.0
11
1250.673000000000
21
1122.264000000000
31
0.0
0
LINE
5
5aa
100
AcDbEntity
8
0-9扉体
6
DOT
62
4
100
AcDbLine
10
1304.673000000000
20
1329.187000000000
30
0.0
11
1304.673000000000
21
1122.264000000000
31
0.0
0
LINE
5
5ab
100
AcDbEntity
8
0-9扉体
6
CONTINUOUS
62
4
100
AcDbLine
10
1310.673000000000
20
1275.188000000000
30
0.0
11
1310.673000000000
21
1122.264000000000
31
0.0
0
LINE
5
5ac
100
AcDbEntity
8
0-9扉体
6
CONTINUOUS
62
4
100
AcDbLine
10
1536.663000000000
20
2212.647000000000
30
0.0
11
1581.663000000000
21
2212.647000000000
31
0.0
0
LINE
5
5ad
100
AcDbEntity
8
0-9扉体
6
CONTINUOUS
62
4
100
AcDbLine
10
1587.663000000000
20
2263.647000000000
30
0.0
11
1587.663000000000
21
2218.647000000000
31
0.0
0
LINE
5
5ae
100
AcDbEntity
8
0-9扉体
6
CONTINUOUS
62
4
100
AcDbLine
10
1533.663000000000
20
2209.647000000000
30
0.0
11
1533.663000000000
21
2206.647000000000
31
0.0
0
LINE
5
5af
100
AcDbEntity
8
0-9扉体
6
CONTINUOUS
62
4
100
AcDbLine
10
2389.095000000000
20
1335.187000000000
30
0.0
11
2389.095000000000
21
735.188000000000
31
0.0
0
LINE
5
5b0
100
AcDbEntity
8
0-9扉体
6
CONTINUOUS
62
4
100
AcDbLine
10
2449.094000000000
20
1340.187000000000
30
0.0
11
2449.094000000000
21
998.928000000000
31
0.0
0
LINE
5
5b1
100
AcDbEntity
8
0-9扉体
6
CONTINUOUS
62
6
100
AcDbLine
10
2455.094000000000
20
1313.354000000000
30
0.0
11
2463.336000000000
21
1321.595000000000
31
0.0
0
LINE
5
5b2
100
AcDbEntity
8
0-9扉体
6
CONTINUOUS
62
4
100
AcDbLine
10
2394.094000000000
20
1344.187000000000
30
0.0
11
2394.094000000000
21
1335.187000000000
31
0.0
0
POLYLINE
5
5b3
100
AcDbEntity
8
0-9扉体
6
CONTINUOUS
62
  4
100
AcDb2dPolyline
66
1
10
0.0
20
0.0
30
0.0
70
0
0
VERTEX
5
5b4
100
AcDbEntity
8
0-9扉体
6
CONTINUOUS
62
  4
100
AcDbVertex
100
AcDb2dVertex
10
2394.094000000000
20
1344.187000000000
30
0.0
0
VERTEX
5
5b5
100
AcDbEntity
8
0-9扉体
6
CONTINUOUS
62
  4
100
AcDbVertex
100
AcDb2dVertex
10
2444.094000000000
20
1344.187000000000
30
0.0
0
VERTEX
5
5b6
100
AcDbEntity
8
0-9扉体
6
CONTINUOUS
62
  4
100
AcDbVertex
100
AcDb2dVertex
10
2444.094000000000
20
1335.187000000000
30
0.0
0
SEQEND
5
5b7
100
AcDbEntity
8
0-9扉体
0
LINE
5
5b8
100
AcDbEntity
8
0-8寸法
6
CONTINUOUS
62
4
100
AcDbLine
10
2386.601000000000
20
1335.187000000000
30
0.0
11
2291.094000000000
21
1335.187000000000
31
0.0
0
LINE
5
5b9
100
AcDbEntity
8
0-8寸法
6
CONTINUOUS
62
4
100
AcDbLine
10
2301.094000000000
20
1285.187000000000
30
0.0
11
2295.918000000000
21
1265.869000000000
31
0.0
0
LINE
5
5ba
100
AcDbEntity
8
0-8寸法
6
CONTINUOUS
62
4
100
AcDbLine
10
2301.094000000000
20
1285.187000000000
30
0.0
11
2306.271000000000
21
1265.869000000000
31
0.0
0
LINE
5
5bb
100
AcDbEntity
8
0-8寸法
6
CONTINUOUS
62
4
100
AcDbLine
10
2301.094000000000
20
1385.188000000000
30
0.0
11
2295.918000000000
21
1404.506000000000
31
0.0
0
LINE
5
5bc
100
AcDbEntity
8
0-8寸法
6
CONTINUOUS
62
4
100
AcDbLine
10
2301.094000000000
20
1385.188000000000
30
0.0
11
2306.271000000000
21
1404.506000000000
31
0.0
0
LINE
5
5bd
100
AcDbEntity
8
0-8寸法
6
CONTINUOUS
62
4
100
AcDbLine
10
2404.443000000000
20
1385.188000000000
30
0.0
11
2291.094000000000
21
1385.188000000000
31
0.0
0
POLYLINE
5
5be
100
AcDbEntity
8
0-8寸法
6
CONTINUOUS
62
  4
100
AcDb2dPolyline
66
1
10
0.0
20
0.0
30
0.0
70
0
0
VERTEX
5
5bf
100
AcDbEntity
8
0-8寸法
6
CONTINUOUS
62
  4
100
AcDbVertex
100
AcDb2dVertex
10
2301.094000000000
20
1215.001000000000
30
0.0
0
VERTEX
5
5c0
100
AcDbEntity
8
0-8寸法
6
CONTINUOUS
62
  4
100
AcDbVertex
100
AcDb2dVertex
10
2301.094000000000
20
1335.187000000000
30
0.0
0
VERTEX
5
5c1
100
AcDbEntity
8
0-8寸法
6
CONTINUOUS
62
  4
100
AcDbVertex
100
AcDb2dVertex
10
2301.094000000000
20
1457.762000000000
30
0.0
0
SEQEND
5
5c2
100
AcDbEntity
8
0-8寸法
0
LINE
5
5c3
100
AcDbEntity
8
0-8寸法
6
CONTINUOUS
62
4
100
AcDbLine
10
2386.601000000000
20
1285.187000000000
30
0.0
11
2291.094000000000
21
1285.187000000000
31
0.0
0
LINE
5
5c4
100
AcDbEntity
8
0-9扉体
6
CONTINUOUS
62
4
100
AcDbLine
10
1052.913000000001
20
1349.487000000000
30
0.0
11
1074.413000000000
21
1349.487000000000
31
0.0
0
LINE
5
5c5
100
AcDbEntity
8
0-9扉体
6
CONTINUOUS
62
7
100
AcDbLine
10
1533.162000000000
20
1359.487000000000
30
0.0
11
1533.162000000000
21
1349.487000000000
31
0.0
0
LINE
5
5c6
100
AcDbEntity
8
0-9扉体
6
CONTINUOUS
62
7
100
AcDbLine
10
1514.163000000000
20
1359.487000000000
30
0.0
11
1514.163000000000
21
1349.487000000000
31
0.0
0
LINE
5
5c7
100
AcDbEntity
8
0-9扉体
6
CONTINUOUS
62
7
100
AcDbLine
10
1514.163000000000
20
1359.487000000000
30
0.0
11
1533.162000000000
21
1359.487000000000
31
0.0
0
LINE
5
5c8
100
AcDbEntity
8
0-9扉体
6
CONTINUOUS
62
7
100
AcDbLine
10
1523.662000000000
20
1358.639000000000
30
0.0
11
1523.662000000000
21
1349.487000000000
31
0.0
0
LINE
5
5c9
100
AcDbEntity
8
0-9扉体
6
CONTINUOUS
62
3
100
AcDbLine
10
1403.663000000000
20
1344.187000000000
30
0.0
11
1543.663000000000
21
1344.187000000000
31
0.0
0
LINE
5
5ca
100
AcDbEntity
8
0-9扉体
6
CONTINUOUS
62
3
100
AcDbLine
10
1403.663000000000
20
1344.187000000000
30
0.0
11
1403.663000000000
21
1335.187000000000
31
0.0
0
LINE
5
5cb
100
AcDbEntity
8
0-9扉体
6
CONTINUOUS
62
3
100
AcDbLine
10
1543.663000000000
20
1344.187000000000
30
0.0
11
1543.663000000000
21
1335.187000000000
31
0.0
0
POLYLINE
5
5cc
100
AcDbEntity
8
0-9扉体
6
CONTINUOUS
62
  3
100
AcDb2dPolyline
66
1
10
0.0
20
0.0
30
0.0
70
0
0
VERTEX
5
5cd
100
AcDbEntity
8
0-9扉体
6
CONTINUOUS
62
  3
100
AcDbVertex
100
AcDb2dVertex
10
1503.662000000000
20
1409.187000000000
30
0.0
0
VERTEX
5
5ce
100
AcDbEntity
8
0-9扉体
6
CONTINUOUS
62
  3
100
AcDbVertex
100
AcDb2dVertex
10
1494.663000000000
20
1409.187000000000
30
0.0
0
VERTEX
5
5cf
100
AcDbEntity
8
0-9扉体
6
CONTINUOUS
62
  3
100
AcDbVertex
100
AcDb2dVertex
10
1494.663000000000
20
1344.187000000000
30
0.0
0
SEQEND
5
5d0
100
AcDbEntity
8
0-9扉体
0
LINE
5
5d1
100
AcDbEntity
8
0-9扉体
6
CONTINUOUS
62
3
100
AcDbLine
10
1503.662000000000
20
1409.187000000000
30
0.0
11
1503.662000000000
21
1344.187000000000
31
0.0
0
LINE
5
5d2
100
AcDbEntity
8
0-6戸当り
6
DOT
62
6
100
AcDbLine
10
1492.663000000000
20
1376.188000000000
30
0.0
11
1454.663000000000
21
1376.188000000000
31
0.0
0
LINE
5
5d3
100
AcDbEntity
8
0-6戸当り
6
CONTINUOUS
62
6
100
AcDbLine
10
1492.663000000000
20
1368.188000000000
30
0.0
11
1454.663000000000
21
1368.188000000000
31
0.0
0
LINE
5
5d4
100
AcDbEntity
8
0-6戸当り
6
CONTINUOUS
62
6
100
AcDbLine
10
1492.663000000000
20
1402.187000000000
30
0.0
11
1492.663000000000
21
1368.188000000000
31
0.0
0
POLYLINE
5
5d5
100
AcDbEntity
8
0-6戸当り
6
CONTINUOUS
62
  6
100
AcDb2dPolyline
66
1
10
0.0
20
0.0
30
0.0
70
0
0
VERTEX
5
5d6
100
AcDbEntity
8
0-6戸当り
6
CONTINUOUS
62
  6
100
AcDbVertex
100
AcDb2dVertex
10
1492.663000000000
20
1402.187000000000
30
0.0
0
VERTEX
5
5d7
100
AcDbEntity
8
0-6戸当り
6
CONTINUOUS
62
  6
100
AcDbVertex
100
AcDb2dVertex
10
1454.663000000000
20
1402.187000000000
30
0.0
0
VERTEX
5
5d8
100
AcDbEntity
8
0-6戸当り
6
CONTINUOUS
62
  6
100
AcDbVertex
100
AcDb2dVertex
10
1454.663000000000
20
1368.188000000000
30
0.0
0
SEQEND
5
5d9
100
AcDbEntity
8
0-6戸当り
0
LINE
5
5da
100
AcDbEntity
8
0-9扉体
6
CONTINUOUS
62
6
100
AcDbLine
10
1506.263000000000
20
1401.187000000000
30
0.0
11
1506.263000000000
21
1369.188000000000
31
0.0
0
LINE
5
5db
100
AcDbEntity
8
0-9扉体
6
CONTINUOUS
62
6
100
AcDbLine
10
1517.162000000000
20
1393.187000000000
30
0.0
11
1517.162000000000
21
1377.188000000000
31
0.0
0
LINE
5
5dc
100
AcDbEntity
8
0-9扉体
6
CONTINUOUS
62
6
100
AcDbLine
10
1517.162000000000
20
1393.187000000000
30
0.0
11
1506.263000000000
21
1393.187000000000
31
0.0
0
LINE
5
5dd
100
AcDbEntity
8
0-9扉体
6
CONTINUOUS
62
6
100
AcDbLine
10
1517.162000000000
20
1377.188000000000
30
0.0
11
1506.263000000000
21
1377.188000000000
31
0.0
0
LINE
5
5de
100
AcDbEntity
8
0-9扉体
6
CONTINUOUS
62
6
100
AcDbLine
10
1494.663000000000
20
1377.188000000000
30
0.0
11
1492.663000000000
21
1377.188000000000
31
0.0
0
LINE
5
5df
100
AcDbEntity
8
0-6戸当り
6
DOT
62
6
100
AcDbLine
10
1492.663000000000
20
1394.188000000000
30
0.0
11
1454.663000000000
21
1394.188000000000
31
0.0
0
LINE
5
5e0
100
AcDbEntity
8
0-9扉体
6
CONTINUOUS
62
6
100
AcDbLine
10
1494.663000000000
20
1393.187000000000
30
0.0
11
1492.663000000000
21
1393.187000000000
31
0.0
0
LINE
5
5e1
100
AcDbEntity
8
0-9扉体
6
CONTINUOUS
62
6
100
AcDbLine
10
1441.063000000000
20
1401.187000000000
30
0.0
11
1441.063000000000
21
1369.188000000000
31
0.0
0
LINE
5
5e2
100
AcDbEntity
8
0-9扉体
6
CONTINUOUS
62
6
100
AcDbLine
10
1441.063000000000
20
1401.187000000000
30
0.0
11
1443.663000000000
21
1401.187000000000
31
0.0
0
LINE
5
5e3
100
AcDbEntity
8
0-9扉体
6
CONTINUOUS
62
6
100
AcDbLine
10
1441.063000000000
20
1369.188000000000
30
0.0
11
1443.663000000000
21
1369.188000000000
31
0.0
0
LINE
5
5e4
100
AcDbEntity
8
0-9扉体
6
CONTINUOUS
62
6
100
AcDbLine
10
1430.163000000000
20
1393.187000000000
30
0.0
11
1430.163000000000
21
1377.188000000000
31
0.0
0
LINE
5
5e5
100
AcDbEntity
8
0-9扉体
6
CONTINUOUS
62
6
100
AcDbLine
10
1430.163000000000
20
1393.187000000000
30
0.0
11
1441.063000000000
21
1393.187000000000
31
0.0
0
LINE
5
5e6
100
AcDbEntity
8
0-9扉体
6
CONTINUOUS
62
6
100
AcDbLine
10
1430.163000000000
20
1377.188000000000
30
0.0
11
1441.063000000000
21
1377.188000000000
31
0.0
0
LINE
5
5e7
100
AcDbEntity
8
0-9扉体
6
CONTINUOUS
62
6
100
AcDbLine
10
1452.663000000000
20
1377.188000000000
30
0.0
11
1454.663000000000
21
1377.188000000000
31
0.0
0
LINE
5
5e8
100
AcDbEntity
8
0-9扉体
6
CONTINUOUS
62
6
100
AcDbLine
10
1452.663000000000
20
1393.187000000000
30
0.0
11
1454.663000000000
21
1393.187000000000
31
0.0
0
POLYLINE
5
5e9
100
AcDbEntity
8
0-9扉体
6
CONTINUOUS
62
  3
100
AcDb2dPolyline
66
1
10
0.0
20
0.0
30
0.0
70
0
0
VERTEX
5
5ea
100
AcDbEntity
8
0-9扉体
6
CONTINUOUS
62
  3
100
AcDbVertex
100
AcDb2dVertex
10
1443.663000000000
20
1409.187000000000
30
0.0
0
VERTEX
5
5eb
100
AcDbEntity
8
0-9扉体
6
CONTINUOUS
62
  3
100
AcDbVertex
100
AcDb2dVertex
10
1452.663000000000
20
1409.187000000000
30
0.0
0
VERTEX
5
5ec
100
AcDbEntity
8
0-9扉体
6
CONTINUOUS
62
  3
100
AcDbVertex
100
AcDb2dVertex
10
1452.663000000000
20
1344.187000000000
30
0.0
0
SEQEND
5
5ed
100
AcDbEntity
8
0-9扉体
0
LINE
5
5ee
100
AcDbEntity
8
0-9扉体
6
CONTINUOUS
62
3
100
AcDbLine
10
1443.663000000000
20
1409.187000000000
30
0.0
11
1443.663000000000
21
1344.187000000000
31
0.0
0
LINE
5
5ef
100
AcDbEntity
8
0-9扉体
6
CONTINUOUS
62
4
100
AcDbLine
10
1536.662000000000
20
1346.487000000000
30
0.0
11
1510.662000000000
21
1346.487000000000
31
0.0
0
LINE
5
5f0
100
AcDbEntity
8
0-9扉体
6
CONTINUOUS
62
4
100
AcDbLine
10
1536.662000000000
20
1346.487000000000
30
0.0
11
1536.662000000000
21
1344.187000000000
31
0.0
0
LINE
5
5f1
100
AcDbEntity
8
0-9扉体
6
CONTINUOUS
62
4
100
AcDbLine
10
1510.662000000000
20
1346.487000000000
30
0.0
11
1510.662000000000
21
1344.187000000000
31
0.0
0
LINE
5
5f2
100
AcDbEntity
8
0-9扉体
6
CONTINUOUS
62
4
100
AcDbLine
10
1529.662000000000
20
1369.187000000000
30
0.0
11
1517.663000000000
21
1369.187000000000
31
0.0
0
LINE
5
5f3
100
AcDbEntity
8
0-9扉体
6
CONTINUOUS
62
4
100
AcDbLine
10
1529.662000000000
20
1369.187000000000
30
0.0
11
1529.662000000000
21
1359.487000000000
31
0.0
0
LINE
5
5f4
100
AcDbEntity
8
0-9扉体
6
CONTINUOUS
62
4
100
AcDbLine
10
1517.663000000000
20
1369.187000000000
30
0.0
11
1517.663000000000
21
1359.487000000000
31
0.0
0
LINE
5
5f5
100
AcDbEntity
8
0-9扉体
6
CONTINUOUS
62
4
100
AcDbLine
10
1528.662000000000
20
1369.187000000000
30
0.0
11
1528.662000000000
21
1359.487000000000
31
0.0
0
LINE
5
5f6
100
AcDbEntity
8
0-9扉体
6
CONTINUOUS
62
4
100
AcDbLine
10
1518.662000000000
20
1369.187000000000
30
0.0
11
1518.662000000000
21
1359.487000000000
31
0.0
0
LINE
5
5f7
100
AcDbEntity
8
0-9扉体
6
CONTINUOUS
62
4
100
AcDbLine
10
1523.662000000000
20
1349.487000000000
30
0.0
11
1526.662000000000
21
1346.487000000000
31
0.0
0
LINE
5
5f8
100
AcDbEntity
8
0-9扉体
6
CONTINUOUS
62
4
100
AcDbLine
10
1523.662000000000
20
1346.487000000000
30
0.0
11
1520.663000000000
21
1349.487000000000
31
0.0
0
LINE
5
5f9
100
AcDbEntity
8
0-9扉体
6
CONTINUOUS
62
4
100
AcDbLine
10
1534.413000000000
20
1349.487000000000
30
0.0
11
1534.413000000000
21
1346.487000000000
31
0.0
0
LINE
5
5fa
100
AcDbEntity
8
0-9扉体
6
CONTINUOUS
62
4
100
AcDbLine
10
1512.912000000000
20
1349.487000000000
30
0.0
11
1512.912000000000
21
1346.487000000000
31
0.0
0
LINE
5
5fb
100
AcDbEntity
8
0-5基準線
6
CENTER2
62
7
100
AcDbLine
10
1523.662000000000
20
1372.142000000000
30
0.0
11
1523.662000000000
21
1358.639000000000
31
0.0
0
LINE
5
5fc
100
AcDbEntity
8
0-9扉体
6
CONTINUOUS
62
7
100
AcDbLine
10
1414.163000000000
20
1359.487000000000
30
0.0
11
1414.163000000000
21
1349.487000000000
31
0.0
0
LINE
5
5fd
100
AcDbEntity
8
0-9扉体
6
CONTINUOUS
62
7
100
AcDbLine
10
1433.163000000000
20
1359.487000000000
30
0.0
11
1433.163000000000
21
1349.487000000000
31
0.0
0
LINE
5
5fe
100
AcDbEntity
8
0-9扉体
6
CONTINUOUS
62
7
100
AcDbLine
10
1433.163000000000
20
1359.487000000000
30
0.0
11
1414.163000000000
21
1359.487000000000
31
0.0
0
LINE
5
5ff
100
AcDbEntity
8
0-9扉体
6
CONTINUOUS
62
7
100
AcDbLine
10
1423.663000000000
20
1358.639000000000
30
0.0
11
1423.663000000000
21
1349.487000000000
31
0.0
0
LINE
5
600
100
AcDbEntity
8
0-9扉体
6
CONTINUOUS
62
4
100
AcDbLine
10
1410.663000000000
20
1346.487000000000
30
0.0
11
1436.663000000000
21
1346.487000000000
31
0.0
0
LINE
5
601
100
AcDbEntity
8
0-9扉体
6
CONTINUOUS
62
4
100
AcDbLine
10
1410.663000000000
20
1346.487000000000
30
0.0
11
1410.663000000000
21
1344.187000000000
31
0.0
0
LINE
5
602
100
AcDbEntity
8
0-9扉体
6
CONTINUOUS
62
4
100
AcDbLine
10
1436.663000000000
20
1346.487000000000
30
0.0
11
1436.663000000000
21
1344.187000000000
31
0.0
0
LINE
5
603
100
AcDbEntity
8
0-9扉体
6
CONTINUOUS
62
4
100
AcDbLine
10
1417.663000000000
20
1369.187000000000
30
0.0
11
1429.663000000000
21
1369.187000000000
31
0.0
0
LINE
5
604
100
AcDbEntity
8
0-9扉体
6
CONTINUOUS
62
4
100
AcDbLine
10
1417.663000000000
20
1369.187000000000
30
0.0
11
1417.663000000000
21
1359.487000000000
31
0.0
0
LINE
5
605
100
AcDbEntity
8
0-9扉体
6
CONTINUOUS
62
4
100
AcDbLine
10
1429.663000000000
20
1369.187000000000
30
0.0
11
1429.663000000000
21
1359.487000000000
31
0.0
0
LINE
5
606
100
AcDbEntity
8
0-9扉体
6
CONTINUOUS
62
4
100
AcDbLine
10
1418.663000000000
20
1369.187000000000
30
0.0
11
1418.663000000000
21
1359.487000000000
31
0.0
0
LINE
5
607
100
AcDbEntity
8
0-9扉体
6
CONTINUOUS
62
4
100
AcDbLine
10
1428.663000000000
20
1369.187000000000
30
0.0
11
1428.663000000000
21
1359.487000000000
31
0.0
0
LINE
5
608
100
AcDbEntity
8
0-9扉体
6
CONTINUOUS
62
4
100
AcDbLine
10
1423.663000000000
20
1349.487000000000
30
0.0
11
1420.663000000000
21
1346.487000000000
31
0.0
0
LINE
5
609
100
AcDbEntity
8
0-9扉体
6
CONTINUOUS
62
4
100
AcDbLine
10
1423.663000000000
20
1346.487000000000
30
0.0
11
1426.663000000000
21
1349.487000000000
31
0.0
0
LINE
5
60a
100
AcDbEntity
8
0-9扉体
6
CONTINUOUS
62
4
100
AcDbLine
10
1412.913000000000
20
1349.487000000000
30
0.0
11
1412.913000000000
21
1346.487000000000
31
0.0
0
POLYLINE
5
60b
100
AcDbEntity
8
0-9扉体
6
CONTINUOUS
62
  4
100
AcDb2dPolyline
66
1
10
0.0
20
0.0
30
0.0
70
0
0
VERTEX
5
60c
100
AcDbEntity
8
0-9扉体
6
CONTINUOUS
62
  4
100
AcDbVertex
100
AcDb2dVertex
10
1412.913000000000
20
1349.487000000000
30
0.0
0
VERTEX
5
60d
100
AcDbEntity
8
0-9扉体
6
CONTINUOUS
62
  4
100
AcDbVertex
100
AcDb2dVertex
10
1434.413000000000
20
1349.487000000000
30
0.0
0
VERTEX
5
60e
100
AcDbEntity
8
0-9扉体
6
CONTINUOUS
62
  4
100
AcDbVertex
100
AcDb2dVertex
10
1434.413000000000
20
1346.487000000000
30
0.0
0
SEQEND
5
60f
100
AcDbEntity
8
0-9扉体
0
LINE
5
610
100
AcDbEntity
8
0-5基準線
6
CENTER2
62
7
100
AcDbLine
10
1423.663000000000
20
1349.487000000000
30
0.0
11
1423.663000000000
21
1333.723000000000
31
0.0
0
LINE
5
611
100
AcDbEntity
8
0-5基準線
6
CENTER2
62
7
100
AcDbLine
10
1423.663000000000
20
1372.142000000000
30
0.0
11
1423.663000000000
21
1358.639000000000
31
0.0
0
LINE
5
612
100
AcDbEntity
8
0-9扉体
6
CONTINUOUS
62
6
100
AcDbLine
10
1506.263000000000
20
1401.187000000000
30
0.0
11
1503.662000000000
21
1401.187000000000
31
0.0
0
LINE
5
613
100
AcDbEntity
8
0-9扉体
6
CONTINUOUS
62
6
100
AcDbLine
10
1506.263000000000
20
1369.188000000000
30
0.0
11
1503.662000000000
21
1369.188000000000
31
0.0
0
LINE
5
614
100
AcDbEntity
8
0-9扉体
6
CONTINUOUS
62
4
100
AcDbLine
10
1534.413000000000
20
1349.487000000000
30
0.0
11
1512.912000000000
21
1349.487000000000
31
0.0
0
LINE
5
615
100
AcDbEntity
8
0-5基準線
6
CENTER2
62
7
100
AcDbLine
10
1063.663000000000
20
1349.487000000000
30
0.0
11
1063.663000000000
21
1335.187000000000
31
0.0
0
LINE
5
616
100
AcDbEntity
8
0-5基準線
6
CENTER2
62
7
100
AcDbLine
10
1523.662000000000
20
1349.487000000000
30
0.0
11
1523.662000000000
21
1335.187000000000
31
0.0
0
LINE
5
617
100
AcDbEntity
8
0-9扉体
6
CONTINUOUS
62
6
100
AcDbLine
10
1083.663000000000
20
2211.647000000000
30
0.0
11
1083.663000000000
21
2276.147000000000
31
0.0
0
LINE
5
618
100
AcDbEntity
8
0-9扉体
6
CONTINUOUS
62
6
100
AcDbLine
10
1092.663000000000
20
2211.647000000000
30
0.0
11
1092.663000000000
21
2276.147000000000
31
0.0
0
LINE
5
619
100
AcDbEntity
8
0-9扉体
6
CONTINUOUS
62
6
100
AcDbLine
10
1134.663000000000
20
2211.647000000000
30
0.0
11
1134.663000000000
21
2276.147000000000
31
0.0
0
LINE
5
61a
100
AcDbEntity
8
0-9扉体
6
CONTINUOUS
62
6
100
AcDbLine
10
1143.662000000000
20
2211.647000000000
30
0.0
11
1143.662000000000
21
2276.147000000000
31
0.0
0
LINE
5
61b
100
AcDbEntity
8
0-9扉体
6
CONTINUOUS
62
7
100
AcDbLine
10
1154.163000000001
20
2242.132000000000
30
0.0
11
1163.663000000000
21
2247.617000000000
31
0.0
0
LINE
5
61c
100
AcDbEntity
8
0-9扉体
6
CONTINUOUS
62
7
100
AcDbLine
10
1154.163000000001
20
2242.132000000000
30
0.0
11
1154.163000000001
21
2231.162000000000
31
0.0
0
LINE
5
61d
100
AcDbEntity
8
0-9扉体
6
CONTINUOUS
62
7
100
AcDbLine
10
1163.663000000000
20
2225.678000000000
30
0.0
11
1154.163000000001
21
2231.162000000000
31
0.0
0
POLYLINE
5
61e
100
AcDbEntity
8
0-9扉体
6
CONTINUOUS
62
  7
100
AcDb2dPolyline
66
1
10
0.0
20
0.0
30
0.0
70
0
0
VERTEX
5
61f
100
AcDbEntity
8
0-9扉体
6
CONTINUOUS
62
  7
100
AcDbVertex
100
AcDb2dVertex
10
1163.663000000000
20
2225.678000000000
30
0.0
0
VERTEX
5
620
100
AcDbEntity
8
0-9扉体
6
CONTINUOUS
62
  7
100
AcDbVertex
100
AcDb2dVertex
10
1173.163000000000
20
2231.162000000000
30
0.0
0
VERTEX
5
621
100
AcDbEntity
8
0-9扉体
6
CONTINUOUS
62
  7
100
AcDbVertex
100
AcDb2dVertex
10
1173.163000000000
20
2242.132000000000
30
0.0
0
VERTEX
5
622
100
AcDbEntity
8
0-9扉体
6
CONTINUOUS
62
  7
100
AcDbVertex
100
AcDb2dVertex
10
1163.663000000000
20
2247.617000000000
30
0.0
0
SEQEND
5
623
100
AcDbEntity
8
0-9扉体
0
LINE
5
624
100
AcDbEntity
8
0-5基準線
6
CENTER2
62
7
100
AcDbLine
10
1163.663000000000
20
2250.647000000000
30
0.0
11
1163.663000000000
21
2222.647000000000
31
0.0
0
LINE
5
625
100
AcDbEntity
8
0-5基準線
6
CENTER2
62
7
100
AcDbLine
10
1149.663000000000
20
2236.647000000000
30
0.0
11
1177.663000000000
21
2236.647000000000
31
0.0
0
POLYLINE
5
626
100
AcDbEntity
8
0-9扉体
6
CONTINUOUS
62
  6
100
AcDb2dPolyline
66
1
10
0.0
20
0.0
30
0.0
70
0
0
VERTEX
5
627
100
AcDbEntity
8
0-9扉体
6
CONTINUOUS
62
  6
100
AcDbVertex
100
AcDb2dVertex
10
1183.663000000000
20
2211.647000000000
30
0.0
0
VERTEX
5
628
100
AcDbEntity
8
0-9扉体
6
CONTINUOUS
62
  6
100
AcDbVertex
100
AcDb2dVertex
10
1183.663000000000
20
2261.647000000000
30
0.0
0
VERTEX
5
629
100
AcDbEntity
8
0-9扉体
6
CONTINUOUS
62
  6
100
AcDbVertex
100
AcDb2dVertex
10
1157.163000000000
20
2261.647000000000
30
0.0
0
SEQEND
5
62a
100
AcDbEntity
8
0-9扉体
0
LINE
5
62b
100
AcDbEntity
8
0-6戸当り
6
CONTINUOUS
62
6
100
AcDbLine
10
2475.094000000000
20
685.188000000000
30
0.0
11
2487.095000000000
21
685.188000000000
31
0.0
0
LINE
5
62c
100
AcDbEntity
8
0-6戸当り
6
CONTINUOUS
62
6
100
AcDbLine
10
2475.094000000000
20
1435.187000000000
30
0.0
11
2487.095000000000
21
1435.187000000000
31
0.0
0
LINE
5
62d
100
AcDbEntity
8
0-5基準線
6
CENTER2
62
7
100
AcDbLine
10
2419.094000000000
20
1371.402000000000
30
0.0
11
2419.094000000000
21
1315.915000000000
31
0.0
0
LINE
5
62e
100
AcDbEntity
8
0-6戸当り
6
CONTINUOUS
62
6
100
AcDbLine
10
2458.594000000000
20
1395.188000000000
30
0.0
11
2475.094000000000
21
1395.188000000000
31
0.0
0
LINE
5
62f
100
AcDbEntity
8
0-6戸当り
6
CONTINUOUS
62
6
100
AcDbLine
10
2458.594000000000
20
1377.188000000000
30
0.0
11
2475.094000000000
21
1377.188000000000
31
0.0
0
LINE
5
630
100
AcDbEntity
8
0-6戸当り
6
CONTINUOUS
62
6
100
AcDbLine
10
2458.594000000000
20
1369.188000000000
30
0.0
11
2475.094000000000
21
1369.188000000000
31
0.0
0
LINE
5
631
100
AcDbEntity
8
0-6戸当り
6
CONTINUOUS
62
6
100
AcDbLine
10
1643.663000000000
20
685.187000000000
30
0.0
11
943.663000000000
21
685.187000000000
31
0.0
0
LINE
5
632
100
AcDbEntity
8
0-6戸当り
6
CONTINUOUS
62
6
100
AcDbLine
10
1643.663000000000
20
1435.187000000000
30
0.0
11
1643.663000000000
21
685.187000000000
31
0.0
0
LINE
5
633
100
AcDbEntity
8
0-6戸当り
6
CONTINUOUS
62
6
100
AcDbLine
10
943.663000000000
20
1435.187000000000
30
0.0
11
1643.663000000000
21
1435.187000000000
31
0.0
0
LINE
5
634
100
AcDbEntity
8
0-6戸当り
6
CONTINUOUS
62
6
100
AcDbLine
10
943.663000000000
20
685.187000000000
30
0.0
11
943.663000000000
21
1435.187000000000
31
0.0
0
LINE
5
635
100
AcDbEntity
8
0-6戸当り
6
CONTINUOUS
62
2
100
AcDbLine
10
2491.296000000000
20
710.187000000000
30
0.0
11
2520.808000000000
21
712.688000000000
31
0.0
0
LINE
5
636
100
AcDbEntity
8
0-6戸当り
6
CONTINUOUS
62
2
100
AcDbLine
10
2491.296000000000
20
705.187000000000
30
0.0
11
2520.808000000000
21
707.687000000000
31
0.0
0
LINE
5
637
100
AcDbEntity
8
0-6戸当り
6
CONTINUOUS
62
2
100
AcDbLine
10
2491.296000000000
20
710.187000000000
30
0.0
11
2491.296000000000
21
700.187000000000
31
0.0
0
LINE
5
638
100
AcDbEntity
8
0-6戸当り
6
CONTINUOUS
62
2
100
AcDbLine
10
2495.512000000000
20
710.545000000000
30
0.0
11
2495.512000000000
21
705.545000000000
31
0.0
0
LINE
5
639
100
AcDbEntity
8
0-6戸当り
6
CONTINUOUS
62
2
100
AcDbLine
10
2499.728000000000
20
710.902000000000
30
0.0
11
2499.728000000000
21
705.901000000000
31
0.0
0
LINE
5
63a
100
AcDbEntity
8
0-6戸当り
6
CONTINUOUS
62
2
100
AcDbLine
10
2503.944000000000
20
711.259000000000
30
0.0
11
2503.944000000000
21
706.259000000000
31
0.0
0
LINE
5
63b
100
AcDbEntity
8
0-6戸当り
6
CONTINUOUS
62
2
100
AcDbLine
10
2508.160000000000
20
711.616000000000
30
0.0
11
2508.160000000000
21
706.616000000000
31
0.0
0
LINE
5
63c
100
AcDbEntity
8
0-6戸当り
6
CONTINUOUS
62
2
100
AcDbLine
10
2512.376000000000
20
711.973000000000
30
0.0
11
2512.376000000000
21
706.973000000000
31
0.0
0
LINE
5
63d
100
AcDbEntity
8
0-6戸当り
6
CONTINUOUS
62
2
100
AcDbLine
10
2516.592000000000
20
712.330000000000
30
0.0
11
2516.592000000000
21
707.330000000000
31
0.0
0
POLYLINE
5
63e
100
AcDbEntity
8
0-6戸当り
6
CONTINUOUS
62
  2
100
AcDb2dPolyline
66
1
10
0.0
20
0.0
30
0.0
70
0
0
VERTEX
5
63f
100
AcDbEntity
8
0-6戸当り
6
CONTINUOUS
62
  2
100
AcDbVertex
100
AcDb2dVertex
10
2491.296000000000
20
700.187000000000
30
0.0
0
VERTEX
5
640
100
AcDbEntity
8
0-6戸当り
6
CONTINUOUS
62
  2
100
AcDbVertex
100
AcDb2dVertex
10
2520.808000000000
20
697.687000000000
30
0.0
0
VERTEX
5
641
100
AcDbEntity
8
0-6戸当り
6
CONTINUOUS
62
  2
100
AcDbVertex
100
AcDb2dVertex
10
2520.808000000000
20
702.688000000000
30
0.0
0
SEQEND
5
642
100
AcDbEntity
8
0-6戸当り
0
LINE
5
643
100
AcDbEntity
8
0-6戸当り
6
CONTINUOUS
62
2
100
AcDbLine
10
2491.296000000000
20
705.187000000000
30
0.0
11
2520.808000000000
21
702.688000000000
31
0.0
0
LINE
5
644
100
AcDbEntity
8
0-6戸当り
6
CONTINUOUS
62
2
100
AcDbLine
10
2495.512000000000
20
699.830000000000
30
0.0
11
2495.512000000000
21
704.830000000000
31
0.0
0
LINE
5
645
100
AcDbEntity
8
0-6戸当り
6
CONTINUOUS
62
2
100
AcDbLine
10
2499.728000000000
20
699.474000000000
30
0.0
11
2499.728000000000
21
704.473000000000
31
0.0
0
LINE
5
646
100
AcDbEntity
8
0-6戸当り
6
CONTINUOUS
62
2
100
AcDbLine
10
2503.944000000000
20
699.116000000000
30
0.0
11
2503.944000000000
21
704.116000000000
31
0.0
0
LINE
5
647
100
AcDbEntity
8
0-6戸当り
6
CONTINUOUS
62
2
100
AcDbLine
10
2508.160000000000
20
698.759000000000
30
0.0
11
2508.160000000000
21
703.759000000000
31
0.0
0
LINE
5
648
100
AcDbEntity
8
0-6戸当り
6
CONTINUOUS
62
2
100
AcDbLine
10
2512.376000000000
20
698.402000000000
30
0.0
11
2512.376000000000
21
703.401000000000
31
0.0
0
LINE
5
649
100
AcDbEntity
8
0-6戸当り
6
CONTINUOUS
62
2
100
AcDbLine
10
2516.592000000000
20
698.044000000000
30
0.0
11
2516.592000000000
21
703.045000000000
31
0.0
0
LINE
5
64a
100
AcDbEntity
8
0-6戸当り
6
CONTINUOUS
62
3
100
AcDbLine
10
2473.494000000000
20
716.187000000000
30
0.0
11
2475.094000000000
21
716.187000000000
31
0.0
0
LINE
5
64b
100
AcDbEntity
8
0-6戸当り
6
CONTINUOUS
62
3
100
AcDbLine
10
2473.494000000000
20
694.187000000000
30
0.0
11
2475.094000000000
21
694.187000000000
31
0.0
0
LINE
5
64c
100
AcDbEntity
8
0-6戸当り
6
CONTINUOUS
62
7
100
AcDbLine
10
2465.494000000000
20
713.687000000000
30
0.0
11
2466.254000000000
21
715.003000000000
31
0.0
0
POLYLINE
5
64d
100
AcDbEntity
8
0-6戸当り
6
CONTINUOUS
62
  7
100
AcDb2dPolyline
66
1
10
0.0
20
0.0
30
0.0
70
0
0
VERTEX
5
64e
100
AcDbEntity
8
0-6戸当り
6
CONTINUOUS
62
  7
100
AcDbVertex
100
AcDb2dVertex
10
2465.494000000000
20
713.687000000000
30
0.0
0
VERTEX
5
64f
100
AcDbEntity
8
0-6戸当り
6
CONTINUOUS
62
  7
100
AcDbVertex
100
AcDb2dVertex
10
2465.494000000000
20
696.687000000000
30
0.0
0
VERTEX
5
650
100
AcDbEntity
8
0-6戸当り
6
CONTINUOUS
62
  7
100
AcDbVertex
100
AcDb2dVertex
10
2466.254000000000
20
695.372000000000
30
0.0
0
SEQEND
5
651
100
AcDbEntity
8
0-6戸当り
0
LINE
5
652
100
AcDbEntity
8
0-6戸当り
6
CONTINUOUS
62
7
100
AcDbLine
10
2473.494000000000
20
695.372000000000
30
0.0
11
2466.254000000000
21
695.372000000000
31
0.0
0
LINE
5
653
100
AcDbEntity
8
0-6戸当り
6
CONTINUOUS
62
7
100
AcDbLine
10
2473.494000000000
20
710.095000000000
30
0.0
11
2466.254000000000
21
710.095000000000
31
0.0
0
LINE
5
654
100
AcDbEntity
8
0-6戸当り
6
CONTINUOUS
62
7
100
AcDbLine
10
2473.494000000000
20
700.280000000000
30
0.0
11
2466.254000000000
21
700.280000000000
31
0.0
0
LINE
5
655
100
AcDbEntity
8
0-6戸当り
6
CONTINUOUS
62
7
100
AcDbLine
10
2473.494000000000
20
715.003000000000
30
0.0
11
2466.254000000000
21
715.003000000000
31
0.0
0
LINE
5
656
100
AcDbEntity
8
0-6戸当り
6
CONTINUOUS
62
3
100
AcDbLine
10
2473.494000000000
20
694.187000000000
30
0.0
11
2473.494000000000
21
716.187000000000
31
0.0
0
LINE
5
657
100
AcDbEntity
8
0-6戸当り
6
CONTINUOUS
62
3
100
AcDbLine
10
2465.494000000000
20
700.187000000000
30
0.0
11
2460.809000000000
21
700.187000000000
31
0.0
0
LINE
5
658
100
AcDbEntity
8
0-6戸当り
6
CONTINUOUS
62
3
100
AcDbLine
10
2465.494000000000
20
710.188000000000
30
0.0
11
2460.809000000000
21
710.188000000000
31
0.0
0
LINE
5
659
100
AcDbEntity
8
0-6戸当り
6
CONTINUOUS
62
4
100
AcDbLine
10
2465.494000000000
20
701.188000000000
30
0.0
11
2460.577000000000
21
701.188000000000
31
0.0
0
LINE
5
65a
100
AcDbEntity
8
0-6戸当り
6
CONTINUOUS
62
4
100
AcDbLine
10
2465.494000000000
20
709.187000000000
30
0.0
11
2460.577000000000
21
709.187000000000
31
0.0
0
LINE
5
65b
100
AcDbEntity
8
0-6戸当り
6
CONTINUOUS
62
3
100
AcDbLine
10
2460.809000000000
20
700.187000000000
30
0.0
11
2460.809000000000
21
710.188000000000
31
0.0
0
LINE
5
65c
100
AcDbEntity
8
0-6戸当り
6
CONTINUOUS
62
2
100
AcDbLine
10
2520.808000000000
20
712.688000000000
30
0.0
11
2520.808000000000
21
707.687000000000
31
0.0
0
LINE
5
65d
100
AcDbEntity
8
0-6戸当り
6
CONTINUOUS
62
2
100
AcDbLine
10
2487.095000000000
20
710.187000000000
30
0.0
11
2491.296000000000
21
710.187000000000
31
0.0
0
LINE
5
65e
100
AcDbEntity
8
0-6戸当り
6
CONTINUOUS
62
2
100
AcDbLine
10
2487.095000000000
20
700.187000000000
30
0.0
11
2491.296000000000
21
700.187000000000
31
0.0
0
LINE
5
65f
100
AcDbEntity
8
0-5基準線
6
CENTER2
62
7
100
AcDbLine
10
2456.922000000001
20
705.187000000000
30
0.0
11
2525.877000000000
21
705.187000000000
31
0.0
0
LINE
5
660
100
AcDbEntity
8
0-6戸当り
6
CONTINUOUS
62
3
100
AcDbLine
10
1623.663000000000
20
714.987000000000
30
0.0
11
1615.176000000000
21
710.087000000000
31
0.0
0
LINE
5
661
100
AcDbEntity
8
0-6戸当り
6
CONTINUOUS
62
3
100
AcDbLine
10
1623.663000000000
20
695.387000000000
30
0.0
11
1615.176000000000
21
700.287000000000
31
0.0
0
LINE
5
662
100
AcDbEntity
8
0-6戸当り
6
CONTINUOUS
62
3
100
AcDbLine
10
1615.176000000000
20
710.087000000000
30
0.0
11
1615.176000000000
21
700.287000000000
31
0.0
0
LINE
5
663
100
AcDbEntity
8
0-6戸当り
6
CONTINUOUS
62
3
100
AcDbLine
10
1623.663000000000
20
695.387000000000
30
0.0
11
1632.150000000000
21
700.287000000000
31
0.0
0
LINE
5
664
100
AcDbEntity
8
0-6戸当り
6
CONTINUOUS
62
3
100
AcDbLine
10
1623.663000000000
20
714.987000000000
30
0.0
11
1632.150000000000
21
710.087000000000
31
0.0
0
LINE
5
665
100
AcDbEntity
8
0-6戸当り
6
CONTINUOUS
62
3
100
AcDbLine
10
1632.150000000000
20
700.287000000000
30
0.0
11
1632.150000000000
21
710.087000000000
31
0.0
0
LINE
5
666
100
AcDbEntity
8
0-5基準線
6
CENTER2
62
7
100
AcDbLine
10
1623.663000000000
20
690.187000000000
30
0.0
11
1623.663000000000
21
720.187000000000
31
0.0
0
LINE
5
667
100
AcDbEntity
8
0-5基準線
6
CENTER2
62
7
100
AcDbLine
10
1608.663000000000
20
705.187000000000
30
0.0
11
1638.662000000000
21
705.187000000000
31
0.0
0
LINE
5
668
100
AcDbEntity
8
0-6戸当り
6
CONTINUOUS
62
3
100
AcDbLine
10
1403.663000000000
20
714.987000000000
30
0.0
11
1395.176000000000
21
710.087000000000
31
0.0
0
LINE
5
669
100
AcDbEntity
8
0-6戸当り
6
CONTINUOUS
62
3
100
AcDbLine
10
1403.663000000000
20
695.387000000000
30
0.0
11
1395.176000000000
21
700.287000000000
31
0.0
0
LINE
5
66a
100
AcDbEntity
8
0-6戸当り
6
CONTINUOUS
62
3
100
AcDbLine
10
1395.176000000000
20
710.087000000000
30
0.0
11
1395.176000000000
21
700.287000000000
31
0.0
0
LINE
5
66b
100
AcDbEntity
8
0-6戸当り
6
CONTINUOUS
62
3
100
AcDbLine
10
1403.663000000000
20
695.387000000000
30
0.0
11
1412.150000000000
21
700.287000000000
31
0.0
0
LINE
5
66c
100
AcDbEntity
8
0-6戸当り
6
CONTINUOUS
62
3
100
AcDbLine
10
1403.663000000000
20
714.987000000000
30
0.0
11
1412.150000000000
21
710.087000000000
31
0.0
0
LINE
5
66d
100
AcDbEntity
8
0-6戸当り
6
CONTINUOUS
62
3
100
AcDbLine
10
1412.150000000000
20
700.287000000000
30
0.0
11
1412.150000000000
21
710.087000000000
31
0.0
0
LINE
5
66e
100
AcDbEntity
8
0-5基準線
6
CENTER2
62
7
100
AcDbLine
10
1403.663000000000
20
690.187000000000
30
0.0
11
1403.663000000000
21
720.187000000000
31
0.0
0
LINE
5
66f
100
AcDbEntity
8
0-5基準線
6
CENTER2
62
7
100
AcDbLine
10
1388.663000000000
20
705.187000000000
30
0.0
11
1418.663000000000
21
705.187000000000
31
0.0
0
LINE
5
670
100
AcDbEntity
8
0-6戸当り
6
CONTINUOUS
62
3
100
AcDbLine
10
963.663000000000
20
714.987000000000
30
0.0
11
972.150000000000
21
710.087000000000
31
0.0
0
LINE
5
671
100
AcDbEntity
8
0-6戸当り
6
CONTINUOUS
62
3
100
AcDbLine
10
963.663000000000
20
695.387000000000
30
0.0
11
972.150000000000
21
700.287000000000
31
0.0
0
LINE
5
672
100
AcDbEntity
8
0-6戸当り
6
CONTINUOUS
62
3
100
AcDbLine
10
972.150000000000
20
710.087000000000
30
0.0
11
972.150000000000
21
700.287000000000
31
0.0
0
LINE
5
673
100
AcDbEntity
8
0-6戸当り
6
CONTINUOUS
62
3
100
AcDbLine
10
963.663000000000
20
695.387000000000
30
0.0
11
955.176000000000
21
700.287000000000
31
0.0
0
LINE
5
674
100
AcDbEntity
8
0-6戸当り
6
CONTINUOUS
62
3
100
AcDbLine
10
963.663000000000
20
714.987000000000
30
0.0
11
955.176000000000
21
710.087000000000
31
0.0
0
LINE
5
675
100
AcDbEntity
8
0-6戸当り
6
CONTINUOUS
62
3
100
AcDbLine
10
955.176000000000
20
700.287000000000
30
0.0
11
955.176000000000
21
710.087000000000
31
0.0
0
LINE
5
676
100
AcDbEntity
8
0-5基準線
6
CENTER2
62
7
100
AcDbLine
10
963.663000000000
20
690.187000000000
30
0.0
11
963.663000000000
21
720.187000000000
31
0.0
0
LINE
5
677
100
AcDbEntity
8
0-5基準線
6
CENTER2
62
7
100
AcDbLine
10
978.663000000000
20
705.187000000000
30
0.0
11
948.663000000000
21
705.187000000000
31
0.0
0
LINE
5
678
100
AcDbEntity
8
0-6戸当り
6
CONTINUOUS
62
3
100
AcDbLine
10
1183.663000000000
20
714.987000000000
30
0.0
11
1192.150000000000
21
710.087000000000
31
0.0
0
LINE
5
679
100
AcDbEntity
8
0-6戸当り
6
CONTINUOUS
62
3
100
AcDbLine
10
1183.663000000000
20
695.387000000000
30
0.0
11
1192.150000000000
21
700.287000000000
31
0.0
0
LINE
5
67a
100
AcDbEntity
8
0-6戸当り
6
CONTINUOUS
62
3
100
AcDbLine
10
1192.150000000000
20
710.087000000000
30
0.0
11
1192.150000000000
21
700.287000000000
31
0.0
0
LINE
5
67b
100
AcDbEntity
8
0-6戸当り
6
CONTINUOUS
62
3
100
AcDbLine
10
1183.663000000000
20
695.387000000000
30
0.0
11
1175.176000000000
21
700.287000000000
31
0.0
0
LINE
5
67c
100
AcDbEntity
8
0-6戸当り
6
CONTINUOUS
62
3
100
AcDbLine
10
1183.663000000000
20
714.987000000000
30
0.0
11
1175.176000000000
21
710.087000000000
31
0.0
0
LINE
5
67d
100
AcDbEntity
8
0-6戸当り
6
CONTINUOUS
62
3
100
AcDbLine
10
1175.176000000000
20
700.287000000000
30
0.0
11
1175.176000000000
21
710.087000000000
31
0.0
0
LINE
5
67e
100
AcDbEntity
8
0-5基準線
6
CENTER2
62
7
100
AcDbLine
10
1183.663000000000
20
690.187000000000
30
0.0
11
1183.663000000000
21
720.187000000000
31
0.0
0
LINE
5
67f
100
AcDbEntity
8
0-5基準線
6
CENTER2
62
7
100
AcDbLine
10
1198.663000000000
20
705.187000000000
30
0.0
11
1168.663000000000
21
705.187000000000
31
0.0
0
LINE
5
680
100
AcDbEntity
8
0-8寸法
6
CONTINUOUS
62
4
100
AcDbLine
10
1643.663000000000
20
435.188000000000
30
0.0
11
1662.981000000000
21
440.364000000000
31
0.0
0
LINE
5
681
100
AcDbEntity
8
0-8寸法
6
CONTINUOUS
62
4
100
AcDbLine
10
1643.663000000000
20
435.188000000000
30
0.0
11
1662.981000000000
21
430.011000000000
31
0.0
0
LINE
5
682
100
AcDbEntity
8
0-8寸法
6
CONTINUOUS
62
4
100
AcDbLine
10
943.663000000000
20
335.188000000000
30
0.0
11
1643.663000000000
21
335.188000000000
31
0.0
0
LINE
5
683
100
AcDbEntity
8
0-8寸法
6
CONTINUOUS
62
4
100
AcDbLine
10
943.663000000000
20
335.188000000000
30
0.0
11
962.981000000000
21
340.364000000000
31
0.0
0
LINE
5
684
100
AcDbEntity
8
0-8寸法
6
CONTINUOUS
62
4
100
AcDbLine
10
943.663000000000
20
335.188000000000
30
0.0
11
962.981000000000
21
330.011000000000
31
0.0
0
LINE
5
685
100
AcDbEntity
8
0-8寸法
6
CONTINUOUS
62
4
100
AcDbLine
10
1643.663000000000
20
335.188000000000
30
0.0
11
1624.344000000000
21
340.364000000000
31
0.0
0
LINE
5
686
100
AcDbEntity
8
0-8寸法
6
CONTINUOUS
62
4
100
AcDbLine
10
1643.663000000000
20
335.188000000000
30
0.0
11
1624.344000000000
21
330.011000000000
31
0.0
0
LINE
5
687
100
AcDbEntity
8
0-8寸法
6
CONTINUOUS
62
4
100
AcDbLine
10
1623.663000000000
20
435.188000000000
30
0.0
11
1718.808000000000
21
435.188000000000
31
0.0
0
LINE
5
688
100
AcDbEntity
8
0-8寸法
6
CONTINUOUS
62
4
100
AcDbLine
10
943.663000000000
20
673.958000000000
30
0.0
11
943.663000000000
21
325.188000000000
31
0.0
0
LINE
5
689
100
AcDbEntity
8
0-8寸法
6
CONTINUOUS
62
4
100
AcDbLine
10
1623.663000000000
20
673.958000000000
30
0.0
11
1623.663000000000
21
425.188000000000
31
0.0
0
LINE
5
68a
100
AcDbEntity
8
0-8寸法
6
CONTINUOUS
62
4
100
AcDbLine
10
1643.663000000000
20
673.958000000000
30
0.0
11
1643.663000000000
21
325.188000000000
31
0.0
0
LINE
5
68b
100
AcDbEntity
8
0-8寸法
6
CONTINUOUS
62
4
100
AcDbLine
10
943.663000000000
20
435.188000000000
30
0.0
11
924.344000000000
21
440.364000000000
31
0.0
0
LINE
5
68c
100
AcDbEntity
8
0-8寸法
6
CONTINUOUS
62
4
100
AcDbLine
10
943.663000000000
20
435.188000000000
30
0.0
11
924.344000000000
21
430.011000000000
31
0.0
0
LINE
5
68d
100
AcDbEntity
8
0-8寸法
6
CONTINUOUS
62
4
100
AcDbLine
10
963.663000000000
20
435.188000000000
30
0.0
11
868.517000000000
21
435.188000000000
31
0.0
0
LINE
5
68e
100
AcDbEntity
8
0-8寸法
6
CONTINUOUS
62
4
100
AcDbLine
10
963.663000000000
20
673.958000000000
30
0.0
11
963.663000000000
21
425.188000000000
31
0.0
0
LINE
5
68f
100
AcDbEntity
8
0-5基準線
6
CENTER2
62
7
100
AcDbLine
10
1063.663000000000
20
1385.188000000000
30
0.0
11
1163.663000000000
21
1385.188000000000
31
0.0
0
LINE
5
690
100
AcDbEntity
8
0-5基準線
6
CENTER2
62
7
100
AcDbLine
10
1523.662000000000
20
1385.188000000000
30
0.0
11
1423.663000000000
21
1385.188000000000
31
0.0
0
LINE
5
691
100
AcDbEntity
8
0-5基準線
6
CENTER2
62
7
100
AcDbLine
10
1293.663000000000
20
1485.187000000000
30
0.0
11
1293.663000000000
21
1122.264000000000
31
0.0
0
LINE
5
692
100
AcDbEntity
8
0-5基準線
6
CENTER2
62
7
100
AcDbLine
10
1113.663000000000
20
1428.137000000000
30
0.0
11
1113.663000000000
21
1323.723000000000
31
0.0
0
LINE
5
693
100
AcDbEntity
8
0-5基準線
6
CENTER2
62
7
100
AcDbLine
10
1473.663000000000
20
1428.137000000000
30
0.0
11
1473.663000000000
21
1323.723000000000
31
0.0
0
LINE
5
694
100
AcDbEntity
8
0-5基準線
6
CENTER2
62
7
100
AcDbLine
10
1043.663000000000
20
1432.187000000000
30
0.0
11
1043.663000000000
21
1398.188000000000
31
0.0
0
LINE
5
695
100
AcDbEntity
8
0-5基準線
6
CENTER2
62
7
100
AcDbLine
10
1060.663000000000
20
1415.187000000000
30
0.0
11
1026.663000000001
21
1415.187000000000
31
0.0
0
LINE
5
696
100
AcDbEntity
8
0-6戸当り
6
CONTINUOUS
62
3
100
AcDbLine
10
963.663000000000
20
1374.987000000000
30
0.0
11
972.150000000000
21
1370.087000000000
31
0.0
0
LINE
5
697
100
AcDbEntity
8
0-6戸当り
6
CONTINUOUS
62
3
100
AcDbLine
10
963.663000000000
20
1355.387000000000
30
0.0
11
972.150000000000
21
1360.288000000000
31
0.0
0
LINE
5
698
100
AcDbEntity
8
0-6戸当り
6
CONTINUOUS
62
3
100
AcDbLine
10
972.150000000000
20
1370.087000000000
30
0.0
11
972.150000000000
21
1360.288000000000
31
0.0
0
LINE
5
699
100
AcDbEntity
8
0-6戸当り
6
CONTINUOUS
62
3
100
AcDbLine
10
963.663000000000
20
1355.387000000000
30
0.0
11
955.176000000000
21
1360.288000000000
31
0.0
0
LINE
5
69a
100
AcDbEntity
8
0-6戸当り
6
CONTINUOUS
62
3
100
AcDbLine
10
963.663000000000
20
1374.987000000000
30
0.0
11
955.176000000000
21
1370.087000000000
31
0.0
0
LINE
5
69b
100
AcDbEntity
8
0-6戸当り
6
CONTINUOUS
62
3
100
AcDbLine
10
955.176000000000
20
1360.288000000000
30
0.0
11
955.176000000000
21
1370.087000000000
31
0.0
0
LINE
5
69c
100
AcDbEntity
8
0-5基準線
6
CENTER2
62
7
100
AcDbLine
10
963.663000000000
20
1350.188000000000
30
0.0
11
963.663000000000
21
1380.187000000000
31
0.0
0
LINE
5
69d
100
AcDbEntity
8
0-5基準線
6
CENTER2
62
7
100
AcDbLine
10
978.663000000000
20
1365.187000000000
30
0.0
11
948.663000000000
21
1365.187000000000
31
0.0
0
LINE
5
69e
100
AcDbEntity
8
0-6戸当り
6
CONTINUOUS
62
3
100
AcDbLine
10
1623.663000000000
20
1374.987000000000
30
0.0
11
1615.176000000000
21
1370.087000000000
31
0.0
0
LINE
5
69f
100
AcDbEntity
8
0-6戸当り
6
CONTINUOUS
62
3
100
AcDbLine
10
1623.663000000000
20
1355.387000000000
30
0.0
11
1615.176000000000
21
1360.288000000000
31
0.0
0
LINE
5
6a0
100
AcDbEntity
8
0-6戸当り
6
CONTINUOUS
62
3
100
AcDbLine
10
1615.176000000000
20
1370.087000000000
30
0.0
11
1615.176000000000
21
1360.288000000000
31
0.0
0
LINE
5
6a1
100
AcDbEntity
8
0-6戸当り
6
CONTINUOUS
62
3
100
AcDbLine
10
1623.663000000000
20
1355.387000000000
30
0.0
11
1632.150000000000
21
1360.288000000000
31
0.0
0
LINE
5
6a2
100
AcDbEntity
8
0-6戸当り
6
CONTINUOUS
62
3
100
AcDbLine
10
1623.663000000000
20
1374.987000000000
30
0.0
11
1632.150000000000
21
1370.087000000000
31
0.0
0
LINE
5
6a3
100
AcDbEntity
8
0-6戸当り
6
CONTINUOUS
62
3
100
AcDbLine
10
1632.150000000000
20
1360.288000000000
30
0.0
11
1632.150000000000
21
1370.087000000000
31
0.0
0
LINE
5
6a4
100
AcDbEntity
8
0-5基準線
6
CENTER2
62
7
100
AcDbLine
10
1623.663000000000
20
1350.188000000000
30
0.0
11
1623.663000000000
21
1380.187000000000
31
0.0
0
LINE
5
6a5
100
AcDbEntity
8
0-5基準線
6
CENTER2
62
7
100
AcDbLine
10
1608.663000000000
20
1365.187000000000
30
0.0
11
1638.662000000000
21
1365.187000000000
31
0.0
0
LINE
5
6a6
100
AcDbEntity
8
0-6戸当り
6
CONTINUOUS
62
7
100
AcDbLine
10
1534.163000000000
20
1420.672000000000
30
0.0
11
1543.663000000000
21
1426.157000000000
31
0.0
0
LINE
5
6a7
100
AcDbEntity
8
0-6戸当り
6
CONTINUOUS
62
7
100
AcDbLine
10
1534.163000000000
20
1420.672000000000
30
0.0
11
1534.163000000000
21
1409.703000000000
31
0.0
0
LINE
5
6a8
100
AcDbEntity
8
0-6戸当り
6
CONTINUOUS
62
7
100
AcDbLine
10
1543.663000000000
20
1404.218000000000
30
0.0
11
1534.163000000000
21
1409.703000000000
31
0.0
0
POLYLINE
5
6a9
100
AcDbEntity
8
0-6戸当り
6
CONTINUOUS
62
  7
100
AcDb2dPolyline
66
1
10
0.0
20
0.0
30
0.0
70
0
0
VERTEX
5
6aa
100
AcDbEntity
8
0-6戸当り
6
CONTINUOUS
62
  7
100
AcDbVertex
100
AcDb2dVertex
10
1543.663000000000
20
1404.218000000000
30
0.0
0
VERTEX
5
6ab
100
AcDbEntity
8
0-6戸当り
6
CONTINUOUS
62
  7
100
AcDbVertex
100
AcDb2dVertex
10
1553.163000000000
20
1409.703000000000
30
0.0
0
VERTEX
5
6ac
100
AcDbEntity
8
0-6戸当り
6
CONTINUOUS
62
  7
100
AcDbVertex
100
AcDb2dVertex
10
1553.163000000000
20
1420.672000000000
30
0.0
0
VERTEX
5
6ad
100
AcDbEntity
8
0-6戸当り
6
CONTINUOUS
62
  7
100
AcDbVertex
100
AcDb2dVertex
10
1543.663000000000
20
1426.157000000000
30
0.0
0
SEQEND
5
6ae
100
AcDbEntity
8
0-6戸当り
0
LINE
5
6af
100
AcDbEntity
8
0-5基準線
6
CENTER2
62
7
100
AcDbLine
10
1543.663000000000
20
1432.187000000000
30
0.0
11
1543.663000000000
21
1398.188000000000
31
0.0
0
LINE
5
6b0
100
AcDbEntity
8
0-5基準線
6
CENTER2
62
7
100
AcDbLine
10
1526.663000000000
20
1415.187000000000
30
0.0
11
1560.663000000000
21
1415.187000000000
31
0.0
0
LINE
5
6b1
100
AcDbEntity
8
0-8寸法
6
CONTINUOUS
62
4
100
AcDbLine
10
919.894000000000
20
705.187000000000
30
0.0
11
683.663000000000
21
705.187000000000
31
0.0
0
LINE
5
6b2
100
AcDbEntity
8
0-8寸法
6
CONTINUOUS
62
4
100
AcDbLine
10
693.663000000000
20
685.187000000000
30
0.0
11
688.486000000000
21
665.869000000000
31
0.0
0
LINE
5
6b3
100
AcDbEntity
8
0-8寸法
6
CONTINUOUS
62
4
100
AcDbLine
10
693.663000000000
20
685.187000000000
30
0.0
11
698.839000000000
21
665.869000000000
31
0.0
0
LINE
5
6b4
100
AcDbEntity
8
0-8寸法
6
CONTINUOUS
62
4
100
AcDbLine
10
693.663000000000
20
705.187000000000
30
0.0
11
693.663000000000
21
610.042000000000
31
0.0
0
LINE
5
6b5
100
AcDbEntity
8
0-8寸法
6
CONTINUOUS
62
4
100
AcDbLine
10
593.663000000000
20
685.187000000000
30
0.0
11
593.663000000000
21
1435.187000000000
31
0.0
0
LINE
5
6b6
100
AcDbEntity
8
0-8寸法
6
CONTINUOUS
62
4
100
AcDbLine
10
919.894000000000
20
685.187000000000
30
0.0
11
583.663000000000
21
685.187000000000
31
0.0
0
LINE
5
6b7
100
AcDbEntity
8
0-8寸法
6
CONTINUOUS
62
4
100
AcDbLine
10
919.894000000000
20
1435.187000000000
30
0.0
11
583.663000000000
21
1435.187000000000
31
0.0
0
LINE
5
6b8
100
AcDbEntity
8
0-8寸法
6
CONTINUOUS
62
4
100
AcDbLine
10
593.663000000000
20
685.187000000000
30
0.0
11
588.486000000000
21
704.506000000000
31
0.0
0
LINE
5
6b9
100
AcDbEntity
8
0-8寸法
6
CONTINUOUS
62
4
100
AcDbLine
10
593.663000000000
20
685.187000000000
30
0.0
11
598.839000000000
21
704.506000000000
31
0.0
0
LINE
5
6ba
100
AcDbEntity
8
0-8寸法
6
CONTINUOUS
62
4
100
AcDbLine
10
593.663000000000
20
1435.187000000000
30
0.0
11
588.486000000000
21
1415.869000000000
31
0.0
0
LINE
5
6bb
100
AcDbEntity
8
0-8寸法
6
CONTINUOUS
62
4
100
AcDbLine
10
593.663000000000
20
1435.187000000000
30
0.0
11
598.839000000000
21
1415.869000000000
31
0.0
0
LINE
5
6bc
100
AcDbEntity
8
0-6戸当り
6
CONTINUOUS
62
3
100
AcDbLine
10
2472.695000000000
20
1402.188000000000
30
0.0
11
2472.695000000000
21
1428.188000000000
31
0.0
0
LINE
5
6bd
100
AcDbEntity
8
0-6戸当り
6
CONTINUOUS
62
2
100
AcDbLine
10
2472.695000000000
20
1402.188000000000
30
0.0
11
2475.094000000000
21
1402.188000000000
31
0.0
0
LINE
5
6be
100
AcDbEntity
8
0-6戸当り
6
CONTINUOUS
62
2
100
AcDbLine
10
2472.695000000000
20
1428.188000000000
30
0.0
11
2475.094000000000
21
1428.188000000000
31
0.0
0
LINE
5
6bf
100
AcDbEntity
8
0-8寸法
6
CONTINUOUS
62
4
100
AcDbLine
10
2475.094000000000
20
1635.187000000000
30
0.0
11
2361.254000000000
21
1635.187000000000
31
0.0
0
LINE
5
6c0
100
AcDbEntity
8
0-8寸法
6
CONTINUOUS
62
4
100
AcDbLine
10
2441.094000000000
20
1422.715000000000
30
0.0
11
2441.094000000000
21
1645.188000000000
31
0.0
0
LINE
5
6c1
100
AcDbEntity
8
0-8寸法
6
CONTINUOUS
62
4
100
AcDbLine
10
2487.095000000000
20
1635.187000000000
30
0.0
11
2506.413000000001
21
1640.364000000000
31
0.0
0
LINE
5
6c2
100
AcDbEntity
8
0-8寸法
6
CONTINUOUS
62
4
100
AcDbLine
10
2487.095000000000
20
1635.187000000000
30
0.0
11
2506.413000000001
21
1630.011000000000
31
0.0
0
LINE
5
6c3
100
AcDbEntity
8
0-8寸法
6
CONTINUOUS
62
4
100
AcDbLine
10
2574.846000000001
20
1635.187000000000
30
0.0
11
2475.094000000000
21
1635.187000000000
31
0.0
0
LINE
5
6c4
100
AcDbEntity
8
0-8寸法
6
CONTINUOUS
62
4
100
AcDbLine
10
2475.094000000000
20
1441.001000000000
30
0.0
11
2475.094000000000
21
1645.188000000000
31
0.0
0
LINE
5
6c5
100
AcDbEntity
8
0-8寸法
6
CONTINUOUS
62
4
100
AcDbLine
10
2487.095000000000
20
1543.013000000000
30
0.0
11
2487.095000000000
21
1645.188000000000
31
0.0
0
LINE
5
6c6
100
AcDbEntity
8
0-5基準線
6
CENTER2
62
7
100
AcDbLine
10
1293.663000000000
20
958.711000000000
30
0.0
11
1293.663000000000
21
635.188000000000
31
0.0
0
LINE
5
6c7
100
AcDbEntity
8
0-8寸法
6
CONTINUOUS
62
4
100
AcDbLine
10
2787.095000000000
20
685.188000000000
30
0.0
11
2787.095000000000
21
785.188000000000
31
0.0
0
LINE
5
6c8
100
AcDbEntity
8
0-8寸法
6
CONTINUOUS
62
4
100
AcDbLine
10
2787.095000000000
20
685.188000000000
30
0.0
11
2781.918000000001
21
704.506000000000
31
0.0
0
LINE
5
6c9
100
AcDbEntity
8
0-8寸法
6
CONTINUOUS
62
4
100
AcDbLine
10
2787.095000000000
20
685.188000000000
30
0.0
11
2792.271000000000
21
704.506000000000
31
0.0
0
LINE
5
6ca
100
AcDbEntity
8
0-8寸法
6
CONTINUOUS
62
4
100
AcDbLine
10
2787.095000000000
20
785.188000000000
30
0.0
11
2781.918000000001
21
765.870000000000
31
0.0
0
LINE
5
6cb
100
AcDbEntity
8
0-8寸法
6
CONTINUOUS
62
4
100
AcDbLine
10
2787.095000000000
20
785.188000000000
30
0.0
11
2792.271000000000
21
765.870000000000
31
0.0
0
LINE
5
6cc
100
AcDbEntity
8
0-8寸法
6
CONTINUOUS
62
4
100
AcDbLine
10
2787.095000000000
20
1285.187000000000
30
0.0
11
2787.095000000000
21
1435.187000000000
31
0.0
0
LINE
5
6cd
100
AcDbEntity
8
0-8寸法
6
CONTINUOUS
62
4
100
AcDbLine
10
2787.095000000000
20
1285.187000000000
30
0.0
11
2781.918000000001
21
1304.506000000000
31
0.0
0
LINE
5
6ce
100
AcDbEntity
8
0-8寸法
6
CONTINUOUS
62
4
100
AcDbLine
10
2787.095000000000
20
1285.187000000000
30
0.0
11
2792.271000000000
21
1304.506000000000
31
0.0
0
LINE
5
6cf
100
AcDbEntity
8
0-8寸法
6
CONTINUOUS
62
4
100
AcDbLine
10
2787.095000000000
20
1435.187000000000
30
0.0
11
2781.918000000001
21
1415.869000000000
31
0.0
0
LINE
5
6d0
100
AcDbEntity
8
0-8寸法
6
CONTINUOUS
62
4
100
AcDbLine
10
2787.095000000000
20
1435.187000000000
30
0.0
11
2792.271000000000
21
1415.869000000000
31
0.0
0
LINE
5
6d1
100
AcDbEntity
8
0-8寸法
6
CONTINUOUS
62
4
100
AcDbLine
10
2491.774000000000
20
1435.187000000000
30
0.0
11
2797.095000000000
21
1435.187000000000
31
0.0
0
LINE
5
6d2
100
AcDbEntity
8
0-8寸法
6
CONTINUOUS
62
4
100
AcDbLine
10
2491.774000000000
20
685.188000000000
30
0.0
11
2797.095000000000
21
685.188000000000
31
0.0
0
LINE
5
6d3
100
AcDbEntity
8
0-8寸法
6
CONTINUOUS
62
4
100
AcDbLine
10
2475.094000000000
20
985.188000000000
30
0.0
11
2494.413000000001
21
990.364000000000
31
0.0
0
LINE
5
6d4
100
AcDbEntity
8
0-8寸法
6
CONTINUOUS
62
4
100
AcDbLine
10
2475.094000000000
20
985.188000000000
30
0.0
11
2494.413000000001
21
980.011000000000
31
0.0
0
LINE
5
6d5
100
AcDbEntity
8
0-8寸法
6
CONTINUOUS
62
4
100
AcDbLine
10
2455.094000000000
20
985.188000000000
30
0.0
11
2435.776000000000
21
990.364000000000
31
0.0
0
LINE
5
6d6
100
AcDbEntity
8
0-8寸法
6
CONTINUOUS
62
4
100
AcDbLine
10
2455.094000000000
20
985.188000000000
30
0.0
11
2435.776000000000
21
980.011000000000
31
0.0
0
LINE
5
6d7
100
AcDbEntity
8
0-3RC
6
CONTINUOUS
62
6
100
AcDbLine
10
2487.095000000000
20
976.115000000000
30
0.0
11
2487.095000000000
21
585.188000000000
31
0.0
0
LINE
5
6d8
100
AcDbEntity
8
0-6戸当り
6
CONTINUOUS
62
6
100
AcDbLine
10
2475.094000000000
20
1069.454000000000
30
0.0
11
2475.094000000000
21
685.188000000000
31
0.0
0
LINE
5
6d9
100
AcDbEntity
8
0-6戸当り
6
CONTINUOUS
62
6
100
AcDbLine
10
2475.094000000000
20
1435.187000000000
30
0.0
11
2475.094000000000
21
1102.005000000000
31
0.0
0
LINE
5
6da
100
AcDbEntity
8
0-8寸法
6
CONTINUOUS
62
4
100
AcDbLine
10
1808.772000000000
20
335.188000000000
30
0.0
11
2352.095000000000
21
335.188000000000
31
0.0
0
LINE
5
6db
100
AcDbEntity
8
0-8寸法
6
CONTINUOUS
62
4
100
AcDbLine
10
361.380000000000
20
1560.188000000000
30
0.0
11
993.663000000000
21
1560.188000000000
31
0.0
0
LINE
5
6dc
100
AcDbEntity
8
0-8寸法
6
CONTINUOUS
62
4
100
AcDbLine
10
993.663000000000
20
1760.188000000000
30
0.0
11
993.663000000000
21
1560.188000000000
31
0.0
0
LINE
5
6dd
100
AcDbEntity
8
0-9扉体
6
CONTINUOUS
62
6
100
AcDbLine
10
1070.163000000000
20
2266.647000000000
30
0.0
11
1070.163000000000
21
2250.647000000000
31
0.0
0
LINE
5
6de
100
AcDbEntity
8
0-9扉体
6
CONTINUOUS
62
6
100
AcDbLine
10
1070.163000000000
20
2266.647000000000
30
0.0
11
1081.063000000000
21
2266.647000000000
31
0.0
0
LINE
5
6df
100
AcDbEntity
8
0-9扉体
6
CONTINUOUS
62
6
100
AcDbLine
10
1157.163000000000
20
2266.647000000000
30
0.0
11
1146.262000000000
21
2266.647000000000
31
0.0
0
LINE
5
6e0
100
AcDbEntity
8
0-9扉体
6
CONTINUOUS
62
6
100
AcDbLine
10
1157.163000000000
20
2266.647000000000
30
0.0
11
1157.163000000000
21
2250.647000000000
31
0.0
0
LINE
5
6e1
100
AcDbEntity
8
0-3RC
6
CONTINUOUS
62
6
100
AcDbLine
10
843.663000000000
20
2304.647000000000
30
0.0
11
1743.662000000000
21
2304.647000000000
31
0.0
0
LINE
5
6e2
100
AcDbEntity
8
0-6戸当り
6
CONTINUOUS
62
6
100
AcDbLine
10
943.663000000000
20
2292.647000000000
30
0.0
11
943.663000000000
21
2304.647000000000
31
0.0
0
LINE
5
6e3
100
AcDbEntity
8
0-6戸当り
6
CONTINUOUS
62
7
100
AcDbLine
10
943.663000000000
20
2292.647000000000
30
0.0
11
1643.663000000000
21
2292.647000000000
31
0.0
0
LINE
5
6e4
100
AcDbEntity
8
0-6戸当り
6
CONTINUOUS
62
6
100
AcDbLine
10
1643.663000000000
20
2292.647000000000
30
0.0
11
1643.663000000000
21
2304.647000000000
31
0.0
0
LINE
5
6e5
100
AcDbEntity
8
0-6戸当り
6
CONTINUOUS
62
2
100
AcDbLine
10
1618.663000000000
20
2308.849000000000
30
0.0
11
1616.162000000000
21
2338.361000000000
31
0.0
0
LINE
5
6e6
100
AcDbEntity
8
0-6戸当り
6
CONTINUOUS
62
2
100
AcDbLine
10
1623.663000000000
20
2308.849000000000
30
0.0
11
1621.163000000000
21
2338.361000000000
31
0.0
0
LINE
5
6e7
100
AcDbEntity
8
0-6戸当り
6
CONTINUOUS
62
2
100
AcDbLine
10
1618.663000000000
20
2308.849000000000
30
0.0
11
1628.663000000000
21
2308.849000000000
31
0.0
0
LINE
5
6e8
100
AcDbEntity
8
0-6戸当り
6
CONTINUOUS
62
2
100
AcDbLine
10
1618.305000000000
20
2313.065000000000
30
0.0
11
1623.306000000000
21
2313.065000000000
31
0.0
0
LINE
5
6e9
100
AcDbEntity
8
0-6戸当り
6
CONTINUOUS
62
2
100
AcDbLine
10
1617.948000000000
20
2317.281000000000
30
0.0
11
1622.949000000000
21
2317.281000000000
31
0.0
0
LINE
5
6ea
100
AcDbEntity
8
0-6戸当り
6
CONTINUOUS
62
2
100
AcDbLine
10
1617.591000000000
20
2321.497000000000
30
0.0
11
1622.591000000000
21
2321.497000000000
31
0.0
0
LINE
5
6eb
100
AcDbEntity
8
0-6戸当り
6
CONTINUOUS
62
2
100
AcDbLine
10
1617.234000000000
20
2325.713000000000
30
0.0
11
1622.234000000000
21
2325.713000000000
31
0.0
0
LINE
5
6ec
100
AcDbEntity
8
0-6戸当り
6
CONTINUOUS
62
2
100
AcDbLine
10
1616.877000000000
20
2329.929000000000
30
0.0
11
1621.877000000000
21
2329.929000000000
31
0.0
0
LINE
5
6ed
100
AcDbEntity
8
0-6戸当り
6
CONTINUOUS
62
2
100
AcDbLine
10
1616.520000000000
20
2334.145000000000
30
0.0
11
1621.520000000000
21
2334.145000000000
31
0.0
0
POLYLINE
5
6ee
100
AcDbEntity
8
0-6戸当り
6
CONTINUOUS
62
  2
100
AcDb2dPolyline
66
1
10
0.0
20
0.0
30
0.0
70
0
0
VERTEX
5
6ef
100
AcDbEntity
8
0-6戸当り
6
CONTINUOUS
62
  2
100
AcDbVertex
100
AcDb2dVertex
10
1628.663000000000
20
2308.849000000000
30
0.0
0
VERTEX
5
6f0
100
AcDbEntity
8
0-6戸当り
6
CONTINUOUS
62
  2
100
AcDbVertex
100
AcDb2dVertex
10
1631.163000000000
20
2338.361000000000
30
0.0
0
VERTEX
5
6f1
100
AcDbEntity
8
0-6戸当り
6
CONTINUOUS
62
  2
100
AcDbVertex
100
AcDb2dVertex
10
1626.162000000000
20
2338.361000000000
30
0.0
0
SEQEND
5
6f2
100
AcDbEntity
8
0-6戸当り
0
LINE
5
6f3
100
AcDbEntity
8
0-6戸当り
6
CONTINUOUS
62
2
100
AcDbLine
10
1623.663000000000
20
2308.849000000000
30
0.0
11
1626.162000000000
21
2338.361000000000
31
0.0
0
LINE
5
6f4
100
AcDbEntity
8
0-6戸当り
6
CONTINUOUS
62
2
100
AcDbLine
10
1629.020000000000
20
2313.065000000000
30
0.0
11
1624.020000000000
21
2313.065000000000
31
0.0
0
LINE
5
6f5
100
AcDbEntity
8
0-6戸当り
6
CONTINUOUS
62
2
100
AcDbLine
10
1629.376000000000
20
2317.281000000000
30
0.0
11
1624.377000000000
21
2317.281000000000
31
0.0
0
LINE
5
6f6
100
AcDbEntity
8
0-6戸当り
6
CONTINUOUS
62
2
100
AcDbLine
10
1629.734000000000
20
2321.497000000000
30
0.0
11
1624.734000000000
21
2321.497000000000
31
0.0
0
LINE
5
6f7
100
AcDbEntity
8
0-6戸当り
6
CONTINUOUS
62
2
100
AcDbLine
10
1630.091000000000
20
2325.713000000000
30
0.0
11
1625.091000000000
21
2325.713000000000
31
0.0
0
LINE
5
6f8
100
AcDbEntity
8
0-6戸当り
6
CONTINUOUS
62
2
100
AcDbLine
10
1630.448000000000
20
2329.929000000000
30
0.0
11
1625.449000000000
21
2329.929000000000
31
0.0
0
LINE
5
6f9
100
AcDbEntity
8
0-6戸当り
6
CONTINUOUS
62
2
100
AcDbLine
10
1630.806000000000
20
2334.145000000000
30
0.0
11
1625.805000000000
21
2334.145000000000
31
0.0
0
LINE
5
6fa
100
AcDbEntity
8
0-6戸当り
6
CONTINUOUS
62
3
100
AcDbLine
10
1612.663000000000
20
2291.047000000000
30
0.0
11
1612.663000000000
21
2292.647000000000
31
0.0
0
LINE
5
6fb
100
AcDbEntity
8
0-6戸当り
6
CONTINUOUS
62
3
100
AcDbLine
10
1634.663000000000
20
2291.047000000000
30
0.0
11
1634.663000000000
21
2292.647000000000
31
0.0
0
LINE
5
6fc
100
AcDbEntity
8
0-6戸当り
6
CONTINUOUS
62
7
100
AcDbLine
10
1615.163000000000
20
2283.047000000000
30
0.0
11
1613.847000000000
21
2283.806000000000
31
0.0
0
POLYLINE
5
6fd
100
AcDbEntity
8
0-6戸当り
6
CONTINUOUS
62
  7
100
AcDb2dPolyline
66
1
10
0.0
20
0.0
30
0.0
70
0
0
VERTEX
5
6fe
100
AcDbEntity
8
0-6戸当り
6
CONTINUOUS
62
  7
100
AcDbVertex
100
AcDb2dVertex
10
1615.163000000000
20
2283.047000000000
30
0.0
0
VERTEX
5
6ff
100
AcDbEntity
8
0-6戸当り
6
CONTINUOUS
62
  7
100
AcDbVertex
100
AcDb2dVertex
10
1632.163000000000
20
2283.047000000000
30
0.0
0
VERTEX
5
700
100
AcDbEntity
8
0-6戸当り
6
CONTINUOUS
62
  7
100
AcDbVertex
100
AcDb2dVertex
10
1633.478000000000
20
2283.806000000000
30
0.0
0
SEQEND
5
701
100
AcDbEntity
8
0-6戸当り
0
LINE
5
702
100
AcDbEntity
8
0-6戸当り
6
CONTINUOUS
62
7
100
AcDbLine
10
1633.478000000000
20
2291.047000000000
30
0.0
11
1633.478000000000
21
2283.806000000000
31
0.0
0
LINE
5
703
100
AcDbEntity
8
0-6戸当り
6
CONTINUOUS
62
7
100
AcDbLine
10
1618.755000000000
20
2291.047000000000
30
0.0
11
1618.755000000000
21
2283.806000000000
31
0.0
0
LINE
5
704
100
AcDbEntity
8
0-6戸当り
6
CONTINUOUS
62
7
100
AcDbLine
10
1628.570000000000
20
2291.047000000000
30
0.0
11
1628.570000000000
21
2283.806000000000
31
0.0
0
LINE
5
705
100
AcDbEntity
8
0-6戸当り
6
CONTINUOUS
62
7
100
AcDbLine
10
1613.847000000000
20
2291.047000000000
30
0.0
11
1613.847000000000
21
2283.806000000000
31
0.0
0
LINE
5
706
100
AcDbEntity
8
0-6戸当り
6
CONTINUOUS
62
3
100
AcDbLine
10
1634.663000000000
20
2291.047000000000
30
0.0
11
1612.663000000000
21
2291.047000000000
31
0.0
0
LINE
5
707
100
AcDbEntity
8
0-6戸当り
6
CONTINUOUS
62
3
100
AcDbLine
10
1628.663000000000
20
2283.047000000000
30
0.0
11
1628.663000000000
21
2278.361000000000
31
0.0
0
LINE
5
708
100
AcDbEntity
8
0-6戸当り
6
CONTINUOUS
62
3
100
AcDbLine
10
1618.662000000000
20
2283.047000000000
30
0.0
11
1618.662000000000
21
2278.361000000000
31
0.0
0
LINE
5
709
100
AcDbEntity
8
0-6戸当り
6
CONTINUOUS
62
4
100
AcDbLine
10
1627.662000000000
20
2283.047000000000
30
0.0
11
1627.662000000000
21
2278.130000000000
31
0.0
0
LINE
5
70a
100
AcDbEntity
8
0-6戸当り
6
CONTINUOUS
62
4
100
AcDbLine
10
1619.663000000000
20
2283.047000000000
30
0.0
11
1619.663000000000
21
2278.130000000000
31
0.0
0
LINE
5
70b
100
AcDbEntity
8
0-6戸当り
6
CONTINUOUS
62
3
100
AcDbLine
10
1628.663000000000
20
2278.361000000000
30
0.0
11
1618.662000000000
21
2278.361000000000
31
0.0
0
LINE
5
70c
100
AcDbEntity
8
0-6戸当り
6
CONTINUOUS
62
2
100
AcDbLine
10
1616.162000000000
20
2338.361000000000
30
0.0
11
1621.163000000000
21
2338.361000000000
31
0.0
0
LINE
5
70d
100
AcDbEntity
8
0-6戸当り
6
CONTINUOUS
62
2
100
AcDbLine
10
1618.663000000000
20
2304.648000000000
30
0.0
11
1618.663000000000
21
2308.849000000000
31
0.0
0
LINE
5
70e
100
AcDbEntity
8
0-6戸当り
6
CONTINUOUS
62
2
100
AcDbLine
10
1628.663000000000
20
2304.648000000000
30
0.0
11
1628.663000000000
21
2308.849000000000
31
0.0
0
LINE
5
70f
100
AcDbEntity
8
0-5基準線
6
CENTER2
62
7
100
AcDbLine
10
1623.663000000000
20
2274.474000000000
30
0.0
11
1623.663000000000
21
2343.430000000000
31
0.0
0
LINE
5
710
100
AcDbEntity
8
0-6戸当り
6
CONTINUOUS
62
3
100
AcDbLine
10
974.663000000000
20
2291.047000000000
30
0.0
11
974.663000000000
21
2292.647000000000
31
0.0
0
LINE
5
711
100
AcDbEntity
8
0-6戸当り
6
CONTINUOUS
62
3
100
AcDbLine
10
952.662000000000
20
2291.047000000000
30
0.0
11
952.662000000000
21
2292.647000000000
31
0.0
0
LINE
5
712
100
AcDbEntity
8
0-6戸当り
6
CONTINUOUS
62
7
100
AcDbLine
10
972.162000000000
20
2283.047000000000
30
0.0
11
973.478000000000
21
2283.806000000000
31
0.0
0
POLYLINE
5
713
100
AcDbEntity
8
0-6戸当り
6
CONTINUOUS
62
  7
100
AcDb2dPolyline
66
1
10
0.0
20
0.0
30
0.0
70
0
0
VERTEX
5
714
100
AcDbEntity
8
0-6戸当り
6
CONTINUOUS
62
  7
100
AcDbVertex
100
AcDb2dVertex
10
972.162000000000
20
2283.047000000000
30
0.0
0
VERTEX
5
715
100
AcDbEntity
8
0-6戸当り
6
CONTINUOUS
62
  7
100
AcDbVertex
100
AcDb2dVertex
10
955.162000000000
20
2283.047000000000
30
0.0
0
VERTEX
5
716
100
AcDbEntity
8
0-6戸当り
6
CONTINUOUS
62
  7
100
AcDbVertex
100
AcDb2dVertex
10
953.847000000000
20
2283.806000000000
30
0.0
0
SEQEND
5
717
100
AcDbEntity
8
0-6戸当り
0
LINE
5
718
100
AcDbEntity
8
0-6戸当り
6
CONTINUOUS
62
7
100
AcDbLine
10
953.847000000000
20
2291.047000000000
30
0.0
11
953.847000000000
21
2283.806000000000
31
0.0
0
LINE
5
719
100
AcDbEntity
8
0-6戸当り
6
CONTINUOUS
62
7
100
AcDbLine
10
968.570000000000
20
2291.047000000000
30
0.0
11
968.570000000000
21
2283.806000000000
31
0.0
0
LINE
5
71a
100
AcDbEntity
8
0-6戸当り
6
CONTINUOUS
62
7
100
AcDbLine
10
958.755000000000
20
2291.047000000000
30
0.0
11
958.755000000000
21
2283.806000000000
31
0.0
0
LINE
5
71b
100
AcDbEntity
8
0-6戸当り
6
CONTINUOUS
62
7
100
AcDbLine
10
973.478000000000
20
2291.047000000000
30
0.0
11
973.478000000000
21
2283.806000000000
31
0.0
0
LINE
5
71c
100
AcDbEntity
8
0-6戸当り
6
CONTINUOUS
62
3
100
AcDbLine
10
952.662000000000
20
2291.047000000000
30
0.0
11
974.663000000000
21
2291.047000000000
31
0.0
0
LINE
5
71d
100
AcDbEntity
8
0-6戸当り
6
CONTINUOUS
62
3
100
AcDbLine
10
958.662000000000
20
2283.047000000000
30
0.0
11
958.662000000000
21
2278.361000000000
31
0.0
0
LINE
5
71e
100
AcDbEntity
8
0-6戸当り
6
CONTINUOUS
62
3
100
AcDbLine
10
968.663000000000
20
2283.047000000000
30
0.0
11
968.663000000000
21
2278.361000000000
31
0.0
0
LINE
5
71f
100
AcDbEntity
8
0-6戸当り
6
CONTINUOUS
62
4
100
AcDbLine
10
959.663000000000
20
2283.047000000000
30
0.0
11
959.663000000000
21
2278.130000000000
31
0.0
0
LINE
5
720
100
AcDbEntity
8
0-6戸当り
6
CONTINUOUS
62
4
100
AcDbLine
10
967.662000000000
20
2283.047000000000
30
0.0
11
967.662000000000
21
2278.130000000000
31
0.0
0
LINE
5
721
100
AcDbEntity
8
0-6戸当り
6
CONTINUOUS
62
3
100
AcDbLine
10
958.662000000000
20
2278.361000000000
30
0.0
11
968.663000000000
21
2278.361000000000
31
0.0
0
LINE
5
722
100
AcDbEntity
8
0-5基準線
6
CENTER2
62
7
100
AcDbLine
10
963.663000000000
20
2274.474000000000
30
0.0
11
963.663000000000
21
2343.430000000000
31
0.0
0
LINE
5
723
100
AcDbEntity
8
0-8寸法
6
CONTINUOUS
62
4
100
AcDbLine
10
2650.461000000000
20
1285.187000000000
30
0.0
11
2797.095000000000
21
1285.187000000000
31
0.0
0
LINE
5
724
100
AcDbEntity
8
0-8寸法
6
CONTINUOUS
62
4
100
AcDbLine
10
2650.461000000000
20
785.188000000000
30
0.0
11
2797.095000000000
21
785.188000000000
31
0.0
0
LINE
5
725
100
AcDbEntity
8
0-3RC
6
CONTINUOUS
62
7
100
AcDbLine
10
2487.095000000000
20
1285.187000000000
30
0.0
11
2637.095000000000
21
1285.187000000000
31
0.0
0
LINE
5
726
100
AcDbEntity
8
0-3RC
6
CONTINUOUS
62
7
100
AcDbLine
10
2487.095000000000
20
785.188000000000
30
0.0
11
2637.095000000000
21
785.188000000000
31
0.0
0
LINE
5
727
100
AcDbEntity
8
0-3RC
6
CONTINUOUS
62
7
100
AcDbLine
10
1543.663000000000
20
2292.647000000000
30
0.0
11
1543.663000000000
21
2404.647000000000
31
0.0
0
LINE
5
728
100
AcDbEntity
8
0-8寸法
6
CONTINUOUS
62
4
100
AcDbLine
10
1043.663000000000
20
2420.779000000000
30
0.0
11
1043.663000000000
21
2614.647000000000
31
0.0
0
LINE
5
729
100
AcDbEntity
8
0-5基準線
6
CENTER2
62
7
100
AcDbLine
10
1293.663000000000
20
2404.647000000000
30
0.0
11
1293.663000000000
21
2187.357000000000
31
0.0
0
LINE
5
72a
100
AcDbEntity
8
0-8寸法
6
CONTINUOUS
62
4
100
AcDbLine
10
943.663000000000
20
2604.647000000000
30
0.0
11
1043.662000000000
21
2604.647000000000
31
0.0
0
LINE
5
72b
100
AcDbEntity
8
0-8寸法
6
CONTINUOUS
62
4
100
AcDbLine
10
943.663000000000
20
2604.647000000000
30
0.0
11
962.981000000000
21
2609.823000000000
31
0.0
0
LINE
5
72c
100
AcDbEntity
8
0-8寸法
6
CONTINUOUS
62
4
100
AcDbLine
10
943.663000000000
20
2604.647000000000
30
0.0
11
962.981000000000
21
2599.471000000000
31
0.0
0
LINE
5
72d
100
AcDbEntity
8
0-8寸法
6
CONTINUOUS
62
4
100
AcDbLine
10
1043.662000000000
20
2604.647000000000
30
0.0
11
1024.344000000000
21
2609.823000000000
31
0.0
0
LINE
5
72e
100
AcDbEntity
8
0-8寸法
6
CONTINUOUS
62
4
100
AcDbLine
10
1043.662000000000
20
2604.647000000000
30
0.0
11
1024.344000000000
21
2599.471000000000
31
0.0
0
LINE
5
72f
100
AcDbEntity
8
0-8寸法
6
CONTINUOUS
62
4
100
AcDbLine
10
1543.663000000000
20
2604.647000000000
30
0.0
11
1643.663000000000
21
2604.647000000000
31
0.0
0
LINE
5
730
100
AcDbEntity
8
0-8寸法
6
CONTINUOUS
62
4
100
AcDbLine
10
1543.663000000000
20
2420.779000000000
30
0.0
11
1543.663000000000
21
2614.647000000000
31
0.0
0
LINE
5
731
100
AcDbEntity
8
0-8寸法
6
CONTINUOUS
62
4
100
AcDbLine
10
1543.663000000000
20
2604.647000000000
30
0.0
11
1562.981000000000
21
2609.823000000000
31
0.0
0
LINE
5
732
100
AcDbEntity
8
0-8寸法
6
CONTINUOUS
62
4
100
AcDbLine
10
1543.663000000000
20
2604.647000000000
30
0.0
11
1562.981000000000
21
2599.471000000000
31
0.0
0
LINE
5
733
100
AcDbEntity
8
0-8寸法
6
CONTINUOUS
62
4
100
AcDbLine
10
1643.663000000000
20
2604.647000000000
30
0.0
11
1624.344000000000
21
2609.823000000000
31
0.0
0
LINE
5
734
100
AcDbEntity
8
0-8寸法
6
CONTINUOUS
62
4
100
AcDbLine
10
1643.663000000000
20
2604.647000000000
30
0.0
11
1624.344000000000
21
2599.471000000000
31
0.0
0
LINE
5
735
100
AcDbEntity
8
0-8寸法
6
CONTINUOUS
62
4
100
AcDbLine
10
943.663000000000
20
2318.495000000000
30
0.0
11
943.663000000000
21
2614.647000000000
31
0.0
0
LINE
5
736
100
AcDbEntity
8
0-8寸法
6
CONTINUOUS
62
4
100
AcDbLine
10
1643.663000000000
20
2318.495000000000
30
0.0
11
1643.663000000000
21
2614.647000000000
31
0.0
0
LINE
5
737
100
AcDbEntity
8
0-8寸法
6
CONTINUOUS
62
4
100
AcDbLine
10
993.663000000000
20
2010.188000000000
30
0.0
11
1593.663000000000
21
2010.188000000000
31
0.0
0
LINE
5
738
100
AcDbEntity
8
0-8寸法
6
CONTINUOUS
62
4
100
AcDbLine
10
993.663000000000
20
2010.188000000000
30
0.0
11
1012.981000000000
21
2015.364000000000
31
0.0
0
LINE
5
739
100
AcDbEntity
8
0-8寸法
6
CONTINUOUS
62
4
100
AcDbLine
10
993.663000000000
20
2010.188000000000
30
0.0
11
1012.981000000000
21
2005.011000000000
31
0.0
0
LINE
5
73a
100
AcDbEntity
8
0-8寸法
6
CONTINUOUS
62
4
100
AcDbLine
10
1593.663000000000
20
2010.188000000000
30
0.0
11
1574.344000000000
21
2015.364000000000
31
0.0
0
LINE
5
73b
100
AcDbEntity
8
0-8寸法
6
CONTINUOUS
62
4
100
AcDbLine
10
1593.663000000000
20
2010.188000000000
30
0.0
11
1574.344000000000
21
2005.011000000000
31
0.0
0
LINE
5
73c
100
AcDbEntity
8
0-8寸法
6
CONTINUOUS
62
4
100
AcDbLine
10
993.663000000000
20
2191.952000000000
30
0.0
11
993.663000000000
21
2000.188000000000
31
0.0
0
LINE
5
73d
100
AcDbEntity
8
0-8寸法
6
CONTINUOUS
62
4
100
AcDbLine
10
1593.663000000000
20
2191.952000000000
30
0.0
11
1593.663000000000
21
2000.188000000000
31
0.0
0
LINE
5
73e
100
AcDbEntity
8
0-8寸法
6
CONTINUOUS
62
4
100
AcDbLine
10
2487.095000000000
20
685.188000000000
30
0.0
11
2484.972000000000
21
665.301000000000
31
0.0
0
LINE
5
73f
100
AcDbEntity
8
0-8寸法
6
CONTINUOUS
62
4
100
AcDbLine
10
2487.095000000000
20
685.188000000000
30
0.0
11
2475.313000000000
21
669.026000000000
31
0.0
0
LINE
5
740
100
AcDbEntity
8
0-9扉体
6
CONTINUOUS
62
3
100
AcDbLine
10
2463.094000000000
20
1102.005000000000
30
0.0
11
2463.094000000000
21
1270.809000000000
31
0.0
0
LINE
5
741
100
AcDbEntity
8
0-9扉体
6
CONTINUOUS
62
3
100
AcDbLine
10
2463.094000000000
20
1275.188000000000
30
0.0
11
2463.094000000000
21
1315.188000000000
31
0.0
0
LINE
5
742
100
AcDbEntity
8
0-9扉体
6
CONTINUOUS
62
3
100
AcDbLine
10
2469.095000000000
20
1102.005000000000
30
0.0
11
2469.095000000000
21
1270.809000000000
31
0.0
0
LINE
5
743
100
AcDbEntity
8
0-9扉体
6
CONTINUOUS
62
3
100
AcDbLine
10
2469.095000000000
20
1276.188000000000
30
0.0
11
2469.095000000000
21
1314.188000000000
31
0.0
0
LINE
5
744
100
AcDbEntity
8
0-9扉体
6
CONTINUOUS
62
3
100
AcDbLine
10
2463.094000000000
20
1069.454000000000
30
0.0
11
2463.094000000000
21
803.501000000000
31
0.0
0
LINE
5
745
100
AcDbEntity
8
0-9扉体
6
CONTINUOUS
62
3
100
AcDbLine
10
2463.094000000000
20
795.187000000000
30
0.0
11
2463.094000000000
21
755.188000000000
31
0.0
0
LINE
5
746
100
AcDbEntity
8
0-9扉体
6
CONTINUOUS
62
3
100
AcDbLine
10
2469.095000000000
20
1069.454000000000
30
0.0
11
2469.095000000000
21
803.501000000000
31
0.0
0
LINE
5
747
100
AcDbEntity
8
0-9扉体
6
CONTINUOUS
62
3
100
AcDbLine
10
2469.095000000000
20
794.188000000000
30
0.0
11
2469.095000000000
21
756.187000000000
31
0.0
0
LINE
5
748
100
AcDbEntity
8
0-9扉体
6
CONTINUOUS
62
3
100
AcDbLine
10
1293.663000000000
20
2280.647000000000
30
0.0
11
1528.226000000000
21
2280.647000000000
31
0.0
0
LINE
5
749
100
AcDbEntity
8
0-9扉体
6
CONTINUOUS
62
3
100
AcDbLine
10
1533.663000000000
20
2280.647000000000
30
0.0
11
1573.663000000000
21
2280.647000000000
31
0.0
0
LINE
5
74a
100
AcDbEntity
8
0-9扉体
6
CONTINUOUS
62
3
100
AcDbLine
10
1293.663000000000
20
2286.647000000000
30
0.0
11
1528.226000000000
21
2286.647000000000
31
0.0
0
LINE
5
74b
100
AcDbEntity
8
0-9扉体
6
CONTINUOUS
62
3
100
AcDbLine
10
1534.663000000000
20
2286.647000000000
30
0.0
11
1572.663000000000
21
2286.647000000000
31
0.0
0
LINE
5
74c
100
AcDbEntity
8
0-9扉体
6
CONTINUOUS
62
6
100
AcDbLine
10
1187.203000000000
20
2272.647000000000
30
0.0
11
1207.203000000000
21
2292.647000000000
31
0.0
0
LINE
5
74d
100
AcDbEntity
8
0-9扉体
6
CONTINUOUS
62
6
100
AcDbLine
10
1185.788000000000
20
2272.647000000000
30
0.0
11
1205.788000000000
21
2292.647000000000
31
0.0
0
LINE
5
74e
100
AcDbEntity
8
0-9扉体
6
CONTINUOUS
62
6
100
AcDbLine
10
1074.065000000000
20
2272.647000000000
30
0.0
11
1094.065000000000
21
2292.647000000000
31
0.0
0
LINE
5
74f
100
AcDbEntity
8
0-9扉体
6
CONTINUOUS
62
6
100
AcDbLine
10
1072.651000000000
20
2272.647000000000
30
0.0
11
1092.651000000000
21
2292.647000000000
31
0.0
0
LINE
5
750
100
AcDbEntity
8
0-6戸当り
6
CONTINUOUS
62
2
100
AcDbLine
10
1094.663000000000
20
2227.647000000000
30
0.0
11
1094.663000000000
21
2292.647000000000
31
0.0
0
LINE
5
751
100
AcDbEntity
8
0-6戸当り
6
CONTINUOUS
62
2
100
AcDbLine
10
1132.663000000000
20
2227.647000000000
30
0.0
11
1132.663000000000
21
2292.647000000000
31
0.0
0
LINE
5
752
100
AcDbEntity
8
0-9扉体
6
CONTINUOUS
62
6
100
AcDbLine
10
1090.293000000000
20
2276.147000000000
30
0.0
11
1094.663000000000
21
2280.516000000000
31
0.0
0
LINE
5
753
100
AcDbEntity
8
0-9扉体
6
CONTINUOUS
62
6
100
AcDbLine
10
1091.707000000000
20
2276.147000000000
30
0.0
11
1094.663000000000
21
2279.103000000000
31
0.0
0
LINE
5
754
100
AcDbEntity
8
0-9扉体
6
CONTINUOUS
62
6
100
AcDbLine
10
1132.663000000000
20
2290.232000000000
30
0.0
11
1135.078000000000
21
2292.647000000000
31
0.0
0
LINE
5
755
100
AcDbEntity
8
0-9扉体
6
CONTINUOUS
62
6
100
AcDbLine
10
1132.663000000000
20
2288.818000000000
30
0.0
11
1136.492000000000
21
2292.647000000000
31
0.0
0
LINE
5
756
100
AcDbEntity
8
0-9扉体
6
CONTINUOUS
62
6
100
AcDbLine
10
1132.719000000000
20
2276.147000000000
30
0.0
11
1149.220000000000
21
2292.647000000000
31
0.0
0
LINE
5
757
100
AcDbEntity
8
0-9扉体
6
CONTINUOUS
62
6
100
AcDbLine
10
1134.134000000000
20
2276.147000000000
30
0.0
11
1150.634000000000
21
2292.647000000000
31
0.0
0
LINE
5
758
100
AcDbEntity
8
0-6戸当り
6
CONTINUOUS
62
3
100
AcDbLine
10
1030.663000000000
20
2290.247000000000
30
0.0
11
1056.663000000001
21
2290.247000000000
31
0.0
0
LINE
5
759
100
AcDbEntity
8
0-6戸当り
6
CONTINUOUS
62
2
100
AcDbLine
10
1030.663000000000
20
2290.247000000000
30
0.0
11
1030.663000000000
21
2292.647000000000
31
0.0
0
LINE
5
75a
100
AcDbEntity
8
0-6戸当り
6
CONTINUOUS
62
2
100
AcDbLine
10
1056.663000000001
20
2290.247000000000
30
0.0
11
1056.663000000001
21
2292.647000000000
31
0.0
0
LINE
5
75b
100
AcDbEntity
8
0-8寸法
6
CONTINUOUS
62
4
100
AcDbLine
10
963.663000000000
20
435.188000000000
30
0.0
11
1623.663000000000
21
435.188000000000
31
0.0
0
LINE
5
75c
100
AcDbEntity
8
0-8寸法
6
CONTINUOUS
62
4
100
AcDbLine
10
963.663000000000
20
435.188000000000
30
0.0
11
982.981000000000
21
440.364000000000
31
0.0
0
LINE
5
75d
100
AcDbEntity
8
0-8寸法
6
CONTINUOUS
62
4
100
AcDbLine
10
963.663000000000
20
435.188000000000
30
0.0
11
982.981000000000
21
430.011000000000
31
0.0
0
LINE
5
75e
100
AcDbEntity
8
0-8寸法
6
CONTINUOUS
62
4
100
AcDbLine
10
1623.663000000000
20
435.188000000000
30
0.0
11
1604.344000000000
21
440.364000000000
31
0.0
0
LINE
5
75f
100
AcDbEntity
8
0-8寸法
6
CONTINUOUS
62
4
100
AcDbLine
10
1623.663000000000
20
435.188000000000
30
0.0
11
1604.344000000000
21
430.011000000000
31
0.0
0
LINE
5
760
100
AcDbEntity
8
0-9扉体
6
CONTINUOUS
62
4
100
AcDbLine
10
988.663000000000
20
2266.647000000000
30
0.0
11
988.663000000000
21
2272.647000000000
31
0.0
0
LINE
5
761
100
AcDbEntity
8
0-9扉体
6
CONTINUOUS
62
6
100
AcDbLine
10
1003.354000000000
20
2272.647000000000
30
0.0
11
1023.354000000000
21
2292.647000000000
31
0.0
0
LINE
5
762
100
AcDbEntity
8
0-9扉体
6
CONTINUOUS
62
6
100
AcDbLine
10
1002.068000000000
20
2272.775000000000
30
0.0
11
1021.940000000000
21
2292.647000000000
31
0.0
0
LINE
5
763
100
AcDbEntity
8
0-9扉体
6
CONTINUOUS
62
6
100
AcDbLine
10
994.296000000000
20
2279.145000000000
30
0.0
11
1007.798000000000
21
2292.647000000000
31
0.0
0
LINE
5
764
100
AcDbEntity
8
0-9扉体
6
CONTINUOUS
62
6
100
AcDbLine
10
994.726000000000
20
2278.161000000000
30
0.0
11
1009.212000000000
21
2292.647000000000
31
0.0
0
LINE
5
765
100
AcDbEntity
8
0-9扉体
6
CONTINUOUS
62
6
100
AcDbLine
10
1201.345000000000
20
2272.647000000000
30
0.0
11
1221.345000000000
21
2292.647000000000
31
0.0
0
LINE
5
766
100
AcDbEntity
8
0-9扉体
6
CONTINUOUS
62
6
100
AcDbLine
10
1199.931000000000
20
2272.647000000000
30
0.0
11
1219.931000000000
21
2292.647000000000
31
0.0
0
LINE
5
767
100
AcDbEntity
8
0-9扉体
6
CONTINUOUS
62
6
100
AcDbLine
10
1215.487000000000
20
2272.647000000000
30
0.0
11
1235.487000000000
21
2292.647000000000
31
0.0
0
LINE
5
768
100
AcDbEntity
8
0-9扉体
6
CONTINUOUS
62
6
100
AcDbLine
10
1214.073000000000
20
2272.647000000000
30
0.0
11
1234.073000000000
21
2292.647000000000
31
0.0
0
LINE
5
769
100
AcDbEntity
8
0-9扉体
6
CONTINUOUS
62
6
100
AcDbLine
10
1229.629000000000
20
2272.647000000000
30
0.0
11
1249.630000000000
21
2292.647000000000
31
0.0
0
LINE
5
76a
100
AcDbEntity
8
0-9扉体
6
CONTINUOUS
62
6
100
AcDbLine
10
1228.215000000000
20
2272.647000000000
30
0.0
11
1248.215000000000
21
2292.647000000000
31
0.0
0
LINE
5
76b
100
AcDbEntity
8
0-9扉体
6
CONTINUOUS
62
6
100
AcDbLine
10
1243.772000000000
20
2272.647000000000
30
0.0
11
1263.772000000000
21
2292.647000000000
31
0.0
0
LINE
5
76c
100
AcDbEntity
8
0-9扉体
6
CONTINUOUS
62
6
100
AcDbLine
10
1242.358000000000
20
2272.647000000000
30
0.0
11
1262.358000000000
21
2292.647000000000
31
0.0
0
LINE
5
76d
100
AcDbEntity
8
0-9扉体
6
CONTINUOUS
62
6
100
AcDbLine
10
1257.914000000000
20
2272.647000000000
30
0.0
11
1277.914000000000
21
2292.647000000000
31
0.0
0
LINE
5
76e
100
AcDbEntity
8
0-9扉体
6
CONTINUOUS
62
6
100
AcDbLine
10
1256.500000000001
20
2272.647000000000
30
0.0
11
1276.500000000001
21
2292.647000000000
31
0.0
0
LINE
5
76f
100
AcDbEntity
8
0-9扉体
6
CONTINUOUS
62
6
100
AcDbLine
10
1272.056000000000
20
2272.647000000000
30
0.0
11
1292.056000000000
21
2292.647000000000
31
0.0
0
LINE
5
770
100
AcDbEntity
8
0-9扉体
6
CONTINUOUS
62
6
100
AcDbLine
10
1270.642000000000
20
2272.647000000000
30
0.0
11
1290.642000000000
21
2292.647000000000
31
0.0
0
LINE
5
771
100
AcDbEntity
8
0-9扉体
6
CONTINUOUS
62
6
100
AcDbLine
10
1286.199000000000
20
2272.647000000000
30
0.0
11
1293.663000000000
21
2280.111000000000
31
0.0
0
LINE
5
772
100
AcDbEntity
8
0-9扉体
6
CONTINUOUS
62
6
100
AcDbLine
10
1284.784000000000
20
2272.647000000000
30
0.0
11
1293.663000000000
21
2281.525000000000
31
0.0
0
LINE
5
773
100
AcDbEntity
8
0-8寸法
6
CONTINUOUS
62
4
100
AcDbLine
10
2449.094000000000
20
1085.188000000000
30
0.0
11
2563.051000000000
21
1085.188000000000
31
0.0
0
LINE
5
774
100
AcDbEntity
8
0-8寸法
6
CONTINUOUS
62
4
100
AcDbLine
10
2563.051000000000
20
985.188000000000
30
0.0
11
2423.678000000000
21
985.188000000000
31
0.0
0
LINE
5
775
100
AcDbEntity
8
0-6戸当り
6
CONTINUOUS
62
6
100
AcDbLine
10
1643.663000000000
20
785.188000000000
30
0.0
11
1598.663000000000
21
785.188000000000
31
0.0
0
LINE
5
776
100
AcDbEntity
8
0-6戸当り
6
CONTINUOUS
62
6
100
AcDbLine
10
988.663000000000
20
785.188000000000
30
0.0
11
943.663000000000
21
785.188000000000
31
0.0
0
LINE
5
777
100
AcDbEntity
8
0-6戸当り
6
CONTINUOUS
62
6
100
AcDbLine
10
943.663000000000
20
1310.187000000000
30
0.0
11
988.663000000000
21
1310.187000000000
31
0.0
0
LINE
5
778
100
AcDbEntity
8
0-6戸当り
6
CONTINUOUS
62
6
100
AcDbLine
10
1598.663000000000
20
1310.187000000000
30
0.0
11
1643.663000000000
21
1310.187000000000
31
0.0
0
LINE
5
779
100
AcDbEntity
8
0-6戸当り
6
CONTINUOUS
62
3
100
AcDbLine
10
963.663000000000
20
1154.987000000000
30
0.0
11
972.150000000000
21
1150.087000000000
31
0.0
0
LINE
5
77a
100
AcDbEntity
8
0-6戸当り
6
CONTINUOUS
62
3
100
AcDbLine
10
963.663000000000
20
1135.387000000000
30
0.0
11
972.150000000000
21
1140.288000000000
31
0.0
0
LINE
5
77b
100
AcDbEntity
8
0-6戸当り
6
CONTINUOUS
62
3
100
AcDbLine
10
972.150000000000
20
1150.087000000000
30
0.0
11
972.150000000000
21
1140.288000000000
31
0.0
0
LINE
5
77c
100
AcDbEntity
8
0-6戸当り
6
CONTINUOUS
62
3
100
AcDbLine
10
963.663000000000
20
1135.387000000000
30
0.0
11
955.176000000000
21
1140.288000000000
31
0.0
0
LINE
5
77d
100
AcDbEntity
8
0-6戸当り
6
CONTINUOUS
62
3
100
AcDbLine
10
963.663000000000
20
1154.987000000000
30
0.0
11
955.176000000000
21
1150.087000000000
31
0.0
0
LINE
5
77e
100
AcDbEntity
8
0-6戸当り
6
CONTINUOUS
62
3
100
AcDbLine
10
955.176000000000
20
1140.288000000000
30
0.0
11
955.176000000000
21
1150.087000000000
31
0.0
0
LINE
5
77f
100
AcDbEntity
8
0-5基準線
6
CENTER2
62
7
100
AcDbLine
10
963.663000000000
20
1130.188000000000
30
0.0
11
963.663000000000
21
1160.187000000000
31
0.0
0
LINE
5
780
100
AcDbEntity
8
0-5基準線
6
CENTER2
62
7
100
AcDbLine
10
978.663000000000
20
1145.187000000000
30
0.0
11
948.663000000000
21
1145.187000000000
31
0.0
0
LINE
5
781
100
AcDbEntity
8
0-6戸当り
6
CONTINUOUS
62
3
100
AcDbLine
10
963.663000000000
20
934.987000000000
30
0.0
11
972.150000000000
21
930.087000000000
31
0.0
0
LINE
5
782
100
AcDbEntity
8
0-6戸当り
6
CONTINUOUS
62
3
100
AcDbLine
10
963.663000000000
20
915.387000000000
30
0.0
11
972.150000000000
21
920.288000000000
31
0.0
0
LINE
5
783
100
AcDbEntity
8
0-6戸当り
6
CONTINUOUS
62
3
100
AcDbLine
10
972.150000000000
20
930.087000000000
30
0.0
11
972.150000000000
21
920.288000000000
31
0.0
0
LINE
5
784
100
AcDbEntity
8
0-6戸当り
6
CONTINUOUS
62
3
100
AcDbLine
10
963.663000000000
20
915.387000000000
30
0.0
11
955.176000000000
21
920.288000000000
31
0.0
0
LINE
5
785
100
AcDbEntity
8
0-6戸当り
6
CONTINUOUS
62
3
100
AcDbLine
10
963.663000000000
20
934.987000000000
30
0.0
11
955.176000000000
21
930.087000000000
31
0.0
0
LINE
5
786
100
AcDbEntity
8
0-6戸当り
6
CONTINUOUS
62
3
100
AcDbLine
10
955.176000000000
20
920.288000000000
30
0.0
11
955.176000000000
21
930.087000000000
31
0.0
0
LINE
5
787
100
AcDbEntity
8
0-5基準線
6
CENTER2
62
7
100
AcDbLine
10
963.663000000000
20
910.188000000000
30
0.0
11
963.663000000000
21
940.187000000000
31
0.0
0
LINE
5
788
100
AcDbEntity
8
0-5基準線
6
CENTER2
62
7
100
AcDbLine
10
978.663000000000
20
925.187000000000
30
0.0
11
948.663000000000
21
925.187000000000
31
0.0
0
LINE
5
789
100
AcDbEntity
8
0-6戸当り
6
CONTINUOUS
62
3
100
AcDbLine
10
1623.663000000000
20
1154.987000000000
30
0.0
11
1615.176000000000
21
1150.087000000000
31
0.0
0
LINE
5
78a
100
AcDbEntity
8
0-6戸当り
6
CONTINUOUS
62
3
100
AcDbLine
10
1623.663000000000
20
1135.387000000000
30
0.0
11
1615.176000000000
21
1140.288000000000
31
0.0
0
LINE
5
78b
100
AcDbEntity
8
0-6戸当り
6
CONTINUOUS
62
3
100
AcDbLine
10
1615.176000000000
20
1150.087000000000
30
0.0
11
1615.176000000000
21
1140.288000000000
31
0.0
0
LINE
5
78c
100
AcDbEntity
8
0-6戸当り
6
CONTINUOUS
62
3
100
AcDbLine
10
1623.663000000000
20
1135.387000000000
30
0.0
11
1632.150000000000
21
1140.288000000000
31
0.0
0
LINE
5
78d
100
AcDbEntity
8
0-6戸当り
6
CONTINUOUS
62
3
100
AcDbLine
10
1623.663000000000
20
1154.987000000000
30
0.0
11
1632.150000000000
21
1150.087000000000
31
0.0
0
LINE
5
78e
100
AcDbEntity
8
0-6戸当り
6
CONTINUOUS
62
3
100
AcDbLine
10
1632.150000000000
20
1140.288000000000
30
0.0
11
1632.150000000000
21
1150.087000000000
31
0.0
0
LINE
5
78f
100
AcDbEntity
8
0-5基準線
6
CENTER2
62
7
100
AcDbLine
10
1623.663000000000
20
1130.188000000000
30
0.0
11
1623.663000000000
21
1160.187000000000
31
0.0
0
LINE
5
790
100
AcDbEntity
8
0-5基準線
6
CENTER2
62
7
100
AcDbLine
10
1608.663000000000
20
1145.187000000000
30
0.0
11
1638.662000000000
21
1145.187000000000
31
0.0
0
LINE
5
791
100
AcDbEntity
8
0-6戸当り
6
CONTINUOUS
62
3
100
AcDbLine
10
1623.663000000000
20
934.987000000000
30
0.0
11
1615.176000000000
21
930.087000000000
31
0.0
0
LINE
5
792
100
AcDbEntity
8
0-6戸当り
6
CONTINUOUS
62
3
100
AcDbLine
10
1623.663000000000
20
915.387000000000
30
0.0
11
1615.176000000000
21
920.288000000000
31
0.0
0
LINE
5
793
100
AcDbEntity
8
0-6戸当り
6
CONTINUOUS
62
3
100
AcDbLine
10
1615.176000000000
20
930.087000000000
30
0.0
11
1615.176000000000
21
920.288000000000
31
0.0
0
LINE
5
794
100
AcDbEntity
8
0-6戸当り
6
CONTINUOUS
62
3
100
AcDbLine
10
1623.663000000000
20
915.387000000000
30
0.0
11
1632.150000000000
21
920.288000000000
31
0.0
0
LINE
5
795
100
AcDbEntity
8
0-6戸当り
6
CONTINUOUS
62
3
100
AcDbLine
10
1623.663000000000
20
934.987000000000
30
0.0
11
1632.150000000000
21
930.087000000000
31
0.0
0
LINE
5
796
100
AcDbEntity
8
0-6戸当り
6
CONTINUOUS
62
3
100
AcDbLine
10
1632.150000000000
20
920.288000000000
30
0.0
11
1632.150000000000
21
930.087000000000
31
0.0
0
LINE
5
797
100
AcDbEntity
8
0-5基準線
6
CENTER2
62
7
100
AcDbLine
10
1623.663000000000
20
910.188000000000
30
0.0
11
1623.663000000000
21
940.187000000000
31
0.0
0
LINE
5
798
100
AcDbEntity
8
0-5基準線
6
CENTER2
62
7
100
AcDbLine
10
1608.663000000000
20
925.187000000000
30
0.0
11
1638.662000000000
21
925.187000000000
31
0.0
0
LINE
5
799
100
AcDbEntity
8
0-8寸法
6
CONTINUOUS
62
4
100
AcDbLine
10
693.663000000000
20
705.187000000000
30
0.0
11
693.663000000000
21
1365.187000000000
31
0.0
0
LINE
5
79a
100
AcDbEntity
8
0-8寸法
6
CONTINUOUS
62
4
100
AcDbLine
10
693.663000000000
20
705.187000000000
30
0.0
11
688.486000000000
21
724.506000000000
31
0.0
0
LINE
5
79b
100
AcDbEntity
8
0-8寸法
6
CONTINUOUS
62
4
100
AcDbLine
10
693.663000000000
20
705.187000000000
30
0.0
11
698.839000000000
21
724.506000000000
31
0.0
0
LINE
5
79c
100
AcDbEntity
8
0-8寸法
6
CONTINUOUS
62
4
100
AcDbLine
10
693.663000000000
20
1365.187000000000
30
0.0
11
688.486000000000
21
1345.869000000000
31
0.0
0
LINE
5
79d
100
AcDbEntity
8
0-8寸法
6
CONTINUOUS
62
4
100
AcDbLine
10
693.663000000000
20
1365.187000000000
30
0.0
11
698.839000000000
21
1345.869000000000
31
0.0
0
LINE
5
79e
100
AcDbEntity
8
0-8寸法
6
CONTINUOUS
62
4
100
AcDbLine
10
693.663000000000
20
1365.187000000000
30
0.0
11
693.663000000000
21
1435.187000000000
31
0.0
0
LINE
5
79f
100
AcDbEntity
8
0-8寸法
6
CONTINUOUS
62
4
100
AcDbLine
10
693.663000000000
20
1365.187000000000
30
0.0
11
688.486000000000
21
1384.506000000000
31
0.0
0
LINE
5
7a0
100
AcDbEntity
8
0-8寸法
6
CONTINUOUS
62
4
100
AcDbLine
10
693.663000000000
20
1365.187000000000
30
0.0
11
698.839000000000
21
1384.506000000000
31
0.0
0
LINE
5
7a1
100
AcDbEntity
8
0-8寸法
6
CONTINUOUS
62
4
100
AcDbLine
10
693.663000000000
20
1435.187000000000
30
0.0
11
688.486000000000
21
1415.869000000000
31
0.0
0
LINE
5
7a2
100
AcDbEntity
8
0-8寸法
6
CONTINUOUS
62
4
100
AcDbLine
10
693.663000000000
20
1435.187000000000
30
0.0
11
698.839000000000
21
1415.869000000000
31
0.0
0
LINE
5
7a3
100
AcDbEntity
8
0-8寸法
6
CONTINUOUS
62
4
100
AcDbLine
10
919.894000000000
20
1365.187000000000
30
0.0
11
683.663000000000
21
1365.187000000000
31
0.0
0
LINE
5
7a4
100
AcDbEntity
8
0-8寸法
6
CONTINUOUS
62
4
100
AcDbLine
10
1113.663000000000
20
1451.933000000000
30
0.0
11
1113.663000000000
21
1670.187000000000
31
0.0
0
LINE
5
7a5
100
AcDbEntity
8
0-8寸法
6
CONTINUOUS
62
4
100
AcDbLine
10
1473.663000000000
20
1451.933000000000
30
0.0
11
1473.663000000000
21
1670.187000000000
31
0.0
0
LINE
5
7a6
100
AcDbEntity
8
0-8寸法
6
CONTINUOUS
62
4
100
AcDbLine
10
1043.663000000000
20
1760.188000000000
30
0.0
11
1543.663000000000
21
1760.188000000000
31
0.0
0
LINE
5
7a7
100
AcDbEntity
8
0-8寸法
6
CONTINUOUS
62
4
100
AcDbLine
10
1043.663000000000
20
1440.155000000000
30
0.0
11
1043.663000000000
21
1770.188000000000
31
0.0
0
LINE
5
7a8
100
AcDbEntity
8
0-8寸法
6
CONTINUOUS
62
4
100
AcDbLine
10
1543.663000000000
20
1440.155000000000
30
0.0
11
1543.663000000000
21
1770.188000000000
31
0.0
0
LINE
5
7a9
100
AcDbEntity
8
0-8寸法
6
CONTINUOUS
62
4
100
AcDbLine
10
1043.663000000000
20
1760.188000000000
30
0.0
11
1062.981000000000
21
1765.364000000000
31
0.0
0
LINE
5
7aa
100
AcDbEntity
8
0-8寸法
6
CONTINUOUS
62
4
100
AcDbLine
10
1043.663000000000
20
1760.188000000000
30
0.0
11
1062.981000000000
21
1755.011000000000
31
0.0
0
LINE
5
7ab
100
AcDbEntity
8
0-8寸法
6
CONTINUOUS
62
4
100
AcDbLine
10
1543.663000000000
20
1760.188000000000
30
0.0
11
1524.344000000000
21
1765.364000000000
31
0.0
0
LINE
5
7ac
100
AcDbEntity
8
0-8寸法
6
CONTINUOUS
62
4
100
AcDbLine
10
1543.663000000000
20
1760.188000000000
30
0.0
11
1524.344000000000
21
1755.011000000000
31
0.0
0
LINE
5
7ad
100
AcDbEntity
8
0-9扉体
6
CONTINUOUS
62
4
100
AcDbLine
10
1146.262000000000
20
2272.647000000000
30
0.0
11
1598.663000000000
21
2272.647000000000
31
0.0
0
LINE
5
7ae
100
AcDbEntity
8
0-9扉体
6
CONTINUOUS
62
6
100
AcDbLine
10
1146.262000000000
20
2274.134000000000
30
0.0
11
1164.776000000000
21
2292.647000000000
31
0.0
0
LINE
5
7af
100
AcDbEntity
8
0-9扉体
6
CONTINUOUS
62
6
100
AcDbLine
10
1145.362000000000
20
2274.647000000000
30
0.0
11
1163.362000000000
21
2292.647000000000
31
0.0
0
LINE
5
7b0
100
AcDbEntity
8
0-9扉体
6
CONTINUOUS
62
6
100
AcDbLine
10
1173.060000000000
20
2272.647000000000
30
0.0
11
1193.060000000000
21
2292.647000000000
31
0.0
0
LINE
5
7b1
100
AcDbEntity
8
0-9扉体
6
CONTINUOUS
62
6
100
AcDbLine
10
1171.646000000000
20
2272.647000000000
30
0.0
11
1191.646000000000
21
2292.647000000000
31
0.0
0
LINE
5
7b2
100
AcDbEntity
8
0-9扉体
6
CONTINUOUS
62
6
100
AcDbLine
10
1158.918000000000
20
2272.647000000000
30
0.0
11
1178.918000000000
21
2292.647000000000
31
0.0
0
LINE
5
7b3
100
AcDbEntity
8
0-9扉体
6
CONTINUOUS
62
6
100
AcDbLine
10
1157.504000000000
20
2272.647000000000
30
0.0
11
1177.504000000000
21
2292.647000000000
31
0.0
0
LINE
5
7b4
100
AcDbEntity
8
0-6戸当り
6
DOT
62
4
100
AcDbLine
10
1043.663000000000
20
2292.647000000000
30
0.0
11
1043.663000000000
21
2404.647000000000
31
0.0
0
LINE
5
7b5
100
AcDbEntity
8
0-9扉体
6
CONTINUOUS
62
6
100
AcDbLine
10
1058.509000000000
20
2272.647000000000
30
0.0
11
1078.509000000000
21
2292.647000000000
31
0.0
0
LINE
5
7b6
100
AcDbEntity
8
0-9扉体
6
CONTINUOUS
62
6
100
AcDbLine
10
1059.923000000000
20
2272.647000000000
30
0.0
11
1079.923000000000
21
2292.647000000000
31
0.0
0
LINE
5
7b7
100
AcDbEntity
8
0-9扉体
6
CONTINUOUS
62
6
100
AcDbLine
10
1053.163000000000
20
2281.443000000000
30
0.0
11
1064.367000000000
21
2292.647000000000
31
0.0
0
LINE
5
7b8
100
AcDbEntity
8
0-9扉体
6
CONTINUOUS
62
6
100
AcDbLine
10
1053.163000000000
20
2280.029000000000
30
0.0
11
1065.781000000000
21
2292.647000000000
31
0.0
0
LINE
5
7b9
100
AcDbEntity
8
0-6戸当り
6
CONTINUOUS
62
3
100
AcDbLine
10
1183.663000000000
20
1374.987000000000
30
0.0
11
1192.150000000000
21
1370.087000000000
31
0.0
0
LINE
5
7ba
100
AcDbEntity
8
0-6戸当り
6
CONTINUOUS
62
3
100
AcDbLine
10
1183.663000000000
20
1355.387000000000
30
0.0
11
1192.150000000000
21
1360.288000000000
31
0.0
0
LINE
5
7bb
100
AcDbEntity
8
0-6戸当り
6
CONTINUOUS
62
3
100
AcDbLine
10
1192.150000000000
20
1370.087000000000
30
0.0
11
1192.150000000000
21
1360.288000000000
31
0.0
0
LINE
5
7bc
100
AcDbEntity
8
0-6戸当り
6
CONTINUOUS
62
3
100
AcDbLine
10
1183.663000000000
20
1355.387000000000
30
0.0
11
1175.176000000000
21
1360.288000000000
31
0.0
0
LINE
5
7bd
100
AcDbEntity
8
0-6戸当り
6
CONTINUOUS
62
3
100
AcDbLine
10
1183.663000000000
20
1374.987000000000
30
0.0
11
1175.176000000000
21
1370.087000000000
31
0.0
0
LINE
5
7be
100
AcDbEntity
8
0-6戸当り
6
CONTINUOUS
62
3
100
AcDbLine
10
1175.176000000000
20
1360.288000000000
30
0.0
11
1175.176000000000
21
1370.087000000000
31
0.0
0
LINE
5
7bf
100
AcDbEntity
8
0-5基準線
6
CENTER2
62
7
100
AcDbLine
10
1183.663000000000
20
1350.188000000000
30
0.0
11
1183.663000000000
21
1380.187000000000
31
0.0
0
LINE
5
7c0
100
AcDbEntity
8
0-5基準線
6
CENTER2
62
7
100
AcDbLine
10
1198.663000000000
20
1365.187000000000
30
0.0
11
1168.663000000000
21
1365.187000000000
31
0.0
0
LINE
5
7c1
100
AcDbEntity
8
0-6戸当り
6
CONTINUOUS
62
3
100
AcDbLine
10
1403.663000000000
20
1374.987000000000
30
0.0
11
1412.150000000000
21
1370.087000000000
31
0.0
0
LINE
5
7c2
100
AcDbEntity
8
0-6戸当り
6
CONTINUOUS
62
3
100
AcDbLine
10
1403.663000000000
20
1355.387000000000
30
0.0
11
1412.150000000000
21
1360.288000000000
31
0.0
0
LINE
5
7c3
100
AcDbEntity
8
0-6戸当り
6
CONTINUOUS
62
3
100
AcDbLine
10
1412.150000000000
20
1370.087000000000
30
0.0
11
1412.150000000000
21
1360.288000000000
31
0.0
0
LINE
5
7c4
100
AcDbEntity
8
0-6戸当り
6
CONTINUOUS
62
3
100
AcDbLine
10
1403.663000000000
20
1355.387000000000
30
0.0
11
1395.176000000000
21
1360.288000000000
31
0.0
0
LINE
5
7c5
100
AcDbEntity
8
0-6戸当り
6
CONTINUOUS
62
3
100
AcDbLine
10
1403.663000000000
20
1374.987000000000
30
0.0
11
1395.176000000000
21
1370.087000000000
31
0.0
0
LINE
5
7c6
100
AcDbEntity
8
0-6戸当り
6
CONTINUOUS
62
3
100
AcDbLine
10
1395.176000000000
20
1360.288000000000
30
0.0
11
1395.176000000000
21
1370.087000000000
31
0.0
0
LINE
5
7c7
100
AcDbEntity
8
0-5基準線
6
CENTER2
62
7
100
AcDbLine
10
1403.663000000000
20
1350.188000000000
30
0.0
11
1403.663000000000
21
1380.187000000000
31
0.0
0
LINE
5
7c8
100
AcDbEntity
8
0-5基準線
6
CENTER2
62
7
100
AcDbLine
10
1418.663000000000
20
1365.187000000000
30
0.0
11
1388.663000000000
21
1365.187000000000
31
0.0
0
LINE
5
7c9
100
AcDbEntity
8
0-9扉体
6
DOT
62
4
100
AcDbLine
10
1587.663000000000
20
741.188000000000
30
0.0
11
999.663000000000
21
741.188000000000
31
0.0
0
LINE
5
7ca
100
AcDbEntity
8
0-9扉体
6
DOT
62
4
100
AcDbLine
10
1310.673000000000
20
795.188000000000
30
0.0
11
1310.673000000000
21
741.188000000000
31
0.0
0
LINE
5
7cb
100
AcDbEntity
8
0-9扉体
6
DOT
62
4
100
AcDbLine
10
1304.673000000000
20
958.711000000000
30
0.0
11
1304.673000000000
21
741.188000000000
31
0.0
0
LINE
5
7cc
100
AcDbEntity
8
0-9扉体
6
CONTINUOUS
62
4
100
AcDbLine
10
988.663000000000
20
730.188000000000
30
0.0
11
988.663000000000
21
1340.187000000000
31
0.0
0
LINE
5
7cd
100
AcDbEntity
8
0-9扉体
6
CONTINUOUS
62
4
100
AcDbLine
10
993.663000000000
20
735.188000000000
30
0.0
11
993.663000000000
21
1335.187000000000
31
0.0
0
LINE
5
7ce
100
AcDbEntity
8
0-9扉体
6
CONTINUOUS
62
4
100
AcDbLine
10
1593.663000000000
20
735.188000000000
30
0.0
11
993.663000000000
21
735.188000000000
31
0.0
0
LINE
5
7cf
100
AcDbEntity
8
0-9扉体
6
CONTINUOUS
62
4
100
AcDbLine
10
1593.663000000000
20
1335.187000000000
30
0.0
11
1593.663000000000
21
735.188000000000
31
0.0
0
LINE
5
7d0
100
AcDbEntity
8
0-9扉体
6
CONTINUOUS
62
4
100
AcDbLine
10
1598.663000000000
20
730.188000000000
30
0.0
11
988.663000000000
21
730.188000000000
31
0.0
0
LINE
5
7d1
100
AcDbEntity
8
0-9扉体
6
CONTINUOUS
62
4
100
AcDbLine
10
1598.663000000000
20
1340.187000000000
30
0.0
11
1598.663000000000
21
730.188000000000
31
0.0
0
LINE
5
7d2
100
AcDbEntity
8
0-9扉体
6
CONTINUOUS
62
4
100
AcDbLine
10
2446.095000000000
20
741.188000000000
30
0.0
11
2401.094000000000
21
741.188000000000
31
0.0
0
LINE
5
7d3
100
AcDbEntity
8
0-9扉体
6
CONTINUOUS
62
4
100
AcDbLine
10
2395.094000000000
20
792.188000000000
30
0.0
11
2395.094000000000
21
747.188000000000
31
0.0
0
LINE
5
7d4
100
AcDbEntity
8
0-9扉体
6
CONTINUOUS
62
4
100
AcDbLine
10
2389.095000000000
20
735.188000000000
30
0.0
11
2449.094000000000
21
735.188000000000
31
0.0
0
POLYLINE
5
7d5
100
AcDbEntity
8
0-9扉体
6
CONTINUOUS
62
  4
100
AcDb2dPolyline
66
1
10
0.0
20
0.0
30
0.0
70
0
0
VERTEX
5
7d6
100
AcDbEntity
8
0-9扉体
6
CONTINUOUS
62
  4
100
AcDbVertex
100
AcDb2dVertex
10
2455.094000000000
20
1340.187000000000
30
0.0
0
VERTEX
5
7d7
100
AcDbEntity
8
0-9扉体
6
CONTINUOUS
62
  4
100
AcDbVertex
100
AcDb2dVertex
10
2455.094000000000
20
730.188000000000
30
0.0
0
VERTEX
5
7d8
100
AcDbEntity
8
0-9扉体
6
CONTINUOUS
62
  4
100
AcDbVertex
100
AcDb2dVertex
10
2449.094000000000
20
730.188000000000
30
0.0
0
SEQEND
5
7d9
100
AcDbEntity
8
0-9扉体
0
LINE
5
7da
100
AcDbEntity
8
0-9扉体
6
CONTINUOUS
62
4
100
AcDbLine
10
2449.094000000000
20
976.115000000000
30
0.0
11
2449.094000000000
21
730.188000000000
31
0.0
0
LINE
5
7db
100
AcDbEntity
8
0-6戸当り
6
CONTINUOUS
62
7
100
AcDbLine
10
2570.278000000000
20
1421.187000000000
30
0.0
11
2582.094000000000
21
1409.187000000000
31
0.0
0
POLYLINE
5
7dc
100
AcDbEntity
8
0-6戸当り
6
CONTINUOUS
62
  7
100
AcDb2dPolyline
66
1
10
0.0
20
0.0
30
0.0
70
0
0
VERTEX
5
7dd
100
AcDbEntity
8
0-6戸当り
6
CONTINUOUS
62
  7
100
AcDbVertex
100
AcDb2dVertex
10
2487.095000000000
20
1420.187000000000
30
0.0
0
VERTEX
5
7de
100
AcDbEntity
8
0-6戸当り
6
CONTINUOUS
62
  7
100
AcDbVertex
100
AcDb2dVertex
10
2570.278000000000
20
1420.187000000000
30
0.0
0
VERTEX
5
7df
100
AcDbEntity
8
0-6戸当り
6
CONTINUOUS
62
  7
100
AcDbVertex
100
AcDb2dVertex
10
2571.232000000000
20
1420.187000000000
30
0.0
0
SEQEND
5
7e0
100
AcDbEntity
8
0-6戸当り
0
LINE
5
7e1
100
AcDbEntity
8
0-6戸当り
6
CONTINUOUS
62
7
100
AcDbLine
10
2487.095000000000
20
1410.187000000000
30
0.0
11
2581.110000000000
21
1410.187000000000
31
0.0
0
LINE
5
7e2
100
AcDbEntity
8
0-6戸当り
6
CONTINUOUS
62
7
100
AcDbLine
10
1303.163000000000
20
1420.672000000000
30
0.0
11
1293.663000000000
21
1426.157000000000
31
0.0
0
LINE
5
7e3
100
AcDbEntity
8
0-6戸当り
6
CONTINUOUS
62
7
100
AcDbLine
10
1303.163000000000
20
1420.672000000000
30
0.0
11
1303.163000000000
21
1409.703000000000
31
0.0
0
LINE
5
7e4
100
AcDbEntity
8
0-6戸当り
6
CONTINUOUS
62
7
100
AcDbLine
10
1293.663000000000
20
1404.218000000000
30
0.0
11
1303.163000000000
21
1409.703000000000
31
0.0
0
POLYLINE
5
7e5
100
AcDbEntity
8
0-6戸当り
6
CONTINUOUS
62
  7
100
AcDb2dPolyline
66
1
10
0.0
20
0.0
30
0.0
70
0
0
VERTEX
5
7e6
100
AcDbEntity
8
0-6戸当り
6
CONTINUOUS
62
  7
100
AcDbVertex
100
AcDb2dVertex
10
1293.663000000000
20
1404.218000000000
30
0.0
0
VERTEX
5
7e7
100
AcDbEntity
8
0-6戸当り
6
CONTINUOUS
62
  7
100
AcDbVertex
100
AcDb2dVertex
10
1284.163000000001
20
1409.703000000000
30
0.0
0
VERTEX
5
7e8
100
AcDbEntity
8
0-6戸当り
6
CONTINUOUS
62
  7
100
AcDbVertex
100
AcDb2dVertex
10
1284.163000000001
20
1420.672000000000
30
0.0
0
VERTEX
5
7e9
100
AcDbEntity
8
0-6戸当り
6
CONTINUOUS
62
  7
100
AcDbVertex
100
AcDb2dVertex
10
1293.663000000000
20
1426.157000000000
30
0.0
0
SEQEND
5
7ea
100
AcDbEntity
8
0-6戸当り
0
LINE
5
7eb
100
AcDbEntity
8
0-5基準線
6
CENTER2
62
7
100
AcDbLine
10
1293.663000000000
20
1432.187000000000
30
0.0
11
1293.663000000000
21
1398.188000000000
31
0.0
0
LINE
5
7ec
100
AcDbEntity
8
0-5基準線
6
CENTER2
62
7
100
AcDbLine
10
1310.663000000000
20
1415.187000000000
30
0.0
11
1276.663000000001
21
1415.187000000000
31
0.0
0
LINE
5
7ed
100
AcDbEntity
8
0-9扉体
6
CONTINUOUS
62
7
100
AcDbLine
10
1268.662000000000
20
1335.187000000000
30
0.0
11
1268.662000000000
21
1375.187000000000
31
0.0
0
LINE
5
7ee
100
AcDbEntity
8
0-9扉体
6
CONTINUOUS
62
7
100
AcDbLine
10
1318.662000000000
20
1375.187000000000
30
0.0
11
1318.662000000000
21
1335.187000000000
31
0.0
0
LINE
5
7ef
100
AcDbEntity
8
F-F_J_ADD
6
HIDDEN
62
7
100
AcDbLine
10
1268.662000000000
20
1335.187000000000
30
0.0
11
1318.662000000000
21
1335.187000000000
31
0.0
0
LINE
5
7f0
100
AcDbEntity
8
0-5基準線
6
CENTER2
62
7
100
AcDbLine
10
1255.009000000000
20
1360.187000000000
30
0.0
11
1332.316000000000
21
1360.187000000000
31
0.0
0
LINE
5
7f1
100
AcDbEntity
8
0-9扉体
6
CONTINUOUS
62
4
100
AcDbLine
10
1318.662000000000
20
1340.187000000000
30
0.0
11
1403.663000000000
21
1340.187000000000
31
0.0
0
LINE
5
7f2
100
AcDbEntity
8
0-6戸当り
6
CONTINUOUS
62
7
100
AcDbLine
10
1037.663000000000
20
2304.647000000000
30
0.0
11
1037.663000000000
21
2387.830000000000
31
0.0
0
LINE
5
7f3
100
AcDbEntity
8
0-6戸当り
6
CONTINUOUS
62
7
100
AcDbLine
10
1049.663000000000
20
2304.647000000000
30
0.0
11
1049.663000000000
21
2399.647000000000
31
0.0
0
LINE
5
7f4
100
AcDbEntity
8
0-6戸当り
6
CONTINUOUS
62
7
100
AcDbLine
10
1037.663000000000
20
2387.830000000000
30
0.0
11
1049.663000000000
21
2399.647000000000
31
0.0
0
POLYLINE
5
7f5
100
AcDbEntity
8
0-6戸当り
6
CONTINUOUS
62
  7
100
AcDb2dPolyline
66
1
10
0.0
20
0.0
30
0.0
70
0
0
VERTEX
5
7f6
100
AcDbEntity
8
0-6戸当り
6
CONTINUOUS
62
  7
100
AcDbVertex
100
AcDb2dVertex
10
1038.663000000000
20
2304.647000000000
30
0.0
0
VERTEX
5
7f7
100
AcDbEntity
8
0-6戸当り
6
CONTINUOUS
62
  7
100
AcDbVertex
100
AcDb2dVertex
10
1038.663000000000
20
2387.830000000000
30
0.0
0
VERTEX
5
7f8
100
AcDbEntity
8
0-6戸当り
6
CONTINUOUS
62
  7
100
AcDbVertex
100
AcDb2dVertex
10
1038.663000000000
20
2388.785000000000
30
0.0
0
SEQEND
5
7f9
100
AcDbEntity
8
0-6戸当り
0
LINE
5
7fa
100
AcDbEntity
8
0-6戸当り
6
CONTINUOUS
62
7
100
AcDbLine
10
1048.663000000000
20
2304.647000000000
30
0.0
11
1048.663000000000
21
2398.662000000000
31
0.0
0
LINE
5
7fb
100
AcDbEntity
8
F-F_J_ADD
6
HIDDEN
62
6
100
AcDbLine
10
2475.094000000000
20
1310.187000000000
30
0.0
11
2487.095000000000
21
1310.187000000000
31
0.0
0
LINE
5
7fc
100
AcDbEntity
8
F-F_J_ADD
6
HIDDEN
62
6
100
AcDbLine
10
2475.094000000000
20
785.188000000000
30
0.0
11
2487.095000000000
21
785.188000000000
31
0.0
0
CIRCLE
5
7fd
100
AcDbEntity
8
0-9扉体
6
CONTINUOUS
62
3
100
AcDbCircle
10
2465.095000000000
20
1325.188000000000
30
0.0
40
4.000000000000
0
ARC
5
7fe
100
AcDbEntity
8
0-9扉体
6
CONTINUOUS
62
7
100
AcDbCircle
10
2453.414000000000
20
1295.187000000000
30
0.0
40
12.419000000000
100
AcDbArc
50
162.412000000000
51
197.588000000000
0
ARC
5
7ff
100
AcDbEntity
8
0-9扉体
6
CONTINUOUS
62
7
100
AcDbCircle
10
2444.317000000000
20
1289.558000000000
30
0.0
40
3.323000000000
100
AcDbArc
50
145.615000000000
51
205.614000000000
0
ARC
5
800
100
AcDbEntity
8
0-9扉体
6
CONTINUOUS
62
7
100
AcDbCircle
10
2444.317000000000
20
1300.816000000000
30
0.0
40
3.323000000000
100
AcDbArc
50
154.386000000000
51
214.385000000000
0
ARC
5
801
100
AcDbEntity
8
0-9扉体
6
CONTINUOUS
62
3
100
AcDbCircle
10
2465.095000000000
20
745.187000000000
30
0.0
40
10.000000000000
100
AcDbArc
50
180.000000000000
51
450.000000000000
0
CIRCLE
5
802
100
AcDbEntity
8
0-9扉体
6
CONTINUOUS
62
3
100
AcDbCircle
10
2465.095000000000
20
745.187000000000
30
0.0
40
4.000000000000
0
ARC
5
803
100
AcDbEntity
8
0-9扉体
6
CONTINUOUS
62
7
100
AcDbCircle
10
2453.414000000000
20
775.188000000000
30
0.0
40
12.419000000000
100
AcDbArc
50
162.412000000000
51
197.588000000000
0
ARC
5
804
100
AcDbEntity
8
0-9扉体
6
CONTINUOUS
62
7
100
AcDbCircle
10
2444.317000000000
20
780.817000000000
30
0.0
40
3.323000000000
100
AcDbArc
50
154.386000000000
51
214.385000000000
0
ARC
5
805
100
AcDbEntity
8
0-9扉体
6
CONTINUOUS
62
7
100
AcDbCircle
10
2444.317000000000
20
769.559000000000
30
0.0
40
3.323000000000
100
AcDbArc
50
145.615000000000
51
205.614000000000
0
CIRCLE
5
806
100
AcDbEntity
8
0-9扉体
6
CONTINUOUS
62
4
100
AcDbCircle
10
2441.094000000000
20
1385.188000000000
30
0.0
40
8.000000000000
0
ARC
5
807
100
AcDbEntity
8
0-9扉体
6
CONTINUOUS
62
7
100
AcDbCircle
10
1058.913000000000
20
1345.768000000000
30
0.0
40
13.720000000000
100
AcDbArc
50
69.744000000000
51
110.256000000000
0
ARC
5
808
100
AcDbEntity
8
0-9扉体
6
CONTINUOUS
62
7
100
AcDbCircle
10
1068.413000000000
20
1345.768000000000
30
0.0
40
13.720000000000
100
AcDbArc
50
69.744000000000
51
110.256000000000
0
ARC
5
809
100
AcDbEntity
8
0-9扉体
6
CONTINUOUS
62
7
100
AcDbCircle
10
2419.094000000000
20
1341.336000000000
30
0.0
40
18.152000000000
100
AcDbArc
50
72.412000000000
51
107.588000000000
0
ARC
5
80a
100
AcDbEntity
8
0-9扉体
6
CONTINUOUS
62
7
100
AcDbCircle
10
2427.322000000000
20
1354.631000000000
30
0.0
40
4.856000000000
100
AcDbArc
50
64.384000000000
51
124.384000000000
0
ARC
5
80b
100
AcDbEntity
8
0-9扉体
6
CONTINUOUS
62
7
100
AcDbCircle
10
2410.867000000000
20
1354.631000000000
30
0.0
40
4.856000000000
100
AcDbArc
50
55.616000000000
51
115.616000000000
0
ARC
5
80c
100
AcDbEntity
8
0-9扉体
6
CONTINUOUS
62
7
100
AcDbCircle
10
2419.094000000000
20
1339.339000000000
30
0.0
40
18.152000000000
100
AcDbArc
50
252.412000000000
51
287.588000000000
0
ARC
5
80d
100
AcDbEntity
8
0-9扉体
6
CONTINUOUS
62
7
100
AcDbCircle
10
2410.867000000000
20
1326.044000000000
30
0.0
40
4.856000000000
100
AcDbArc
50
244.384000000000
51
304.384000000000
0
ARC
5
80e
100
AcDbEntity
8
0-9扉体
6
CONTINUOUS
62
7
100
AcDbCircle
10
2427.322000000000
20
1326.044000000000
30
0.0
40
4.856000000000
100
AcDbArc
50
235.616000000000
51
295.616000000000
0
CIRCLE
5
80f
100
AcDbEntity
8
0-6戸当り
6
CONTINUOUS
62
7
100
AcDbCircle
10
1043.663000000000
20
1415.187000000000
30
0.0
40
9.500000000000
0
CIRCLE
5
810
100
AcDbEntity
8
0-6戸当り
6
CONTINUOUS
62
6
100
AcDbCircle
10
1043.663000000000
20
1415.187000000000
30
0.0
40
6.000000000000
0
CIRCLE
5
811
100
AcDbEntity
8
0-6戸当り
6
CONTINUOUS
62
6
100
AcDbCircle
10
1043.663000000000
20
1415.187000000000
30
0.0
40
5.000000000000
0
CIRCLE
5
812
100
AcDbEntity
8
0-9扉体
6
CONTINUOUS
62
4
100
AcDbCircle
10
2441.094000000000
20
1385.188000000000
30
0.0
40
16.000000000000
0
ARC
5
813
100
AcDbEntity
8
0-9扉体
6
CONTINUOUS
62
3
100
AcDbCircle
10
1583.663000000000
20
2282.647000000000
30
0.0
40
10.000000000000
100
AcDbArc
50
270.000000000000
51
540.000000000000
0
CIRCLE
5
814
100
AcDbEntity
8
0-9扉体
6
CONTINUOUS
62
3
100
AcDbCircle
10
1583.663000000000
20
2282.647000000000
30
0.0
40
4.000000000000
0
ARC
5
815
100
AcDbEntity
8
0-9扉体
6
CONTINUOUS
62
7
100
AcDbCircle
10
1553.663000000000
20
2270.966000000000
30
0.0
40
12.419000000000
100
AcDbArc
50
252.412000000000
51
287.588000000000
0
ARC
5
816
100
AcDbEntity
8
0-9扉体
6
CONTINUOUS
62
7
100
AcDbCircle
10
1548.034000000000
20
2261.870000000000
30
0.0
40
3.323000000000
100
AcDbArc
50
244.386000000000
51
304.385000000000
0
ARC
5
817
100
AcDbEntity
8
0-9扉体
6
CONTINUOUS
62
7
100
AcDbCircle
10
1559.292000000000
20
2261.870000000000
30
0.0
40
3.323000000000
100
AcDbArc
50
235.615000000000
51
295.614000000000
0
ARC
5
818
100
AcDbEntity
8
0-9扉体
6
CONTINUOUS
62
7
100
AcDbCircle
10
1168.413000000000
20
1345.768000000000
30
0.0
40
13.720000000000
100
AcDbArc
50
69.744000000000
51
110.256000000000
0
ARC
5
819
100
AcDbEntity
8
0-9扉体
6
CONTINUOUS
62
7
100
AcDbCircle
10
1158.913000000000
20
1345.768000000000
30
0.0
40
13.720000000000
100
AcDbArc
50
69.744000000000
51
110.256000000000
0
CIRCLE
5
81a
100
AcDbEntity
8
0-9扉体
6
CONTINUOUS
62
7
100
AcDbCircle
10
1063.663000000000
20
2236.647000000000
30
0.0
40
9.500000000000
0
CIRCLE
5
81b
100
AcDbEntity
8
0-9扉体
6
CONTINUOUS
62
6
100
AcDbCircle
10
1063.663000000000
20
2236.647000000000
30
0.0
40
6.000000000000
0
CIRCLE
5
81c
100
AcDbEntity
8
0-9扉体
6
CONTINUOUS
62
6
100
AcDbCircle
10
1063.663000000000
20
2236.647000000000
30
0.0
40
5.000000000000
0
ARC
5
81d
100
AcDbEntity
8
0-9扉体
6
CONTINUOUS
62
4
100
AcDbCircle
10
2401.094000000000
20
1323.187000000000
30
0.0
40
6.000000000000
100
AcDbArc
50
90.000000000000
51
180.000000000000
0
ARC
5
81e
100
AcDbEntity
8
0-9扉体
6
CONTINUOUS
62
4
100
AcDbCircle
10
2446.095000000000
20
1332.187000000000
30
0.0
40
3.000000000000
100
AcDbArc
50
270.000000000000
51
360.000000000000
0
ARC
5
81f
100
AcDbEntity
8
0-9扉体
6
CONTINUOUS
62
4
100
AcDbCircle
10
2392.094000000000
20
1278.187000000000
30
0.0
40
3.000000000000
100
AcDbArc
50
270.000000000000
51
360.000000000000
0
ARC
5
820
100
AcDbEntity
8
0-9扉体
6
CONTINUOUS
62
4
100
AcDbCircle
10
1581.663000000000
20
2218.647000000000
30
0.0
40
6.000000000000
100
AcDbArc
50
270.000000000000
51
360.000000000000
0
ARC
5
821
100
AcDbEntity
8
0-9扉体
6
CONTINUOUS
62
4
100
AcDbCircle
10
1536.663000000000
20
2209.647000000000
30
0.0
40
3.000000000000
100
AcDbArc
50
90.000000000000
51
180.000000000000
0
ARC
5
822
100
AcDbEntity
8
0-9扉体
6
CONTINUOUS
62
4
100
AcDbCircle
10
1590.663000000000
20
2263.647000000000
30
0.0
40
3.000000000000
100
AcDbArc
50
90.000000000000
51
180.000000000000
0
ARC
5
823
100
AcDbEntity
8
0-9扉体
6
CONTINUOUS
62
7
100
AcDbCircle
10
1528.413000000000
20
1345.768000000000
30
0.0
40
13.720000000000
100
AcDbArc
50
69.744000000000
51
110.256000000000
0
ARC
5
824
100
AcDbEntity
8
0-9扉体
6
CONTINUOUS
62
7
100
AcDbCircle
10
1518.912000000000
20
1345.768000000000
30
0.0
40
13.720000000000
100
AcDbArc
50
69.744000000000
51
110.256000000000
0
ARC
5
825
100
AcDbEntity
8
0-9扉体
6
CONTINUOUS
62
7
100
AcDbCircle
10
1418.913000000000
20
1345.768000000000
30
0.0
40
13.720000000000
100
AcDbArc
50
69.744000000000
51
110.256000000000
0
ARC
5
826
100
AcDbEntity
8
0-9扉体
6
CONTINUOUS
62
7
100
AcDbCircle
10
1428.413000000000
20
1345.768000000000
30
0.0
40
13.720000000000
100
AcDbArc
50
69.744000000000
51
110.256000000000
0
CIRCLE
5
827
100
AcDbEntity
8
0-9扉体
6
CONTINUOUS
62
2
100
AcDbCircle
10
1063.663000000000
20
2236.647000000000
30
0.0
40
13.000000000000
0
CIRCLE
5
828
100
AcDbEntity
8
0-9扉体
6
CONTINUOUS
62
7
100
AcDbCircle
10
1163.663000000000
20
2236.647000000000
30
0.0
40
9.500000000000
0
CIRCLE
5
829
100
AcDbEntity
8
0-9扉体
6
CONTINUOUS
62
6
100
AcDbCircle
10
1163.663000000000
20
2236.647000000000
30
0.0
40
6.000000000000
0
CIRCLE
5
82a
100
AcDbEntity
8
0-9扉体
6
CONTINUOUS
62
6
100
AcDbCircle
10
1163.663000000000
20
2236.647000000000
30
0.0
40
5.000000000000
0
CIRCLE
5
82b
100
AcDbEntity
8
0-9扉体
6
CONTINUOUS
62
2
100
AcDbCircle
10
1163.663000000000
20
2236.647000000000
30
0.0
40
13.000000000000
0
ARC
5
82c
100
AcDbEntity
8
0-6戸当り
6
CONTINUOUS
62
6
100
AcDbCircle
10
2427.094000000000
20
1386.188000000000
30
0.0
40
17.000000000000
100
AcDbArc
50
113.887000000000
51
197.292000000000
0
ARC
5
82d
100
AcDbEntity
8
0-6戸当り
6
CONTINUOUS
62
7
100
AcDbCircle
10
2481.736000000000
20
705.187000000000
30
0.0
40
16.241000000000
100
AcDbArc
50
162.412000000000
51
197.588000000000
0
ARC
5
82e
100
AcDbEntity
8
0-6戸当り
6
CONTINUOUS
62
7
100
AcDbCircle
10
2469.840000000000
20
712.548000000000
30
0.0
40
4.345000000000
100
AcDbArc
50
154.383000000000
51
214.383000000000
0
ARC
5
82f
100
AcDbEntity
8
0-6戸当り
6
CONTINUOUS
62
7
100
AcDbCircle
10
2469.840000000000
20
697.826000000000
30
0.0
40
4.345000000000
100
AcDbArc
50
145.616000000000
51
205.616000000000
0
ARC
5
830
100
AcDbEntity
8
0-6戸当り
6
CONTINUOUS
62
2
100
AcDbCircle
10
2480.173000000000
20
705.187000000000
30
0.0
40
20.000000000000
100
AcDbArc
50
165.522000000000
51
194.478000000000
0
CIRCLE
5
831
100
AcDbEntity
8
0-6戸当り
6
CONTINUOUS
62
3
100
AcDbCircle
10
1623.663000000000
20
705.187000000000
30
0.0
40
11.000000000000
0
CIRCLE
5
832
100
AcDbEntity
8
0-6戸当り
6
CONTINUOUS
62
3
100
AcDbCircle
10
1623.663000000000
20
705.187000000000
30
0.0
40
5.000000000000
0
CIRCLE
5
833
100
AcDbEntity
8
0-6戸当り
6
CONTINUOUS
62
3
100
AcDbCircle
10
1623.663000000000
20
705.187000000000
30
0.0
40
4.000000000000
0
CIRCLE
5
834
100
AcDbEntity
8
0-6戸当り
6
CONTINUOUS
62
3
100
AcDbCircle
10
1623.663000000000
20
705.187000000000
30
0.0
40
8.487000000000
0
CIRCLE
5
835
100
AcDbEntity
8
0-6戸当り
6
CONTINUOUS
62
3
100
AcDbCircle
10
1403.663000000000
20
705.187000000000
30
0.0
40
11.000000000000
0
CIRCLE
5
836
100
AcDbEntity
8
0-6戸当り
6
CONTINUOUS
62
3
100
AcDbCircle
10
1403.663000000000
20
705.187000000000
30
0.0
40
5.000000000000
0
CIRCLE
5
837
100
AcDbEntity
8
0-6戸当り
6
CONTINUOUS
62
3
100
AcDbCircle
10
1403.663000000000
20
705.187000000000
30
0.0
40
4.000000000000
0
CIRCLE
5
838
100
AcDbEntity
8
0-6戸当り
6
CONTINUOUS
62
3
100
AcDbCircle
10
1403.663000000000
20
705.187000000000
30
0.0
40
8.487000000000
0
CIRCLE
5
839
100
AcDbEntity
8
0-6戸当り
6
CONTINUOUS
62
3
100
AcDbCircle
10
963.663000000000
20
705.187000000000
30
0.0
40
11.000000000000
0
CIRCLE
5
83a
100
AcDbEntity
8
0-6戸当り
6
CONTINUOUS
62
3
100
AcDbCircle
10
963.663000000000
20
705.187000000000
30
0.0
40
5.000000000000
0
CIRCLE
5
83b
100
AcDbEntity
8
0-6戸当り
6
CONTINUOUS
62
3
100
AcDbCircle
10
963.663000000000
20
705.187000000000
30
0.0
40
4.000000000000
0
CIRCLE
5
83c
100
AcDbEntity
8
0-6戸当り
6
CONTINUOUS
62
3
100
AcDbCircle
10
963.663000000000
20
705.187000000000
30
0.0
40
8.487000000000
0
CIRCLE
5
83d
100
AcDbEntity
8
0-6戸当り
6
CONTINUOUS
62
3
100
AcDbCircle
10
1183.663000000000
20
705.187000000000
30
0.0
40
11.000000000000
0
CIRCLE
5
83e
100
AcDbEntity
8
0-6戸当り
6
CONTINUOUS
62
3
100
AcDbCircle
10
1183.663000000000
20
705.187000000000
30
0.0
40
5.000000000000
0
CIRCLE
5
83f
100
AcDbEntity
8
0-6戸当り
6
CONTINUOUS
62
3
100
AcDbCircle
10
1183.663000000000
20
705.187000000000
30
0.0
40
4.000000000000
0
CIRCLE
5
840
100
AcDbEntity
8
0-6戸当り
6
CONTINUOUS
62
3
100
AcDbCircle
10
1183.663000000000
20
705.187000000000
30
0.0
40
8.487000000000
0
CIRCLE
5
841
100
AcDbEntity
8
0-6戸当り
6
CONTINUOUS
62
6
100
AcDbCircle
10
1043.663000000000
20
1415.187000000000
30
0.0
40
13.000000000000
0
CIRCLE
5
842
100
AcDbEntity
8
0-6戸当り
6
CONTINUOUS
62
3
100
AcDbCircle
10
963.663000000000
20
1365.187000000000
30
0.0
40
11.000000000000
0
CIRCLE
5
843
100
AcDbEntity
8
0-6戸当り
6
CONTINUOUS
62
3
100
AcDbCircle
10
963.663000000000
20
1365.187000000000
30
0.0
40
5.000000000000
0
CIRCLE
5
844
100
AcDbEntity
8
0-6戸当り
6
CONTINUOUS
62
3
100
AcDbCircle
10
963.663000000000
20
1365.187000000000
30
0.0
40
4.000000000000
0
CIRCLE
5
845
100
AcDbEntity
8
0-6戸当り
6
CONTINUOUS
62
3
100
AcDbCircle
10
963.663000000000
20
1365.187000000000
30
0.0
40
8.487000000000
0
CIRCLE
5
846
100
AcDbEntity
8
0-6戸当り
6
CONTINUOUS
62
3
100
AcDbCircle
10
1623.663000000000
20
1365.187000000000
30
0.0
40
11.000000000000
0
CIRCLE
5
847
100
AcDbEntity
8
0-6戸当り
6
CONTINUOUS
62
3
100
AcDbCircle
10
1623.663000000000
20
1365.187000000000
30
0.0
40
5.000000000000
0
CIRCLE
5
848
100
AcDbEntity
8
0-6戸当り
6
CONTINUOUS
62
3
100
AcDbCircle
10
1623.663000000000
20
1365.187000000000
30
0.0
40
4.000000000000
0
CIRCLE
5
849
100
AcDbEntity
8
0-6戸当り
6
CONTINUOUS
62
3
100
AcDbCircle
10
1623.663000000000
20
1365.187000000000
30
0.0
40
8.487000000000
0
CIRCLE
5
84a
100
AcDbEntity
8
0-6戸当り
6
CONTINUOUS
62
7
100
AcDbCircle
10
1543.663000000000
20
1415.187000000000
30
0.0
40
9.500000000000
0
CIRCLE
5
84b
100
AcDbEntity
8
0-6戸当り
6
CONTINUOUS
62
6
100
AcDbCircle
10
1543.663000000000
20
1415.187000000000
30
0.0
40
6.000000000000
0
CIRCLE
5
84c
100
AcDbEntity
8
0-6戸当り
6
CONTINUOUS
62
6
100
AcDbCircle
10
1543.663000000000
20
1415.187000000000
30
0.0
40
5.000000000000
0
CIRCLE
5
84d
100
AcDbEntity
8
0-6戸当り
6
CONTINUOUS
62
6
100
AcDbCircle
10
1543.663000000000
20
1415.187000000000
30
0.0
40
13.000000000000
0
ARC
5
84e
100
AcDbEntity
8
0-9扉体
6
CONTINUOUS
62
3
100
AcDbCircle
10
1003.663000000000
20
2282.647000000000
30
0.0
40
10.000000000000
100
AcDbArc
50
90.000000000000
51
270.000000000000
0
ARC
5
84f
100
AcDbEntity
8
0-6戸当り
6
CONTINUOUS
62
7
100
AcDbCircle
10
1623.663000000000
20
2299.288000000000
30
0.0
40
16.241000000000
100
AcDbArc
50
252.412000000000
51
287.588000000000
0
ARC
5
850
100
AcDbEntity
8
0-6戸当り
6
CONTINUOUS
62
7
100
AcDbCircle
10
1616.302000000000
20
2287.392000000000
30
0.0
40
4.345000000000
100
AcDbArc
50
244.383000000000
51
304.383000000000
0
ARC
5
851
100
AcDbEntity
8
0-6戸当り
6
CONTINUOUS
62
7
100
AcDbCircle
10
1631.024000000000
20
2287.392000000000
30
0.0
40
4.345000000000
100
AcDbArc
50
235.616000000000
51
295.616000000000
0
ARC
5
852
100
AcDbEntity
8
0-6戸当り
6
CONTINUOUS
62
2
100
AcDbCircle
10
1623.663000000000
20
2297.726000000000
30
0.0
40
20.000000000000
100
AcDbArc
50
255.522000000000
51
284.478000000000
0
ARC
5
853
100
AcDbEntity
8
0-6戸当り
6
CONTINUOUS
62
7
100
AcDbCircle
10
963.663000000000
20
2299.288000000000
30
0.0
40
16.241000000000
100
AcDbArc
50
252.412000000000
51
287.588000000000
0
ARC
5
854
100
AcDbEntity
8
0-6戸当り
6
CONTINUOUS
62
7
100
AcDbCircle
10
971.023000000000
20
2287.392000000000
30
0.0
40
4.345000000000
100
AcDbArc
50
235.617000000000
51
295.617000000000
0
ARC
5
855
100
AcDbEntity
8
0-6戸当り
6
CONTINUOUS
62
7
100
AcDbCircle
10
956.302000000000
20
2287.392000000000
30
0.0
40
4.345000000000
100
AcDbArc
50
244.384000000000
51
304.384000000000
0
ARC
5
856
100
AcDbEntity
8
0-6戸当り
6
CONTINUOUS
62
2
100
AcDbCircle
10
963.663000000000
20
2297.726000000000
30
0.0
40
20.000000000000
100
AcDbArc
50
255.522000000000
51
284.478000000000
0
CIRCLE
5
857
100
AcDbEntity
8
0-6戸当り
6
CONTINUOUS
62
3
100
AcDbCircle
10
963.663000000000
20
1145.187000000000
30
0.0
40
11.000000000000
0
CIRCLE
5
858
100
AcDbEntity
8
0-6戸当り
6
CONTINUOUS
62
3
100
AcDbCircle
10
963.663000000000
20
1145.187000000000
30
0.0
40
5.000000000000
0
CIRCLE
5
859
100
AcDbEntity
8
0-6戸当り
6
CONTINUOUS
62
3
100
AcDbCircle
10
963.663000000000
20
1145.187000000000
30
0.0
40
4.000000000000
0
CIRCLE
5
85a
100
AcDbEntity
8
0-6戸当り
6
CONTINUOUS
62
3
100
AcDbCircle
10
963.663000000000
20
1145.187000000000
30
0.0
40
8.487000000000
0
CIRCLE
5
85b
100
AcDbEntity
8
0-6戸当り
6
CONTINUOUS
62
3
100
AcDbCircle
10
963.663000000000
20
925.187000000000
30
0.0
40
11.000000000000
0
CIRCLE
5
85c
100
AcDbEntity
8
0-6戸当り
6
CONTINUOUS
62
3
100
AcDbCircle
10
963.663000000000
20
925.187000000000
30
0.0
40
5.000000000000
0
CIRCLE
5
85d
100
AcDbEntity
8
0-6戸当り
6
CONTINUOUS
62
3
100
AcDbCircle
10
963.663000000000
20
925.187000000000
30
0.0
40
4.000000000000
0
CIRCLE
5
85e
100
AcDbEntity
8
0-6戸当り
6
CONTINUOUS
62
3
100
AcDbCircle
10
963.663000000000
20
925.187000000000
30
0.0
40
8.487000000000
0
CIRCLE
5
85f
100
AcDbEntity
8
0-6戸当り
6
CONTINUOUS
62
3
100
AcDbCircle
10
1623.663000000000
20
1145.187000000000
30
0.0
40
11.000000000000
0
CIRCLE
5
860
100
AcDbEntity
8
0-6戸当り
6
CONTINUOUS
62
3
100
AcDbCircle
10
1623.663000000000
20
1145.187000000000
30
0.0
40
5.000000000000
0
CIRCLE
5
861
100
AcDbEntity
8
0-6戸当り
6
CONTINUOUS
62
3
100
AcDbCircle
10
1623.663000000000
20
1145.187000000000
30
0.0
40
4.000000000000
0
CIRCLE
5
862
100
AcDbEntity
8
0-6戸当り
6
CONTINUOUS
62
3
100
AcDbCircle
10
1623.663000000000
20
1145.187000000000
30
0.0
40
8.487000000000
0
CIRCLE
5
863
100
AcDbEntity
8
0-6戸当り
6
CONTINUOUS
62
3
100
AcDbCircle
10
1623.663000000000
20
925.187000000000
30
0.0
40
11.000000000000
0
CIRCLE
5
864
100
AcDbEntity
8
0-6戸当り
6
CONTINUOUS
62
3
100
AcDbCircle
10
1623.663000000000
20
925.187000000000
30
0.0
40
5.000000000000
0
CIRCLE
5
865
100
AcDbEntity
8
0-6戸当り
6
CONTINUOUS
62
3
100
AcDbCircle
10
1623.663000000000
20
925.187000000000
30
0.0
40
4.000000000000
0
CIRCLE
5
866
100
AcDbEntity
8
0-6戸当り
6
CONTINUOUS
62
3
100
AcDbCircle
10
1623.663000000000
20
925.187000000000
30
0.0
40
8.487000000000
0
CIRCLE
5
867
100
AcDbEntity
8
0-6戸当り
6
CONTINUOUS
62
3
100
AcDbCircle
10
1183.663000000000
20
1365.187000000000
30
0.0
40
11.000000000000
0
CIRCLE
5
868
100
AcDbEntity
8
0-6戸当り
6
CONTINUOUS
62
3
100
AcDbCircle
10
1183.663000000000
20
1365.187000000000
30
0.0
40
5.000000000000
0
CIRCLE
5
869
100
AcDbEntity
8
0-6戸当り
6
CONTINUOUS
62
3
100
AcDbCircle
10
1183.663000000000
20
1365.187000000000
30
0.0
40
4.000000000000
0
CIRCLE
5
86a
100
AcDbEntity
8
0-6戸当り
6
CONTINUOUS
62
3
100
AcDbCircle
10
1183.663000000000
20
1365.187000000000
30
0.0
40
8.487000000000
0
CIRCLE
5
86b
100
AcDbEntity
8
0-6戸当り
6
CONTINUOUS
62
3
100
AcDbCircle
10
1403.663000000000
20
1365.187000000000
30
0.0
40
11.000000000000
0
CIRCLE
5
86c
100
AcDbEntity
8
0-6戸当り
6
CONTINUOUS
62
3
100
AcDbCircle
10
1403.663000000000
20
1365.187000000000
30
0.0
40
5.000000000000
0
CIRCLE
5
86d
100
AcDbEntity
8
0-6戸当り
6
CONTINUOUS
62
3
100
AcDbCircle
10
1403.663000000000
20
1365.187000000000
30
0.0
40
4.000000000000
0
CIRCLE
5
86e
100
AcDbEntity
8
0-6戸当り
6
CONTINUOUS
62
3
100
AcDbCircle
10
1403.663000000000
20
1365.187000000000
30
0.0
40
8.487000000000
0
ARC
5
86f
100
AcDbEntity
8
0-9扉体
6
CONTINUOUS
62
4
100
AcDbCircle
10
2401.094000000000
20
747.188000000000
30
0.0
40
6.000000000000
100
AcDbArc
50
180.000000000000
51
270.000000000000
0
ARC
5
870
100
AcDbEntity
8
0-9扉体
6
CONTINUOUS
62
4
100
AcDbCircle
10
2446.095000000000
20
738.188000000000
30
0.0
40
3.000000000000
100
AcDbArc
50
0.000000000000
51
90.000000000000
0
ARC
5
871
100
AcDbEntity
8
0-9扉体
6
CONTINUOUS
62
4
100
AcDbCircle
10
2392.094000000000
20
792.188000000000
30
0.0
40
3.000000000000
100
AcDbArc
50
0.000000000000
51
90.000000000000
0
CIRCLE
5
872
100
AcDbEntity
8
0-6戸当り
6
CONTINUOUS
62
7
100
AcDbCircle
10
1293.663000000000
20
1415.187000000000
30
0.0
40
9.500000000000
0
CIRCLE
5
873
100
AcDbEntity
8
0-6戸当り
6
CONTINUOUS
62
6
100
AcDbCircle
10
1293.663000000000
20
1415.187000000000
30
0.0
40
6.000000000000
0
CIRCLE
5
874
100
AcDbEntity
8
0-6戸当り
6
CONTINUOUS
62
6
100
AcDbCircle
10
1293.663000000000
20
1415.187000000000
30
0.0
40
5.000000000000
0
CIRCLE
5
875
100
AcDbEntity
8
0-6戸当り
6
CONTINUOUS
62
6
100
AcDbCircle
10
1293.663000000000
20
1415.187000000000
30
0.0
40
13.000000000000
0
CIRCLE
5
876
100
AcDbEntity
8
0-9扉体
6
CONTINUOUS
62
7
100
AcDbCircle
10
1293.662000000000
20
1360.187000000000
30
0.0
40
12.500000000000
0
POLYLINE
5
877
100
AcDbEntity
  8
0-8寸法
6
CONTINUOUS
62
4
100
AcDb2dPolyline
66
1
10
0
20
0
70
1
40
4.000
41
4.000
0
VERTEX
5
878
100
AcDbEntity
  8
0-8寸法
6
CONTINUOUS
62
4
100
AcDbVertex
100
AcDb2dVertex
10
1575.699
20
2277.688
30
0.0
42
1.000
0
VERTEX
5
879
100
AcDbEntity
  8
0-8寸法
6
CONTINUOUS
62
4
100
AcDbVertex
100
AcDb2dVertex
10
1579.699
20
2277.688
30
0.0
42
1.000
0
SEQEND
5
87a
100
AcDbEntity
  8
0-8寸法
0
POLYLINE
5
87b
100
AcDbEntity
  8
0-8寸法
6
CONTINUOUS
62
4
100
AcDb2dPolyline
66
1
10
0
20
0
70
1
40
4.000
41
4.000
0
VERTEX
5
87c
100
AcDbEntity
  8
0-8寸法
6
CONTINUOUS
62
4
100
AcDbVertex
100
AcDb2dVertex
10
2299.094
20
1335.187
30
0.0
42
1.000
0
VERTEX
5
87d
100
AcDbEntity
  8
0-8寸法
6
CONTINUOUS
62
4
100
AcDbVertex
100
AcDb2dVertex
10
2303.094
20
1335.187
30
0.0
42
1.000
0
SEQEND
5
87e
100
AcDbEntity
  8
0-8寸法
0
POLYLINE
5
87f
100
AcDbEntity
  8
0-8寸法
6
CONTINUOUS
62
4
100
AcDb2dPolyline
66
1
10
0
20
0
70
1
40
4.000
41
4.000
0
VERTEX
5
880
100
AcDbEntity
  8
0-8寸法
6
CONTINUOUS
62
4
100
AcDbVertex
100
AcDb2dVertex
10
2473.094
20
1635.187
30
0.0
42
1.000
0
VERTEX
5
881
100
AcDbEntity
  8
0-8寸法
6
CONTINUOUS
62
4
100
AcDbVertex
100
AcDb2dVertex
10
2477.094
20
1635.187
30
0.0
42
1.000
0
SEQEND
5
882
100
AcDbEntity
  8
0-8寸法
0
POLYLINE
5
883
100
AcDbEntity
  8
0-8寸法
6
CONTINUOUS
62
4
100
AcDb2dPolyline
66
1
10
0
20
0
70
1
40
4.000
41
4.000
0
VERTEX
5
884
100
AcDbEntity
  8
0-8寸法
6
CONTINUOUS
62
4
100
AcDbVertex
100
AcDb2dVertex
10
2480.931
20
722.291
30
0.0
42
1.000
0
VERTEX
5
885
100
AcDbEntity
  8
0-8寸法
6
CONTINUOUS
62
4
100
AcDbVertex
100
AcDb2dVertex
10
2484.931
20
722.291
30
0.0
42
1.000
0
SEQEND
5
886
100
AcDbEntity
  8
0-8寸法
0
POLYLINE
5
887
100
AcDbEntity
  8
0-8寸法
6
CONTINUOUS
62
4
100
AcDb2dPolyline
66
1
10
0
20
0
70
1
40
4.000
41
4.000
0
VERTEX
5
888
100
AcDbEntity
  8
0-8寸法
6
CONTINUOUS
62
4
100
AcDbVertex
100
AcDb2dVertex
10
2439.094
20
1385.187
30
0.0
42
1.000
0
VERTEX
5
889
100
AcDbEntity
  8
0-8寸法
6
CONTINUOUS
62
4
100
AcDbVertex
100
AcDb2dVertex
10
2443.094
20
1385.187
30
0.0
42
1.000
0
SEQEND
5
88a
100
AcDbEntity
  8
0-8寸法
0
POLYLINE
5
88b
100
AcDbEntity
  8
0-8寸法
6
CONTINUOUS
62
4
100
AcDb2dPolyline
66
1
10
0
20
0
70
1
40
4.000
41
4.000
0
VERTEX
5
88c
100
AcDbEntity
  8
0-8寸法
6
CONTINUOUS
62
4
100
AcDbVertex
100
AcDb2dVertex
10
1088.444
20
1423.356
30
0.0
42
1.000
0
VERTEX
5
88d
100
AcDbEntity
  8
0-8寸法
6
CONTINUOUS
62
4
100
AcDbVertex
100
AcDb2dVertex
10
1092.444
20
1423.356
30
0.0
42
1.000
0
SEQEND
5
88e
100
AcDbEntity
  8
0-8寸法
0
POLYLINE
5
88f
100
AcDbEntity
  8
0-8寸法
6
CONTINUOUS
62
4
100
AcDb2dPolyline
66
1
10
0
20
0
70
1
40
4.000
41
4.000
0
VERTEX
5
890
100
AcDbEntity
  8
0-8寸法
6
CONTINUOUS
62
4
100
AcDbVertex
100
AcDb2dVertex
10
1496.745
20
1401.957
30
0.0
42
1.000
0
VERTEX
5
891
100
AcDbEntity
  8
0-8寸法
6
CONTINUOUS
62
4
100
AcDbVertex
100
AcDb2dVertex
10
1500.745
20
1401.957
30
0.0
42
1.000
0
SEQEND
5
892
100
AcDbEntity
  8
0-8寸法
0
TEXT
5
893
100
AcDbEntity
8
0-A文字
62
7
370
-3
100
AcDbText
10
2067.891
20
1072.118
30
0.0
40
33.660
1
水圧方向
41
0.963
50
0.000
100
AcDbText
0
MTEXT
5
894
100
AcDbEntity
8
0-8寸法
62
7
370
-3
100
AcDbMText
10
2059.825
20
1445.495
30
0.0
40
31.790
41
0.000
71
7
72
1
1
\W1.093;▽{\W0.787;H.W.L.}
7
STANDARD
11
1.00000
21
0.00000
31
0.0
0
TEXT
5
895
100
AcDbEntity
8
0-8寸法
62
7
370
-3
100
AcDbText
10
2518.291
20
1099.235
30
0.0
40
33.660
1
6t
41
0.574
50
0.000
100
AcDbText
0
TEXT
5
896
100
AcDbEntity
8
0-8寸法
62
7
370
-3
100
AcDbText
10
2324.694
20
1099.235
30
0.0
40
33.660
1
60
41
0.629
50
0.000
100
AcDbText
0
TEXT
5
897
100
AcDbEntity
8
0-A文字
62
7
370
-3
100
AcDbText
10
1519.615
20
898.127
30
0.0
40
33.660
1
L60x60x6(A5083)
41
0.625
50
90.000
100
AcDbText
0
TEXT
5
898
100
AcDbEntity
8
0-A文字
62
7
370
-3
100
AcDbText
10
1099.615
20
898.127
30
0.0
40
33.660
1
L60x60x6(A5083)
41
0.625
50
90.000
100
AcDbText
0
TEXT
5
899
100
AcDbEntity
8
0-8寸法
62
7
370
-3
100
AcDbText
10
2287.047
20
1411.787
30
0.0
40
33.660
1
50
41
0.626
50
90.000
100
AcDbText
0
TEXT
5
89a
100
AcDbEntity
8
0-8寸法
62
7
370
-3
100
AcDbText
10
2287.047
20
1221.787
30
0.0
40
33.660
1
50
41
0.626
50
90.000
100
AcDbText
0
TEXT
5
89b
100
AcDbEntity
8
0-8寸法
62
7
370
-3
100
AcDbText
10
1675.262
20
449.235
30
0.0
40
33.660
1
20
41
0.597
50
0.000
100
AcDbText
0
TEXT
5
89c
100
AcDbEntity
8
0-8寸法
62
7
370
-3
100
AcDbText
10
875.262
20
449.235
30
0.0
40
33.660
1
20
41
0.597
50
0.000
100
AcDbText
0
TEXT
5
89d
100
AcDbEntity
8
0-8寸法
62
7
370
-3
100
AcDbText
10
679.615
20
616.787
30
0.0
40
33.660
1
20
41
0.597
50
90.000
100
AcDbText
0
TEXT
5
89e
100
AcDbEntity
8
0-8寸法
62
7
370
-3
100
AcDbText
10
2378.194
20
1649.235
30
0.0
40
33.660
1
33
41
0.581
50
0.000
100
AcDbText
0
TEXT
5
89f
100
AcDbEntity
8
0-8寸法
62
7
370
-3
100
AcDbText
10
2773.047
20
705.537
30
0.0
40
33.660
1
100
41
0.775
50
90.000
100
AcDbText
0
TEXT
5
8a0
100
AcDbEntity
8
0-8寸法
62
7
370
-3
100
AcDbText
10
2773.047
20
1330.537
30
0.0
40
33.660
1
150
41
0.710
50
90.000
100
AcDbText
0
TEXT
5
8a1
100
AcDbEntity
8
0-8寸法
62
7
370
-3
100
AcDbText
10
1827.962
20
349.235
30
0.0
40
33.660
1
シ－リング剤充填とする。
41
0.963
50
0.000
100
AcDbText
0
TEXT
5
8a2
100
AcDbEntity
8
0-8寸法
62
7
370
-3
100
AcDbText
10
964.012
20
2618.695
30
0.0
40
33.660
1
100
41
0.775
50
0.000
100
AcDbText
0
TEXT
5
8a3
100
AcDbEntity
8
0-8寸法
62
7
370
-3
100
AcDbText
10
1564.012
20
2618.695
30
0.0
40
33.660
1
100
41
0.775
50
0.000
100
AcDbText
0
MTEXT
5
8a4
100
AcDbEntity
8
0-8寸法
62
7
370
-3
100
AcDbMText
10
1185.262
20
345.495
30
0.0
40
31.790
41
0.000
71
7
72
1
1
\W1.093;戸当幅{\W0.787; 700}
7
STANDARD
11
1.00000
21
0.00000
31
0.0
0
MTEXT
5
8a5
100
AcDbEntity
8
0-8寸法
62
7
370
-3
100
AcDbMText
10
583.355
20
951.787
30
0.0
40
31.790
41
0.000
71
7
72
1
1
\W1.093;戸当高{\W0.787; 750}
7
STANDARD
11
0.00000
21
1.00000
31
0.0
0
MTEXT
5
8a6
100
AcDbEntity
8
0-8寸法
62
7
370
-3
100
AcDbMText
10
783.355
20
926.787
30
0.0
40
31.790
41
0.000
71
7
72
1
1
\W1.093;扉体高{\W0.787; 600}
7
STANDARD
11
0.00000
21
1.00000
31
0.0
0
MTEXT
5
8a7
100
AcDbEntity
8
0-8寸法
62
7
370
-3
100
AcDbMText
10
1185.263
20
545.495
30
0.0
40
31.790
41
0.000
71
7
72
1
1
\W1.093;扉体幅{\W0.787; 600}
7
STANDARD
11
1.00000
21
0.00000
31
0.0
0
MTEXT
5
8a8
100
AcDbEntity
8
0-8寸法
62
7
370
-3
100
AcDbMText
10
1185.263
20
2020.495
30
0.0
40
31.790
41
0.000
71
7
72
1
1
\W1.093;扉体幅{\W0.787; 600}
7
STANDARD
11
1.00000
21
0.00000
31
0.0
0
MTEXT
5
8a9
100
AcDbEntity
8
0-8寸法
62
7
370
-3
100
AcDbMText
10
1185.263
20
2614.955
30
0.0
40
31.790
41
0.000
71
7
72
1
1
\W1.093;有効幅{\W0.787; 500}
7
STANDARD
11
1.00000
21
0.00000
31
0.0
0
TEXT
5
8aa
100
AcDbEntity
8
0-8寸法
62
7
370
-3
100
AcDbText
10
1264.012
20
1674.235
30
0.0
40
33.660
1
360
41
0.612
50
0.000
100
AcDbText
0
TEXT
5
8ab
100
AcDbEntity
8
0-8寸法
62
7
370
-3
100
AcDbText
10
2518.291
20
999.235
30
0.0
40
33.660
1
20
41
0.597
50
0.000
100
AcDbText
0
TEXT
5
8ac
100
AcDbEntity
8
0-8寸法
62
7
370
-3
100
AcDbText
10
679.615
20
1381.787
30
0.0
40
33.660
1
70
41
0.654
50
90.000
100
AcDbText
0
TEXT
5
8ad
100
AcDbEntity
8
0-8寸法
62
7
370
-3
100
AcDbText
10
1185.262
20
449.235
30
0.0
40
33.660
1
3x220P=660
41
0.585
50
0.000
100
AcDbText
0
TEXT
5
8ae
100
AcDbEntity
8
0-8寸法
62
7
370
-3
100
AcDbText
10
679.615
20
926.787
30
0.0
40
33.660
1
3x220P=660
41
0.585
50
90.000
100
AcDbText
0
TEXT
5
8af
100
AcDbEntity
8
0-8寸法
62
7
370
-3
100
AcDbText
10
1264.012
20
1774.235
30
0.0
40
33.660
1
500
41
0.651
50
0.000
100
AcDbText
0
MTEXT
5
8b0
100
AcDbEntity
8
0-8寸法
62
7
370
-3
100
AcDbMText
10
1961.787
20
950.537
30
0.0
40
31.790
41
0.000
71
7
72
1
1
\W1.093;設計水深{\W0.787; 5.40 m}
7
STANDARD
11
0.00000
21
1.00000
31
0.0
0
MTEXT
5
8b1
100
AcDbEntity
8
0-8寸法
62
7
370
-3
100
AcDbMText
10
2776.787
20
926.787
30
0.0
40
31.790
41
0.000
71
7
72
1
1
\W1.093;有効高{\W0.787; 500}
7
STANDARD
11
0.00000
21
1.00000
31
0.0
0
LINE
5
8b2
100
AcDbEntity
8
F-F_J_ADD
6
HIDDEN
62
109
100
AcDbLine
10
1043.663000000000
20
785.188000000000
30
0.0
11
1043.663000000000
21
1285.187000000000
31
0.0
0
LINE
5
8b3
100
AcDbEntity
8
F-F_J_ADD
6
HIDDEN
62
109
100
AcDbLine
10
1043.663000000000
20
1285.187000000000
30
0.0
11
1543.663000000000
21
1285.187000000000
31
0.0
0
LINE
5
8b4
100
AcDbEntity
8
F-F_J_ADD
6
HIDDEN
62
109
100
AcDbLine
10
1543.663000000000
20
1285.187000000000
30
0.0
11
1543.663000000000
21
785.188000000000
31
0.0
0
LINE
5
8b5
100
AcDbEntity
8
F-F_J_ADD
6
HIDDEN
62
109
100
AcDbLine
10
1543.663000000000
20
785.188000000000
30
0.0
11
1043.663000000000
21
785.188000000000
31
0.0
0
MTEXT
5
8b6
100
AcDbEntity
8
0-8寸法
62
7
370
-3
100
AcDbMText
10
1680.868
20
2120.495
30
0.0
40
31.790
41
0.000
71
7
72
1
1
\W1.093;水密ゴム{\W0.787; }Ｐ型{\W0.787; }φ{\W0.787;16x60x8(CRｺﾞﾑ)}
7
STANDARD
11
1.00000
21
0.00000
31
0.0
0
MTEXT
5
8b7
100
AcDbEntity
8
0-8寸法
62
7
370
-3
100
AcDbMText
10
1670.868
20
2020.495
30
0.0
40
31.790
41
0.000
71
7
72
1
1
\W1.093;ゴム押え{\W0.787; PL-6t(SUS304)}　
7
STANDARD
11
1.00000
21
0.00000
31
0.0
0
MTEXT
5
8b8
100
AcDbEntity
8
0-8寸法
62
7
370
-3
100
AcDbMText
10
1669.276
20
1923.615
30
0.0
40
31.790
41
0.000
71
7
72
1
1
\W1.093;皿{\W0.787;BT&NT  M8(SUS304}相当{\W0.787;)}
7
STANDARD
11
1.00000
21
0.00000
31
0.0
0
MTEXT
5
8b9
100
AcDbEntity
8
0-8寸法
62
7
370
-3
100
AcDbMText
10
1669.264
20
1669.797
30
0.0
40
31.790
41
0.000
71
7
72
1
1
\W1.093;吊り金具{\W0.787;   PL-9t(SUS304) }
7
STANDARD
11
1.00000
21
0.00000
31
0.0
0
MTEXT
5
8ba
100
AcDbEntity
8
0-8寸法
62
7
370
-3
100
AcDbMText
10
1669.618
20
1570.495
30
0.0
40
31.790
41
0.000
71
7
72
1
1
\W1.093;六角{\W0.787;BT}＆{\W0.787;NT M12(SUS304}相当{\W0.787;)}
7
STANDARD
11
1.00000
21
0.00000
31
0.0
0
MTEXT
5
8bb
100
AcDbEntity
8
0-8寸法
62
7
370
-3
100
AcDbMText
10
382.256
20
1770.495
30
0.0
40
31.790
41
0.000
71
7
72
1
1
\W1.093;吊り{\W0.787;ﾌﾞﾗｹｯﾄ PL-8t(SUS304)}
7
STANDARD
11
1.00000
21
0.00000
31
0.0
0
MTEXT
5
8bc
100
AcDbEntity
8
0-8寸法
62
7
370
-3
100
AcDbMText
10
382.256
20
1670.495
30
0.0
40
31.790
41
0.000
71
7
72
1
1
\W1.093;{\W0.787; }　　　　　{\W0.787;PL-12t(SUS304)}
7
STANDARD
11
1.00000
21
0.00000
31
0.0
0
MTEXT
5
8bd
100
AcDbEntity
8
0-8寸法
62
7
370
-3
100
AcDbMText
10
1826.712
20
545.495
30
0.0
40
31.790
41
0.000
71
7
72
1
1
\W1.093;戸当り{\W0.787;  PL-12t(SUS304)}
7
STANDARD
11
1.00000
21
0.00000
31
0.0
0
LINE
5
8be
100
AcDbEntity
8
0-8寸法
6
CONTINUOUS
62
4
100
AcDbLine
10
1651.678000000000
20
1660.188000000000
30
0.0
11
1651.678000000000
21
1560.188000000000
31
0.0
0
LINE
5
8bf
100
AcDbEntity
8
0-8寸法
6
CONTINUOUS
62
4
100
AcDbLine
10
993.663000000000
20
1560.188000000000
30
0.0
11
1090.444000000000
21
1423.356000000000
31
0.0
0
LINE
5
8c0
100
AcDbEntity
8
0-8寸法
6
CONTINUOUS
62
4
100
AcDbLine
10
1651.678000000000
20
1560.188000000000
30
0.0
11
1498.745000000000
21
1401.957000000000
31
0.0
0
LINE
5
8c1
100
AcDbEntity
8
0-8寸法
6
CONTINUOUS
62
4
100
AcDbLine
10
2352.095000000000
20
535.188000000000
30
0.0
11
2482.931000000001
21
722.292000000000
31
0.0
0
LINE
5
8c2
100
AcDbEntity
8
0-8寸法
6
CONTINUOUS
62
4
100
AcDbLine
10
2352.095000000000
20
335.188000000000
30
0.0
11
2487.095000000000
21
685.188000000000
31
0.0
0
LINE
5
8c3
100
AcDbEntity
8
0-9扉体
6
CONTINUOUS
62
7
100
AcDbLine
10
1308.662000000000
20
1385.187000000000
30
0.0
11
1278.662000000000
21
1385.187000000000
31
0.0
0
LINE
5
8c4
100
AcDbEntity
8
0-9扉体
6
CONTINUOUS
62
7
100
AcDbLine
10
1268.662000000000
20
1375.187000000000
30
0.0
11
1278.662000000000
21
1385.187000000000
31
0.0
0
LINE
5
8c5
100
AcDbEntity
8
0-9扉体
6
CONTINUOUS
62
7
100
AcDbLine
10
1318.662000000000
20
1375.187000000000
30
0.0
11
1308.662000000000
21
1385.187000000000
31
0.0
0
LINE
5
8c6
100
AcDbEntity
8
0-9扉体
6
CONTINUOUS
62
4
100
AcDbLine
10
2443.594000000000
20
1409.187000000000
30
0.0
11
2423.595000000000
21
1409.187000000000
31
0.0
0
LINE
5
8c7
100
AcDbEntity
8
0-9扉体
6
CONTINUOUS
62
4
100
AcDbLine
10
2458.594000000000
20
1394.187000000000
30
0.0
11
2458.594000000000
21
1358.688000000000
31
0.0
0
TEXT
5
8c8
100
AcDbEntity
8
0-A文字
62
7
370
-3
100
AcDbText
10
3071.802
20
816.840
30
0.0
40
29.405
1
注記　塗装　ＡＬ部は下地処理後、ポリウレタン樹脂系
41
0.856
50
0.000
100
AcDbText
0
TEXT
5
8c9
100
AcDbEntity
8
0-A文字
62
7
370
-3
100
AcDbText
10
3071.802
20
696.840
30
0.0
40
29.405
1
　　　と致します。
41
0.856
50
0.000
100
AcDbText
0
TEXT
5
8ca
100
AcDbEntity
8
0-A文字
62
7
370
-3
100
AcDbText
10
3071.802
20
636.840
30
0.0
40
29.405
1
　　　但し、ＳＵＳ３０４部は酸洗いと致します。
41
0.856
50
0.000
100
AcDbText
0
LINE
5
8cb
100
AcDbEntity
8
0-A文字
6
CONTINUOUS
62
4
100
AcDbLine
10
3055.000000000000
20
803.475266711830
30
0.0
11
3961.493424156641
21
803.475266711830
31
0.0
0
LINE
5
8cc
100
AcDbEntity
8
0-A文字
6
CONTINUOUS
62
4
100
AcDbLine
10
3055.000000000000
20
743.475266711830
30
0.0
11
3961.493424156641
21
743.475266711830
31
0.0
0
LINE
5
8cd
100
AcDbEntity
8
0-A文字
6
CONTINUOUS
62
4
100
AcDbLine
10
3055.000000000000
20
683.475266711830
30
0.0
11
3961.493424156641
21
683.475266711830
31
0.0
0
LINE
5
8ce
100
AcDbEntity
8
0-A文字
6
CONTINUOUS
62
4
100
AcDbLine
10
3055.000000000000
20
623.475266711830
30
0.0
11
3961.493424156641
21
623.475266711830
31
0.0
0
ELLIPSE
  5
8cf
100
AcDbEntity
8
0-7図枠
6
CONTINUOUS
62
3
100
AcDbEllipse
10
2944.994000000000
20
189.029000000000
30
0.0
11
30.000000000000
21
0.000000000000
31
0.0
210
0.0
220
0.0
230
1.0
40
0.833300000000
41
0.000000000000
42
6.283185307180
0
ELLIPSE
  5
8d0
100
AcDbEntity
8
0-7図枠
6
CONTINUOUS
62
3
100
AcDbEllipse
10
2944.994000000000
20
189.029000000000
30
0.0
11
30.000000000000
21
0.000000000000
31
0.0
210
0.0
220
0.0
230
1.0
40
0.833300000000
41
0.000000000000
42
6.283185307180
0
LINE
5
8d1
100
AcDbEntity
8
0-7図枠
6
CONTINUOUS
62
3
100
AcDbLine
10
2900.001000000000
20
540.000000000000
30
0.0
11
2900.001000000000
21
150.000000000000
31
0.0
0
LINE
5
8d2
100
AcDbEntity
8
0-7図枠
6
CONTINUOUS
62
3
100
AcDbLine
10
2900.001000000000
20
540.000000000000
30
0.0
11
4050.001000000000
21
540.000000000000
31
0.0
0
LINE
5
8d3
100
AcDbEntity
8
0-7図枠
6
CONTINUOUS
62
3
100
AcDbLine
10
2900.001000000000
20
240.000000000000
30
0.0
11
4050.001000000000
21
240.000000000000
31
0.0
0
LINE
5
8d4
100
AcDbEntity
8
0-7図枠
6
CONTINUOUS
62
3
100
AcDbLine
10
3475.001000000000
20
540.000000000000
30
0.0
11
3475.001000000000
21
150.000000000000
31
0.0
0
LINE
5
8d5
100
AcDbEntity
8
0-7図枠
6
CONTINUOUS
62
3
100
AcDbLine
10
3415.001000000000
20
540.000000000000
30
0.0
11
3415.001000000000
21
150.000000000000
31
0.0
0
LINE
5
8d6
100
AcDbEntity
8
0-7図枠
6
CONTINUOUS
62
3
100
AcDbLine
10
3950.001000000000
20
240.000000000000
30
0.0
11
3950.001000000000
21
150.000000000000
31
0.0
0
LINE
5
8d7
100
AcDbEntity
8
0-7図枠
6
CONTINUOUS
62
3
100
AcDbLine
10
3635.001000000000
20
350.000000000000
30
0.0
11
3635.001000000000
21
240.000000000000
31
0.0
0
LINE
5
8d8
100
AcDbEntity
8
0-7図枠
6
CONTINUOUS
62
3
100
AcDbLine
10
3685.001000000000
20
350.000000000000
30
0.0
11
3685.001000000000
21
240.000000000000
31
0.0
0
LINE
5
8d9
100
AcDbEntity
8
0-7図枠
6
CONTINUOUS
62
3
100
AcDbLine
10
3840.001000000000
20
350.000000000000
30
0.0
11
3840.001000000000
21
240.000000000000
31
0.0
0
LINE
5
8da
100
AcDbEntity
8
0-7図枠
6
CONTINUOUS
62
3
100
AcDbLine
10
3890.001000000000
20
350.000000000000
30
0.0
11
3890.001000000000
21
240.000000000000
31
0.0
0
LINE
5
8db
100
AcDbEntity
8
0-7図枠
6
CONTINUOUS
62
3
100
AcDbLine
10
3415.001000000000
20
350.000000000000
30
0.0
11
4050.001000000000
21
350.000000000000
31
0.0
0
LINE
5
8dc
100
AcDbEntity
8
0-7図枠
6
CONTINUOUS
62
3
100
AcDbLine
10
2900.001000000000
20
330.000000000000
30
0.0
11
3415.001000000000
21
330.000000000000
31
0.0
0
LINE
5
8dd
100
AcDbEntity
8
0-7図枠
6
CONTINUOUS
62
3
100
AcDbLine
10
2900.001000000000
20
420.000000000000
30
0.0
11
3415.001000000000
21
420.000000000000
31
0.0
0
LINE
5
8de
100
AcDbEntity
8
0-7図枠
6
CONTINUOUS
62
3
100
AcDbLine
10
2955.000000000000
20
540.000000000000
30
0.0
11
2955.000000000000
21
240.000000000000
31
0.0
0
LINE
5
8df
100
AcDbEntity
8
0-7図枠
6
CONTINUOUS
62
3
100
AcDbLine
10
3210.001000000000
20
420.000000000000
30
0.0
11
3210.001000000000
21
240.000000000000
31
0.0
0
LINE
5
8e0
100
AcDbEntity
8
0-7図枠
6
CONTINUOUS
62
3
100
AcDbLine
10
3155.001000000000
20
420.000000000000
30
0.0
11
3155.001000000000
21
240.000000000000
31
0.0
0
LINE
5
8e1
100
AcDbEntity
8
0-7図枠
6
CONTINUOUS
62
3
100
AcDbLine
10
3965.001000000000
20
165.000000000000
30
0.0
11
4000.001000000000
21
225.622000000000
31
0.0
0
LINE
5
8e2
100
AcDbEntity
8
0-7図枠
6
CONTINUOUS
62
3
100
AcDbLine
10
4035.001000000000
20
165.000000000000
30
0.0
11
4000.001000000000
21
225.622000000000
31
0.0
0
LINE
5
8e3
100
AcDbEntity
8
0-7図枠
6
CONTINUOUS
62
3
100
AcDbLine
10
3965.001000000000
20
165.000000000000
30
0.0
11
4035.001000000000
21
165.000000000000
31
0.0
0
LINE
5
8e4
100
AcDbEntity
8
0-7図枠
6
CONTINUOUS
62
3
100
AcDbLine
10
2923.409000000000
20
189.944000000000
30
0.0
11
2956.058000000000
21
171.094000000000
31
0.0
0
LINE
5
8e5
100
AcDbEntity
8
0-7図枠
6
CONTINUOUS
62
3
100
AcDbLine
10
2933.654000000000
20
192.689000000000
30
0.0
11
2963.414000000000
21
175.507000000000
31
0.0
0
LINE
5
8e6
100
AcDbEntity
8
0-7図枠
6
CONTINUOUS
62
3
100
AcDbLine
10
2943.899000000000
20
195.434000000000
30
0.0
11
2968.127000000000
21
181.446000000000
31
0.0
0
LINE
5
8e7
100
AcDbEntity
8
0-7図枠
6
CONTINUOUS
62
3
100
AcDbLine
10
2926.238000000000
20
190.702000000000
30
0.0
11
2919.994000000000
21
189.029000000000
31
0.0
0
LINE
5
8e8
100
AcDbEntity
8
0-7図枠
6
CONTINUOUS
62
3
100
AcDbLine
10
2933.826000000000
20
189.703000000000
30
0.0
11
2961.278000000000
21
173.854000000000
31
0.0
0
LINE
5
8e9
100
AcDbEntity
8
0-7図枠
6
CONTINUOUS
62
3
100
AcDbLine
10
2944.072000000000
20
192.448000000000
30
0.0
11
2966.839000000000
21
179.303000000000
31
0.0
0
LINE
5
8ea
100
AcDbEntity
8
0-7図枠
6
CONTINUOUS
62
3
100
AcDbLine
10
2954.317000000000
20
195.193000000000
30
0.0
11
2969.756000000000
21
186.279000000000
31
0.0
0
LINE
5
8eb
100
AcDbEntity
8
0-7図枠
6
CONTINUOUS
62
3
100
AcDbLine
10
2936.483000000000
20
193.447000000000
30
0.0
11
2928.710000000000
21
191.364000000000
31
0.0
0
LINE
5
8ec
100
AcDbEntity
8
0-7図枠
6
CONTINUOUS
62
3
100
AcDbLine
10
2946.728000000000
20
196.192000000000
30
0.0
11
2939.183000000000
21
194.171000000000
31
0.0
0
ARC
5
8ed
100
AcDbEntity
8
0-7図枠
6
CONTINUOUS
62
3
100
AcDbCircle
10
2928.826000000000
20
181.043000000000
30
0.0
40
10.000000000000
100
AcDbArc
50
60.000000000000
51
105.000000000000
0
ARC
5
8ee
100
AcDbEntity
8
0-7図枠
6
CONTINUOUS
62
3
100
AcDbCircle
10
2939.071000000000
20
183.788000000000
30
0.0
40
10.000000000000
100
AcDbArc
50
60.000000000000
51
105.000000000000
0
ARC
5
8ef
100
AcDbEntity
8
0-7図枠
6
CONTINUOUS
62
3
100
AcDbCircle
10
2949.316000000000
20
186.533000000000
30
0.0
40
10.000000000000
100
AcDbArc
50
60.000000000000
51
105.000000000000
0
ELLIPSE
  5
8f0
100
AcDbEntity
8
0-7図枠
6
CONTINUOUS
62
3
100
AcDbEllipse
10
2944.994000000000
20
189.029000000000
30
0.0
11
25.000000000000
21
0.000000000000
31
0.0
210
0.0
220
0.0
230
1.0
40
0.800000000000
41
0.270792616483
42
6.145261525885
0
TEXT
5
8f1
100
AcDbEntity
8
0-7図枠
62
7
370
-3
100
AcDbText
10
2998.956
20
180.639
30
0.0
40
37.807
1
三重重工業株式会社
41
0.856
50
0.000
100
AcDbText
0
LINE
5
8f2
100
AcDbEntity
8
F-F_J_ADD
6
HIDDEN
62
109
100
AcDbLine
10
2927.500500000000
20
240.000000000000
30
0.0
11
2927.500500000000
21
540.000000000000
31
0.0
0
LINE
5
8f3
100
AcDbEntity
8
F-F_J_ADD
6
HIDDEN
62
109
100
AcDbLine
10
3185.000500000000
20
540.000000000000
30
0.0
11
3185.000500000000
21
420.000000000000
31
0.0
0
LINE
5
8f4
100
AcDbEntity
8
F-F_J_ADD
6
HIDDEN
62
109
100
AcDbLine
10
3055.000500000000
20
240.000000000000
30
0.0
11
3055.000500000000
21
420.000000000000
31
0.0
0
LINE
5
8f5
100
AcDbEntity
8
F-F_J_ADD
6
HIDDEN
62
109
100
AcDbLine
10
3182.501000000000
20
420.000000000000
30
0.0
11
3182.501000000000
21
240.000000000000
31
0.0
0
LINE
5
8f6
100
AcDbEntity
8
F-F_J_ADD
6
HIDDEN
62
109
100
AcDbLine
10
3312.501000000000
20
420.000000000000
30
0.0
11
3312.501000000000
21
240.000000000000
31
0.0
0
LINE
5
8f7
100
AcDbEntity
8
F-F_J_ADD
6
HIDDEN
62
109
100
AcDbLine
10
2900.001000000000
20
480.000000000000
30
0.0
11
3415.001000000000
21
480.000000000000
31
0.0
0
LINE
5
8f8
100
AcDbEntity
8
F-F_J_ADD
6
HIDDEN
62
109
100
AcDbLine
10
3415.001000000000
20
375.000000000000
30
0.0
11
2900.001000000000
21
375.000000000000
31
0.0
0
LINE
5
8f9
100
AcDbEntity
8
F-F_J_ADD
6
HIDDEN
62
109
100
AcDbLine
10
3415.001000000000
20
285.000000000000
30
0.0
11
2900.001000000000
21
285.000000000000
31
0.0
0
LINE
5
8fa
100
AcDbEntity
8
F-F_J_ADD
6
HIDDEN
62
109
100
AcDbLine
10
3445.001000000000
20
540.000000000000
30
0.0
11
3445.001000000000
21
150.000000000000
31
0.0
0
LINE
5
8fb
100
AcDbEntity
8
F-F_J_ADD
6
HIDDEN
62
109
100
AcDbLine
10
3555.001000000000
20
350.000000000000
30
0.0
11
3555.001000000000
21
240.000000000000
31
0.0
0
LINE
5
8fc
100
AcDbEntity
8
F-F_J_ADD
6
HIDDEN
62
109
100
AcDbLine
10
3660.001000000000
20
350.000000000000
30
0.0
11
3660.001000000000
21
240.000000000000
31
0.0
0
LINE
5
8fd
100
AcDbEntity
8
F-F_J_ADD
6
HIDDEN
62
109
100
AcDbLine
10
3762.501000000000
20
240.000000000000
30
0.0
11
3762.501000000000
21
350.000000000000
31
0.0
0
LINE
5
8fe
100
AcDbEntity
8
F-F_J_ADD
6
HIDDEN
62
109
100
AcDbLine
10
4050.001000000000
20
295.000000000000
30
0.0
11
3415.001000000000
21
295.000000000000
31
0.0
0
LINE
5
8ff
100
AcDbEntity
8
F-F_J_ADD
6
HIDDEN
62
109
100
AcDbLine
10
3865.001000000000
20
240.000000000000
30
0.0
11
3865.001000000000
21
350.000000000000
31
0.0
0
LINE
5
900
100
AcDbEntity
8
F-F_J_ADD
6
HIDDEN
62
109
100
AcDbLine
10
3970.001000000000
20
350.000000000000
30
0.0
11
3970.001000000000
21
240.000000000000
31
0.0
0
LINE
5
901
100
AcDbEntity
8
F-F_J_ADD
6
HIDDEN
62
109
100
AcDbLine
10
3475.001000000000
20
445.000000000000
30
0.0
11
3415.001000000000
21
445.000000000000
31
0.0
0
LINE
5
902
100
AcDbEntity
8
F-F_J_ADD
6
HIDDEN
62
109
100
AcDbLine
10
2900.001000000000
20
195.000000000000
30
0.0
11
4050.001000000000
21
195.000000000000
31
0.0
0
LINE
5
903
100
AcDbEntity
8
F-F_J_ADD
6
HIDDEN
62
109
100
AcDbLine
10
4000.001000000000
20
240.000000000000
30
0.0
11
4000.001000000000
21
150.000000000000
31
0.0
0
LINE
5
904
100
AcDbEntity
8
F-F_J_ADD
6
HIDDEN
62
109
100
AcDbLine
10
3712.501000000000
20
150.000000000000
30
0.0
11
3712.501000000000
21
240.000000000000
31
0.0
0
LINE
5
905
100
AcDbEntity
8
F-F_J_ADD
6
HIDDEN
62
109
100
AcDbLine
10
3762.501000000000
20
350.000000000000
30
0.0
11
3762.501000000000
21
540.000000000000
31
0.0
0
LINE
5
906
100
AcDbEntity
8
F-F_J_ADD
6
HIDDEN
62
109
100
AcDbLine
10
3475.001000000000
20
512.857142857143
30
0.0
11
4050.001000000000
21
512.857142857143
31
0.0
0
LINE
5
907
100
AcDbEntity
8
F-F_J_ADD
6
HIDDEN
62
109
100
AcDbLine
10
3475.001000000000
20
485.714285714286
30
0.0
11
4050.001000000000
21
485.714285714286
31
0.0
0
LINE
5
908
100
AcDbEntity
8
F-F_J_ADD
6
HIDDEN
62
109
100
AcDbLine
10
3475.001000000000
20
458.571428571429
30
0.0
11
4050.001000000000
21
458.571428571429
31
0.0
0
LINE
5
909
100
AcDbEntity
8
F-F_J_ADD
6
HIDDEN
62
109
100
AcDbLine
10
3475.001000000000
20
431.428571428572
30
0.0
11
4050.001000000000
21
431.428571428572
31
0.0
0
LINE
5
90a
100
AcDbEntity
8
F-F_J_ADD
6
HIDDEN
62
109
100
AcDbLine
10
3475.001000000000
20
404.285714285715
30
0.0
11
4050.001000000000
21
404.285714285715
31
0.0
0
LINE
5
90b
100
AcDbEntity
8
F-F_J_ADD
6
HIDDEN
62
109
100
AcDbLine
10
3475.001000000000
20
377.142857142858
30
0.0
11
4050.001000000000
21
377.142857142858
31
0.0
0
TEXT
5
90c
100
AcDbEntity
8
0-7図枠
62
7
370
-3
100
AcDbText
10
2926.828
20
516.487
30
0.0
40
26.465
1
客先
41
0.856
50
0.000
  7
TATEGAKI
100
AcDbText
0
TEXT
5
90d
100
AcDbEntity
8
0-7図枠
62
7
370
-3
100
AcDbText
10
2926.828
20
411.487
30
0.0
40
26.465
1
材質
41
0.856
50
0.000
  7
TATEGAKI
100
AcDbText
0
TEXT
5
90e
100
AcDbEntity
8
0-7図枠
62
7
370
-3
100
AcDbText
10
2926.828
20
321.487
30
0.0
40
26.465
1
尺度
41
0.856
50
0.000
  7
TATEGAKI
100
AcDbText
0
TEXT
5
90f
100
AcDbEntity
8
0-7図枠
62
7
370
-3
100
AcDbText
10
3000.638
20
359.432
30
0.0
40
37.807
41
0.530
50
0.000
1
A5083
72
1
11
3055.001
21
375.000
31
0.0
100
AcDbText
73
2
0
TEXT
5
910
100
AcDbEntity
8
0-7図枠
62
7
370
-3
100
AcDbText
10
3011.870
20
269.432
30
0.0
40
37.807
41
0.684
50
0.000
1
1/10
72
1
11
3055.001
21
285.000
31
0.0
100
AcDbText
73
2
0
TEXT
5
911
100
AcDbEntity
8
0-7図枠
62
7
370
-3
100
AcDbText
10
3119.406
20
464.432
30
0.0
40
37.807
41
0.856
50
0.000
1
標準図
72
1
11
3185.001
21
480.000
31
0.0
100
AcDbText
73
2
0
TEXT
5
912
100
AcDbEntity
8
0-7図枠
62
7
370
-3
100
AcDbText
10
3181.828
20
411.487
30
0.0
40
26.465
1
数量
41
0.856
50
0.000
  7
TATEGAKI
100
AcDbText
0
TEXT
5
913
100
AcDbEntity
8
0-7図枠
62
7
370
-3
100
AcDbText
10
3181.828
20
321.487
30
0.0
40
26.465
1
日付
41
0.856
50
0.000
  7
TATEGAKI
100
AcDbText
0
TEXT
5
914
100
AcDbEntity
8
0-7図枠
62
7
370
-3
100
AcDbText
10
3444.328
20
498.959
30
0.0
40
26.465
1
名　称
41
0.856
50
0.000
  7
TATEGAKI
100
AcDbText
0
TEXT
5
915
100
AcDbEntity
8
0-7図枠
62
7
370
-3
100
AcDbText
10
3444.328
20
331.487
30
0.0
40
26.465
1
承認
41
0.856
50
0.000
  7
TATEGAKI
100
AcDbText
0
TEXT
5
916
100
AcDbEntity
8
0-7図枠
62
7
370
-3
100
AcDbText
10
3444.328
20
231.487
30
0.0
40
26.465
1
図番
41
0.856
50
0.000
  7
TATEGAKI
100
AcDbText
0
TEXT
5
917
100
AcDbEntity
8
0-7図枠
62
7
370
-3
100
AcDbText
10
3511.870
20
279.432
30
0.0
40
37.807
41
0.856
50
0.000
1
熊崎
72
1
11
3555.001
21
295.000
31
0.0
100
AcDbText
73
2
0
TEXT
5
918
100
AcDbEntity
8
0-7図枠
62
7
370
-3
100
AcDbText
10
3659.328
20
331.487
30
0.0
40
26.465
1
検図
41
0.856
50
0.000
  7
TATEGAKI
100
AcDbText
0
TEXT
5
919
100
AcDbEntity
8
0-7図枠
62
7
370
-3
100
AcDbText
10
3864.328
20
331.487
30
0.0
40
26.465
1
担当
41
0.856
50
0.000
  7
TATEGAKI
100
AcDbText
0
TEXT
5
91a
100
AcDbEntity
8
0-7図枠
62
7
370
-3
100
AcDbText
10
3926.870
20
279.432
30
0.0
40
37.807
41
0.856
50
0.000
1
平川
72
1
11
3970.001
21
295.000
31
0.0
100
AcDbText
73
2
0
TEXT
5
91b
100
AcDbEntity
8
0-7図枠
62
7
370
-3
100
AcDbText
10
3719.370
20
279.432
30
0.0
40
37.807
41
0.856
50
0.000
1
井福
72
1
11
3762.501
21
295.000
31
0.0
100
AcDbText
73
2
0
LINE
5
91c
100
AcDbEntity
8
0-7図枠
6
CONTINUOUS
62
3
100
AcDbLine
10
3562.501000000000
20
490.000000000000
30
0.0
11
3962.501000000000
21
490.000000000000
31
0.0
0
MTEXT
5
91d
100
AcDbEntity
8
0-7図枠
62
7
370
-3
100
AcDbMText
10
3764.191
20
406.820
30
0.0
40
33.570
41
0.000
71
5
72
1
1
\W0.972;{\W0.700;ｱﾙﾐ}合金製{\W0.700;ﾌﾗｯﾌﾟｹﾞ-ﾄ(}壁付け{\W0.700;)}
7
STANDARD
11
1.00000
21
0.00000
31
0.0
0
MTEXT
5
91e
100
AcDbEntity
8
0-7図枠
62
7
370
-3
100
AcDbMText
10
3615.387
20
497.482
30
0.0
40
27.772
41
0.000
71
7
72
1
1
\W0.972;型式　{\W0.700;MFR-A0505K}
7
STANDARD
11
1.00000
21
0.00000
31
0.0
0
TEXT
5
91f
100
AcDbEntity
8
0-7図枠
62
7
370
-3
100
AcDbText
10
3595.818
20
443.004
30
0.0
40
37.807
1
500 Bo x 500 Ho
41
0.608
50
0.000
100
AcDbText
0
TEXT
5
920
100
AcDbEntity
8
0-7図枠
62
7
370
-3
100
AcDbText
10
3579.514
20
179.432
30
0.0
40
37.807
1
Ｋ－２１５５
41
0.856
50
0.000
100
AcDbText
0
TEXT
5
921
100
AcDbEntity
8
0-7図枠
62
7
370
-3
100
AcDbText
10
3989.852
20
170.635
30
0.0
40
37.807
1
3
41
0.516
50
0.000
100
AcDbText
0
MTEXT
5
922
100
AcDbEntity
8
0-8寸法
62
7
370
-3
100
AcDbMText
10
382.256
20
1570.495
30
0.0
40
31.790
41
0.000
71
7
72
1
1
\W1.093;接着系{\W0.787;ｱﾝｶ- M12(SUS304}相当{\W0.787;)}
7
STANDARD
11
1.00000
21
0.00000
31
0.0
0
MTEXT
5
923
100
AcDbEntity
8
0-8寸法
62
7
370
-3
100
AcDbMText
10
2344.212
20
445.495
30
0.0
40
31.790
41
0.000
71
9
72
1
1
\W1.093;金属系{\W0.787;ｱﾝｶ- M10(SUS304}相当{\W0.787;)}
7
STANDARD
11
1.00000
21
0.00000
31
0.0
0
LINE
5
924
100
AcDbEntity
8
0-8寸法
6
CONTINUOUS
62
4
100
AcDbLine
10
1757.213375796179
20
435.188000000000
30
0.0
11
2352.095000000000
21
435.188000000000
31
0.0
0
LINE
5
925
100
AcDbEntity
8
0-8寸法
6
CONTINUOUS
62
4
100
AcDbLine
10
1757.213375796179
20
535.188000000000
30
0.0
11
2352.095000000000
21
535.188000000000
31
0.0
0
TEXT
5
926
100
AcDbEntity
8
0-8寸法
62
7
370
-3
100
AcDbText
10
2501.444
20
1649.235
30
0.0
40
33.660
41
0.640
50
0.000
1
12t
72
2
11
2567.344
21
1643.095
31
0.0
100
AcDbText
73
1
0
POLYLINE
5
927
100
AcDbEntity
8
0-9扉体
6
CONTINUOUS
62
  7
100
AcDb2dPolyline
66
1
10
0.0
20
0.0
30
0.0
70
0
0
VERTEX
5
928
100
AcDbEntity
8
0-9扉体
6
CONTINUOUS
62
  7
100
AcDbVertex
100
AcDb2dVertex
10
1293.662000000000
20
2256.647000000000
30
0.0
0
VERTEX
5
929
100
AcDbEntity
8
0-9扉体
6
CONTINUOUS
62
  7
100
AcDbVertex
100
AcDb2dVertex
10
1268.662000000000
20
2256.647000000000
30
0.0
0
VERTEX
5
92a
100
AcDbEntity
8
0-9扉体
6
CONTINUOUS
62
  7
100
AcDbVertex
100
AcDb2dVertex
10
1268.662000000000
20
2246.647000000000
30
0.0
0
VERTEX
5
92b
100
AcDbEntity
8
0-9扉体
6
CONTINUOUS
62
  7
100
AcDbVertex
100
AcDb2dVertex
10
1293.662000000000
20
2246.647000000000
30
0.0
0
SEQEND
5
92c
100
AcDbEntity
8
0-9扉体
0
LINE
5
92d
100
AcDbEntity
8
0-9扉体
6
CONTINUOUS
62
7
100
AcDbLine
10
1278.662000000000
20
2246.647000000000
30
0.0
11
1278.662000000000
21
2256.647000000000
31
0.0
0
TEXT
5
92e
100
AcDbEntity
8
0-A文字
62
7
370
-3
100
AcDbText
10
1206.513
20
1079.791
30
0.0
40
33.660
41
0.893
50
0.000
1
ｽｷﾝﾌﾟﾚ-ﾄ
72
1
11
1294.913
21
1096.151
31
0.0
100
AcDbText
73
2
0
TEXT
5
92f
100
AcDbEntity
8
0-A文字
62
7
370
-3
100
AcDbText
10
1240.263
20
1019.791
30
0.0
40
33.660
41
0.577
50
0.000
1
PL-6t
72
1
11
1294.913
21
1036.151
31
0.0
100
AcDbText
73
2
0
TEXT
5
930
100
AcDbEntity
8
0-A文字
62
7
370
-3
100
AcDbText
10
1217.763
20
969.791
30
0.0
40
33.660
41
0.659
50
0.000
1
(A5083)
72
1
11
1294.913
21
986.151
31
0.0
100
AcDbText
73
2
0
TEXT
5
931
100
AcDbEntity
8
0-9扉体
62
7
370
-3
100
AcDbText
10
3283.176
20
2542.503
30
0.0
40
33.660
41
0.856
50
0.000
1
設　計　条　件
72
1
11
3421.576
21
2556.363
31
0.0
100
AcDbText
73
2
0
MTEXT
5
932
100
AcDbEntity
8
0-9扉体
62
7
370
-3
100
AcDbMText
10
3670.675
20
2371.263
30
0.0
40
31.790
41
0.000
71
5
72
1
1
\W0.972;後水深{\W0.700;   0.00 m}
7
STANDARD
11
1.00000
21
0.00000
31
0.0
0
TEXT
5
933
100
AcDbEntity
8
0-9扉体
62
7
370
-3
100
AcDbText
10
3028.176
20
2355.003
30
0.0
40
33.660
41
0.856
50
0.000
1
設計水深
72
1
11
3106.576
21
2368.863
31
0.0
100
AcDbText
73
2
0
TEXT
5
934
100
AcDbEntity
8
0-9扉体
62
7
370
-3
100
AcDbText
10
3028.176
20
2475.003
30
0.0
40
33.660
41
0.856
50
0.000
1
通水断面
72
1
11
3106.576
21
2488.863
31
0.0
100
AcDbText
73
2
0
LINE
5
935
100
AcDbEntity
8
0-9扉体
6
CONTINUOUS
62
4
100
AcDbLine
10
3511.575814536341
20
2518.862229323308
30
0.0
11
3511.575814536341
21
2338.862229323308
31
0.0
0
LINE
5
936
100
AcDbEntity
8
0-9扉体
6
CONTINUOUS
62
4
100
AcDbLine
10
3196.575814536341
20
2518.862229323308
30
0.0
11
3196.575814536341
21
2338.862229323308
31
0.0
0
LINE
5
937
100
AcDbEntity
8
0-9扉体
6
CONTINUOUS
62
4
100
AcDbLine
10
3826.574814536341
20
2593.863229323308
30
0.0
11
3826.574814536341
21
2338.862229323308
31
0.0
0
POLYLINE
5
938
100
AcDbEntity
8
0-9扉体
6
CONTINUOUS
62
  4
100
AcDb2dPolyline
66
1
10
0.0
20
0.0
30
0.0
70
0
0
VERTEX
5
939
100
AcDbEntity
8
0-9扉体
6
CONTINUOUS
62
  4
100
AcDbVertex
100
AcDb2dVertex
10
3016.576814536340
20
2593.863229323308
30
0.0
0
VERTEX
5
93a
100
AcDbEntity
8
0-9扉体
6
CONTINUOUS
62
  4
100
AcDbVertex
100
AcDb2dVertex
10
3016.576814536340
20
2338.862229323308
30
0.0
0
VERTEX
5
93b
100
AcDbEntity
8
0-9扉体
6
CONTINUOUS
62
  4
100
AcDbVertex
100
AcDb2dVertex
10
3826.574814536341
20
2338.862229323308
30
0.0
0
SEQEND
5
93c
100
AcDbEntity
8
0-9扉体
0
LINE
5
93d
100
AcDbEntity
8
0-9扉体
6
CONTINUOUS
62
4
100
AcDbLine
10
3016.576814536340
20
2398.863229323308
30
0.0
11
3826.574814536341
21
2398.863229323308
31
0.0
0
LINE
5
93e
100
AcDbEntity
8
0-9扉体
6
CONTINUOUS
62
4
100
AcDbLine
10
3016.576814536340
20
2458.863229323308
30
0.0
11
3826.574814536341
21
2458.863229323308
31
0.0
0
LINE
5
93f
100
AcDbEntity
8
0-9扉体
6
CONTINUOUS
62
4
100
AcDbLine
10
3016.576814536340
20
2518.862229323308
30
0.0
11
3826.574814536341
21
2518.862229323308
31
0.0
0
LINE
5
940
100
AcDbEntity
8
0-9扉体
6
CONTINUOUS
62
4
100
AcDbLine
10
3016.576814536340
20
2593.863229323308
30
0.0
11
3826.574814536341
21
2593.863229323308
31
0.0
0
TEXT
5
941
100
AcDbEntity
8
0-9扉体
62
7
370
-3
100
AcDbText
10
3028.176
20
2415.003
30
0.0
40
33.660
41
0.856
50
0.000
1
扉体寸法
72
1
11
3106.576
21
2428.863
31
0.0
100
AcDbText
73
2
0
MTEXT
5
942
100
AcDbEntity
8
0-9扉体
62
7
370
-3
100
AcDbMText
10
3205.676
20
2471.263
30
0.0
40
31.790
41
0.000
71
7
72
1
1
\W0.972;有効幅{\W0.700;   0.50 m}
7
STANDARD
11
1.00000
21
0.00000
31
0.0
0
MTEXT
5
943
100
AcDbEntity
8
0-9扉体
62
7
370
-3
100
AcDbMText
10
3205.676
20
2411.263
30
0.0
40
31.790
41
0.000
71
7
72
1
1
\W0.972;扉体幅{\W0.700;   0.60 m}
7
STANDARD
11
1.00000
21
0.00000
31
0.0
0
MTEXT
5
944
100
AcDbEntity
8
0-9扉体
62
7
370
-3
100
AcDbMText
10
3205.676
20
2351.263
30
0.0
40
31.790
41
0.000
71
7
72
1
1
\W0.972;前水深{\W0.700;   5.40 m}
7
STANDARD
11
1.00000
21
0.00000
31
0.0
0
MTEXT
5
945
100
AcDbEntity
8
0-9扉体
62
7
370
-3
100
AcDbMText
10
3520.675
20
2471.263
30
0.0
40
31.790
41
0.000
71
7
72
1
1
\W0.972;有効高　{\W0.700; 0.50 m}
7
STANDARD
11
1.00000
21
0.00000
31
0.0
0
MTEXT
5
946
100
AcDbEntity
8
0-9扉体
62
7
370
-3
100
AcDbMText
10
3520.675
20
2411.263
30
0.0
40
31.790
41
0.000
71
7
72
1
1
\W0.972;扉体高{\W0.700;   0.60 m}
7
STANDARD
11
1.00000
21
0.00000
31
0.0
0
LINE
5
947
100
AcDbEntity
8
0-6戸当り
6
CONTINUOUS
62
2
100
AcDbLine
10
958.663000000000
20
2308.849000000000
30
0.0
11
956.162000000000
21
2338.361000000000
31
0.0
0
LINE
5
948
100
AcDbEntity
8
0-6戸当り
6
CONTINUOUS
62
2
100
AcDbLine
10
963.663000000000
20
2308.849000000000
30
0.0
11
961.163000000000
21
2338.361000000000
31
0.0
0
LINE
5
949
100
AcDbEntity
8
0-6戸当り
6
CONTINUOUS
62
2
100
AcDbLine
10
958.663000000000
20
2308.849000000000
30
0.0
11
968.663000000000
21
2308.849000000000
31
0.0
0
LINE
5
94a
100
AcDbEntity
8
0-6戸当り
6
CONTINUOUS
62
2
100
AcDbLine
10
958.305000000000
20
2313.065000000000
30
0.0
11
963.306000000000
21
2313.065000000000
31
0.0
0
LINE
5
94b
100
AcDbEntity
8
0-6戸当り
6
CONTINUOUS
62
2
100
AcDbLine
10
957.948000000000
20
2317.281000000000
30
0.0
11
962.949000000000
21
2317.281000000000
31
0.0
0
LINE
5
94c
100
AcDbEntity
8
0-6戸当り
6
CONTINUOUS
62
2
100
AcDbLine
10
957.591000000000
20
2321.497000000000
30
0.0
11
962.591000000000
21
2321.497000000000
31
0.0
0
LINE
5
94d
100
AcDbEntity
8
0-6戸当り
6
CONTINUOUS
62
2
100
AcDbLine
10
957.234000000000
20
2325.713000000000
30
0.0
11
962.234000000000
21
2325.713000000000
31
0.0
0
LINE
5
94e
100
AcDbEntity
8
0-6戸当り
6
CONTINUOUS
62
2
100
AcDbLine
10
956.877000000000
20
2329.929000000000
30
0.0
11
961.877000000000
21
2329.929000000000
31
0.0
0
LINE
5
94f
100
AcDbEntity
8
0-6戸当り
6
CONTINUOUS
62
2
100
AcDbLine
10
956.520000000000
20
2334.145000000000
30
0.0
11
961.520000000000
21
2334.145000000000
31
0.0
0
POLYLINE
5
950
100
AcDbEntity
8
0-6戸当り
6
CONTINUOUS
62
  2
100
AcDb2dPolyline
66
1
10
0.0
20
0.0
30
0.0
70
0
0
VERTEX
5
951
100
AcDbEntity
8
0-6戸当り
6
CONTINUOUS
62
  2
100
AcDbVertex
100
AcDb2dVertex
10
968.663000000000
20
2308.849000000000
30
0.0
0
VERTEX
5
952
100
AcDbEntity
8
0-6戸当り
6
CONTINUOUS
62
  2
100
AcDbVertex
100
AcDb2dVertex
10
971.163000000000
20
2338.361000000000
30
0.0
0
VERTEX
5
953
100
AcDbEntity
8
0-6戸当り
6
CONTINUOUS
62
  2
100
AcDbVertex
100
AcDb2dVertex
10
966.162000000000
20
2338.361000000000
30
0.0
0
SEQEND
5
954
100
AcDbEntity
8
0-6戸当り
0
LINE
5
955
100
AcDbEntity
8
0-6戸当り
6
CONTINUOUS
62
2
100
AcDbLine
10
963.663000000000
20
2308.849000000000
30
0.0
11
966.162000000000
21
2338.361000000000
31
0.0
0
LINE
5
956
100
AcDbEntity
8
0-6戸当り
6
CONTINUOUS
62
2
100
AcDbLine
10
969.020000000000
20
2313.065000000000
30
0.0
11
964.020000000000
21
2313.065000000000
31
0.0
0
LINE
5
957
100
AcDbEntity
8
0-6戸当り
6
CONTINUOUS
62
2
100
AcDbLine
10
969.376000000000
20
2317.281000000000
30
0.0
11
964.377000000000
21
2317.281000000000
31
0.0
0
LINE
5
958
100
AcDbEntity
8
0-6戸当り
6
CONTINUOUS
62
2
100
AcDbLine
10
969.734000000000
20
2321.497000000000
30
0.0
11
964.734000000000
21
2321.497000000000
31
0.0
0
LINE
5
959
100
AcDbEntity
8
0-6戸当り
6
CONTINUOUS
62
2
100
AcDbLine
10
970.091000000000
20
2325.713000000000
30
0.0
11
965.091000000000
21
2325.713000000000
31
0.0
0
LINE
5
95a
100
AcDbEntity
8
0-6戸当り
6
CONTINUOUS
62
2
100
AcDbLine
10
970.448000000000
20
2329.929000000000
30
0.0
11
965.449000000000
21
2329.929000000000
31
0.0
0
LINE
5
95b
100
AcDbEntity
8
0-6戸当り
6
CONTINUOUS
62
2
100
AcDbLine
10
970.806000000000
20
2334.145000000000
30
0.0
11
965.805000000000
21
2334.145000000000
31
0.0
0
LINE
5
95c
100
AcDbEntity
8
0-6戸当り
6
CONTINUOUS
62
2
100
AcDbLine
10
956.162000000000
20
2338.361000000000
30
0.0
11
961.163000000000
21
2338.361000000000
31
0.0
0
LINE
5
95d
100
AcDbEntity
8
0-6戸当り
6
CONTINUOUS
62
2
100
AcDbLine
10
958.663000000000
20
2304.648000000000
30
0.0
11
958.663000000000
21
2308.849000000000
31
0.0
0
LINE
5
95e
100
AcDbEntity
8
0-6戸当り
6
CONTINUOUS
62
2
100
AcDbLine
10
968.663000000000
20
2304.648000000000
30
0.0
11
968.663000000000
21
2308.849000000000
31
0.0
0
LINE
5
95f
100
AcDbEntity
8
0-5基準線
6
CENTER2
62
7
100
AcDbLine
10
1043.663000000000
20
2255.838000000000
30
0.0
11
1043.663000000000
21
2366.283000000000
31
0.0
0
LINE
5
960
100
AcDbEntity
8
0-5基準線
6
CENTER2
62
7
100
AcDbLine
10
2439.398000000000
20
1415.187000000000
30
0.0
11
2583.756000000000
21
1415.187000000000
31
0.0
0
LINE
5
961
100
AcDbEntity
8
0-6戸当り
6
CONTINUOUS
62
7
100
AcDbLine
10
1034.163000000001
20
2270.247000000000
30
0.0
11
1034.163000000001
21
2280.247000000000
31
0.0
0
LINE
5
962
100
AcDbEntity
8
0-6戸当り
6
CONTINUOUS
62
7
100
AcDbLine
10
1053.163000000000
20
2270.247000000000
30
0.0
11
1053.163000000000
21
2280.247000000000
31
0.0
0
LINE
5
963
100
AcDbEntity
8
0-6戸当り
6
CONTINUOUS
62
7
100
AcDbLine
10
1053.163000000000
20
2270.247000000000
30
0.0
11
1034.163000000001
21
2270.247000000000
31
0.0
0
LINE
5
964
100
AcDbEntity
8
0-6戸当り
6
CONTINUOUS
62
3
100
AcDbLine
10
1049.662000000000
20
2262.647000000000
30
0.0
11
1037.662000000000
21
2262.647000000000
31
0.0
0
LINE
5
965
100
AcDbEntity
8
0-6戸当り
6
CONTINUOUS
62
3
100
AcDbLine
10
1047.413000000000
20
2262.647000000000
30
0.0
11
1047.413000000000
21
2270.247000000000
31
0.0
0
LINE
5
966
100
AcDbEntity
8
0-6戸当り
6
CONTINUOUS
62
3
100
AcDbLine
10
1049.662000000000
20
2262.647000000000
30
0.0
11
1049.662000000000
21
2270.247000000000
31
0.0
0
LINE
5
967
100
AcDbEntity
8
0-6戸当り
6
CONTINUOUS
62
3
100
AcDbLine
10
1039.913000000000
20
2262.647000000000
30
0.0
11
1039.913000000000
21
2270.247000000000
31
0.0
0
LINE
5
968
100
AcDbEntity
8
0-6戸当り
6
CONTINUOUS
62
3
100
AcDbLine
10
1037.662000000000
20
2262.647000000000
30
0.0
11
1037.662000000000
21
2270.247000000000
31
0.0
0
LINE
5
969
100
AcDbEntity
8
0-6戸当り
6
CONTINUOUS
62
7
100
AcDbLine
10
1043.663000000000
20
2271.096000000000
30
0.0
11
1043.663000000000
21
2280.247000000000
31
0.0
0
ARC
5
96a
100
AcDbEntity
8
0-6戸当り
6
CONTINUOUS
62
7
100
AcDbCircle
10
1038.913000000000
20
2283.967000000000
30
0.0
40
13.720000000000
100
AcDbArc
50
249.744000000000
51
290.256000000000
0
ARC
5
96b
100
AcDbEntity
8
0-6戸当り
6
CONTINUOUS
62
7
100
AcDbCircle
10
1048.413000000000
20
2283.967000000000
30
0.0
40
13.720000000000
100
AcDbArc
50
249.744000000000
51
290.256000000000
0
ARC
5
96c
100
AcDbEntity
8
0-6戸当り
6
CONTINUOUS
62
2
100
AcDbCircle
10
1043.663000000000
20
2281.726000000000
30
0.0
40
20.000000000000
100
AcDbArc
50
252.543000000000
51
287.457000000000
0
LINE
5
96d
100
AcDbEntity
8
0-6戸当り
6
CONTINUOUS
62
7
100
AcDbLine
10
1034.163000000001
20
2280.247000000000
30
0.0
11
1034.163000000001
21
2290.247000000000
31
0.0
0
LINE
5
96e
100
AcDbEntity
8
0-6戸当り
6
CONTINUOUS
62
7
100
AcDbLine
10
1053.163000000000
20
2280.247000000000
30
0.0
11
1053.163000000000
21
2290.247000000000
31
0.0
0
LINE
5
96f
100
AcDbEntity
8
0-6戸当り
6
CONTINUOUS
62
7
100
AcDbLine
10
1053.163000000000
20
2280.247000000000
30
0.0
11
1034.163000000001
21
2280.247000000000
31
0.0
0
LINE
5
970
100
AcDbEntity
8
0-6戸当り
6
CONTINUOUS
62
7
100
AcDbLine
10
1043.663000000000
20
2281.096000000000
30
0.0
11
1043.663000000000
21
2290.247000000000
31
0.0
0
ARC
5
971
100
AcDbEntity
8
0-6戸当り
6
CONTINUOUS
62
7
100
AcDbCircle
10
1038.913000000000
20
2293.967000000000
30
0.0
40
13.720000000000
100
AcDbArc
50
249.744000000000
51
290.256000000000
0
ARC
5
972
100
AcDbEntity
8
0-6戸当り
6
CONTINUOUS
62
7
100
AcDbCircle
10
1048.413000000000
20
2293.967000000000
30
0.0
40
13.720000000000
100
AcDbArc
50
249.744000000000
51
290.256000000000
0
LINE
5
973
100
AcDbEntity
8
0-9扉体
6
CONTINUOUS
62
6
100
AcDbLine
10
1031.638000000000
20
2272.647000000000
30
0.0
11
1034.163000000001
21
2275.171451206260
31
0.0
0
LINE
5
974
100
AcDbEntity
8
0-9扉体
6
CONTINUOUS
62
6
100
AcDbLine
10
1030.224000000000
20
2272.647000000000
30
0.0
11
1034.163000000001
21
2276.586000000000
31
0.0
0
LINE
5
975
100
AcDbEntity
8
0-9扉体
6
CONTINUOUS
62
4
100
AcDbLine
10
988.663000000000
20
2272.647000000000
30
0.0
11
1034.163000000001
21
2272.647000000000
31
0.0
0
LINE
5
976
100
AcDbEntity
8
0-9扉体
6
CONTINUOUS
62
4
100
AcDbLine
10
1053.163000000000
20
2272.647000000000
30
0.0
11
1081.063000000000
21
2272.647000000000
31
0.0
0
LINE
5
977
100
AcDbEntity
8
0-9扉体
6
CONTINUOUS
62
4
100
AcDbLine
10
988.663000000000
20
2266.647000000000
30
0.0
11
1037.662000000000
21
2266.647000000000
31
0.0
0
LINE
5
978
100
AcDbEntity
8
0-9扉体
6
CONTINUOUS
62
6
100
AcDbLine
10
1017.496000000000
20
2272.647000000000
30
0.0
11
1034.163000000001
21
2289.314000000000
31
0.0
0
LINE
5
979
100
AcDbEntity
8
0-9扉体
6
CONTINUOUS
62
6
100
AcDbLine
10
1016.082000000000
20
2272.647000000000
30
0.0
11
1033.682000000001
21
2290.247000000000
31
0.0
0
LINE
5
97a
100
AcDbEntity
8
0-9扉体
6
CONTINUOUS
62
4
100
AcDbLine
10
1049.662000000000
20
2266.647000000000
30
0.0
11
1070.163000000000
21
2266.647000000000
31
0.0
0
LINE
5
97b
100
AcDbEntity
8
0-9扉体
6
CONTINUOUS
62
4
100
AcDbLine
10
1157.163000000000
20
2266.647000000000
30
0.0
11
1598.663000000000
21
2266.647000000000
31
0.0
0
LINE
5
97c
100
AcDbEntity
8
0-6戸当り
6
CONTINUOUS
62
3
100
AcDbLine
10
2445.343000000000
20
1409.187000000000
30
0.0
11
2453.193000000000
21
1409.187000000000
31
0.0
0
LINE
5
97d
100
AcDbEntity
8
0-6戸当り
6
CONTINUOUS
62
3
100
AcDbLine
10
2453.995000000000
20
1404.799000000000
30
0.0
11
2462.944000000000
21
1404.799000000000
31
0.0
0
LINE
5
97e
100
AcDbEntity
8
0-6戸当り
6
CONTINUOUS
62
3
100
AcDbLine
10
2453.995000000000
20
1425.575000000000
30
0.0
11
2462.944000000000
21
1425.575000000000
31
0.0
0
LINE
5
97f
100
AcDbEntity
8
0-6戸当り
6
CONTINUOUS
62
3
100
AcDbLine
10
2453.193000000000
20
1424.188000000000
30
0.0
11
2453.193000000000
21
1406.187000000000
31
0.0
0
LINE
5
980
100
AcDbEntity
8
0-6戸当り
6
CONTINUOUS
62
3
100
AcDbLine
10
2453.995000000000
20
1420.374000000000
30
0.0
11
2462.944000000000
21
1420.374000000000
31
0.0
0
LINE
5
981
100
AcDbEntity
8
0-6戸当り
6
CONTINUOUS
62
3
100
AcDbLine
10
2453.995000000000
20
1410.001000000000
30
0.0
11
2462.944000000000
21
1410.001000000000
31
0.0
0
LINE
5
982
100
AcDbEntity
8
0-6戸当り
6
CONTINUOUS
62
3
100
AcDbLine
10
2453.193000000000
20
1424.188000000000
30
0.0
11
2453.653000000000
21
1424.983000000000
31
0.0
0
LINE
5
983
100
AcDbEntity
8
0-6戸当り
6
CONTINUOUS
62
3
100
AcDbLine
10
2453.193000000000
20
1406.187000000000
30
0.0
11
2453.653000000000
21
1405.392000000000
31
0.0
0
LINE
5
984
100
AcDbEntity
8
0-6戸当り
6
CONTINUOUS
62
3
100
AcDbLine
10
2445.343000000000
20
1421.187000000000
30
0.0
11
2445.343000000000
21
1409.187000000000
31
0.0
0
LINE
5
985
100
AcDbEntity
8
0-6戸当り
6
CONTINUOUS
62
3
100
AcDbLine
10
2445.343000000000
20
1421.187000000000
30
0.0
11
2453.193000000000
21
1421.187000000000
31
0.0
0
LINE
5
986
100
AcDbEntity
8
0-6戸当り
6
CONTINUOUS
62
3
100
AcDbLine
10
2445.343000000000
20
1418.938000000000
30
0.0
11
2453.193000000000
21
1418.938000000000
31
0.0
0
LINE
5
987
100
AcDbEntity
8
0-6戸当り
6
CONTINUOUS
62
3
100
AcDbLine
10
2445.343000000000
20
1411.438000000000
30
0.0
11
2453.193000000000
21
1411.438000000000
31
0.0
0
LINE
5
988
100
AcDbEntity
8
0-6戸当り
6
CONTINUOUS
62
7
100
AcDbLine
10
2453.193000000000
20
1421.187000000000
30
0.0
11
2453.553000000000
21
1421.187000000000
31
0.0
0
ARC
5
989
100
AcDbEntity
8
0-6戸当り
6
CONTINUOUS
62
3
100
AcDbCircle
10
2457.815000000000
20
1422.975000000000
30
0.0
40
4.621000000000
100
AcDbArc
50
145.757000000000
51
214.243000000000
0
ARC
5
98a
100
AcDbEntity
8
0-6戸当り
6
CONTINUOUS
62
3
100
AcDbCircle
10
2470.383000000000
20
1415.187000000000
30
0.0
40
17.190000000000
100
AcDbArc
50
162.440000000000
51
197.560000000000
0
ARC
5
98b
100
AcDbEntity
8
0-6戸当り
6
CONTINUOUS
62
3
100
AcDbCircle
10
2457.815000000000
20
1407.400000000000
30
0.0
40
4.621000000000
100
AcDbArc
50
145.757000000000
51
214.243000000000
0
ARC
5
98c
100
AcDbEntity
8
0-6戸当り
6
CONTINUOUS
62
2
100
AcDbCircle
10
2464.423000000000
20
1415.187000000000
30
0.0
40
20.000000000000
100
AcDbArc
50
162.543000000000
51
197.457000000000
0
LINE
5
98d
100
AcDbEntity
8
0-6戸当り
6
CONTINUOUS
62
3
100
AcDbLine
10
2463.746000000000
20
1404.799000000000
30
0.0
11
2472.695000000000
21
1404.799000000000
31
0.0
0
LINE
5
98e
100
AcDbEntity
8
0-6戸当り
6
CONTINUOUS
62
3
100
AcDbLine
10
2463.746000000000
20
1425.575000000000
30
0.0
11
2472.695000000000
21
1425.575000000000
31
0.0
0
LINE
5
98f
100
AcDbEntity
8
0-6戸当り
6
CONTINUOUS
62
3
100
AcDbLine
10
2462.944000000000
20
1424.188000000000
30
0.0
11
2462.944000000000
21
1406.187000000000
31
0.0
0
LINE
5
990
100
AcDbEntity
8
0-6戸当り
6
CONTINUOUS
62
3
100
AcDbLine
10
2463.746000000000
20
1420.374000000000
30
0.0
11
2472.695000000000
21
1420.374000000000
31
0.0
0
LINE
5
991
100
AcDbEntity
8
0-6戸当り
6
CONTINUOUS
62
3
100
AcDbLine
10
2463.746000000000
20
1410.001000000000
30
0.0
11
2472.695000000000
21
1410.001000000000
31
0.0
0
LINE
5
992
100
AcDbEntity
8
0-6戸当り
6
CONTINUOUS
62
3
100
AcDbLine
10
2462.944000000000
20
1424.188000000000
30
0.0
11
2463.404000000000
21
1424.983000000000
31
0.0
0
LINE
5
993
100
AcDbEntity
8
0-6戸当り
6
CONTINUOUS
62
3
100
AcDbLine
10
2462.944000000000
20
1406.187000000000
30
0.0
11
2463.404000000000
21
1405.392000000000
31
0.0
0
LINE
5
994
100
AcDbEntity
8
0-6戸当り
6
CONTINUOUS
62
7
100
AcDbLine
10
2462.944000000000
20
1421.187000000000
30
0.0
11
2463.304000000000
21
1421.187000000000
31
0.0
0
ARC
5
995
100
AcDbEntity
8
0-6戸当り
6
CONTINUOUS
62
3
100
AcDbCircle
10
2467.566000000000
20
1422.975000000000
30
0.0
40
4.621000000000
100
AcDbArc
50
145.757000000000
51
214.243000000000
0
ARC
5
996
100
AcDbEntity
8
0-6戸当り
6
CONTINUOUS
62
3
100
AcDbCircle
10
2480.134000000000
20
1415.187000000000
30
0.0
40
17.190000000000
100
AcDbArc
50
162.440000000000
51
197.560000000000
0
ARC
5
997
100
AcDbEntity
8
0-6戸当り
6
CONTINUOUS
62
3
100
AcDbCircle
10
2467.566000000000
20
1407.400000000000
30
0.0
40
4.621000000000
100
AcDbArc
50
145.757000000000
51
214.243000000000
0
LINE
5
998
100
AcDbEntity
8
0-6戸当り
6
CONTINUOUS
62
3
100
AcDbLine
10
2462.944000000000
20
1425.575000000000
30
0.0
11
2462.944000000000
21
1404.799000000000
31
0.0
0
ARC
5
999
100
AcDbEntity
8
0-9扉体
6
CONTINUOUS
62
4
100
AcDbCircle
10
2443.594000000000
20
1394.187000000000
30
0.0
40
15.000000000000
100
AcDbArc
50
0.000000000000
51
45.029168395122
0
ARC
5
99a
100
AcDbEntity
8
0-9扉体
6
CONTINUOUS
62
4
100
AcDbCircle
10
2443.594000000000
20
1394.187000000000
30
0.0
40
15.000000000000
100
AcDbArc
50
47.512050516496
51
90.000000000000
0
LINE
5
99b
100
AcDbEntity
8
0-6戸当り
6
CONTINUOUS
62
6
100
AcDbLine
10
2455.593249934892
20
1403.188000000000
30
0.0
11
2472.695000000000
21
1403.188000000000
31
0.0
0
TEXT
5
99c
100
AcDbEntity
8
0-7図枠
62
7
370
-3
100
AcDbText
10
3235.674
20
269.432
30
0.0
40
37.807
41
0.714
50
0.000
1
R5.12.1
72
1
11
3312.501
21
285.000
31
0.0
100
AcDbText
73
2
0
TEXT
5
99d
100
AcDbEntity
8
0-A文字
62
7
370
-3
100
AcDbText
10
3071.802
20
756.840
30
0.0
40
29.405
1
　　　塗装とし、色調はグレー（マンセル値Ｎ７）
41
0.856
50
0.000
100
AcDbText
0
ENDSEC
 0
SECTION
  2
OBJECTS
 0
DICTIONARY
  5
C
100
AcDbDictionary
  3
ACAD_GROUP
350
D
  3
ACAD_MLINESTYLE
350
E
 0
DICTIONARY
  5
D
102
{ACAD_REACTORS
102
}
100
AcDbDictionary
 0
DICTIONARY
  5
E
102
{ACAD_REACTORS
102
}
100
AcDbDictionary
  3
STANDARD
350
13
0
MLINESTYLE
  5
13
102
{ACAD_REACTORS
102
}
100
AcDbMlineStyle
  2
STANDARD
 70
    0
3

62
256
51
90.0
52
90.0
71
0
0
ACDBPLACEHOLDER
  5
14
102
{ACAD_REACTORS
102
}
0
ENDSEC
0
EOF
