0
SECTION
2
HEADER
9
$ACADVER
1
AC1015
9
$ACADMAINTVER
 70
6
9
$DWGCODEPAGE
3
ANSI_932
9
$EXTMIN
10
0.000
20
0.000
30
0.0
9
$EXTMAX
10
8400.000
20
5940.000
30
0.0
9
$LIMMIN
10
0.000
20
0.000
9
$LIMMAX
10
8400.000
20
5940.000
9
$DIMSCALE
40
20.000000
9
$LTSCALE
40
20.000
9
$PDMODE
70
0
9
$PDSIZE
40
40.0
9
$HANDSEED
5
62037
9
$UNITMODE
70
0
9
$VISRETAIN
70
0
9
$PLINEGEN
70
0
9
$PSLTSCALE
70
1
9
$TREEDEPTH
70
3020
9
$CMLSTYLE
2
STANDARD
9
$CMLJUST
70
0
9
$CMLSCALE
40
1.0
9
$PROXYGRAPHICS
70
1
9
$MEASUREMENT
70
0
9
$CELWEIGHT
370
-1
9
$ENDCAPS
280
0
9
$JOINSTYLE
280
0
9
$LWDISPLAY
290
0
9
$INSUNITS
70
0
9
$HYPERLINKBASE
1

9
$STYLESHEET
1

9
$XEDIT
290
1
9
$CEPSNTYPE
380
0
9
$PSTYLEMODE
290
1
9
$FINGERPRINTGUID
2
{5F082321-0195-11D3-BDFB-0060B0CD5109}
9
$VERSIONGUID
2
{12943756-294D-11D3-98C2-0060B087942D}
9
$EXTNAMES
290
1
9
$PSVPSCALE
40
0.0
9
$OLESTARTUP
290
0
0
ENDSEC
0
SECTION
  2
CLASSES
0
ENDSEC
0
SECTION
2
TABLES
0
TABLE
2
VPORT
5
190
100
AcDbSymbolTable
70
2
0
VPORT
5
191
100
AcDbSymbolTableRecord
100
AcDbViewportTableRecord
2
*ACTIVE
70
0
10
0.0
20
0.0
11
1.0
21
1.0
12
4200.000
22
2970.000
13
0.0
23
0.0
14
1.0
24
1.0
15
0.0
25
0.0
16
0.0
26
0.0
36
1.0
17
0.0
27
0.0
37
0.0
40
6086.957
41
2.0
42
50.0
43
0.0
44
0.0
50
0.0
51
0.0
71
0
72
1000
73
1
74
1
75
0
76
0
77
0
78
0
0
ENDTAB
0
TABLE
2
LTYPE
5
1f4
100
AcDbSymbolTable
70
9
0
LTYPE
5
1f5
100
AcDbSymbolTableRecord
100
AcDbLinetypeTableRecord
2
BYBLOCK
70
 64
3

72
 65
73
  0
40
0.0
0
LTYPE
5
1f6
100
AcDbSymbolTableRecord
100
AcDbLinetypeTableRecord
2
BYLAYER
70
 64
3

72
 65
73
  0
40
0.0
0
LTYPE
5
1f7
100
AcDbSymbolTableRecord
100
AcDbLinetypeTableRecord
2
CONTINUOUS
70
64
3
SolidLine
72
65
73
0
40
0.0
0
LTYPE
5
1f8
100
AcDbSymbolTableRecord
100
AcDbLinetypeTableRecord
2
DOT
70
64
3
--  --  --  --  --  --  --  --     
72
65
73
2
40
3.000
49
1.000
74
0
49
-2.000
74
0
0
LTYPE
5
1f9
100
AcDbSymbolTableRecord
100
AcDbLinetypeTableRecord
2
DASHED
70
64
3
----    ----    ----    ----    
72
65
73
2
40
5.000
49
2.000
74
0
49
-3.000
74
0
0
LTYPE
5
1fa
100
AcDbSymbolTableRecord
100
AcDbLinetypeTableRecord
2
DASHED2
70
64
3
------  ------  ------  ------ 
72
65
73
2
40
10.000
49
4.000
74
0
49
-6.000
74
0
0
LTYPE
5
1fb
100
AcDbSymbolTableRecord
100
AcDbLinetypeTableRecord
2
CENTER
70
64
3
----- - ----- - ----- - ----- - 
72
65
73
4
40
10.000
49
6.000
74
0
49
-3.000
74
0
49
1.000
74
0
49
-3.000
74
0
0
LTYPE
5
1fc
100
AcDbSymbolTableRecord
100
AcDbLinetypeTableRecord
2
CENTER2
70
64
3
----------  --  ----------  -- 
72
65
73
4
40
17.000
49
12.000
74
0
49
-5.000
74
0
49
2.000
74
0
49
-5.000
74
0
0
LTYPE
5
1fd
100
AcDbSymbolTableRecord
100
AcDbLinetypeTableRecord
2
PHANTOM
70
64
3
--- - - --- - - --- - - --- - -
72
65
73
6
40
13.000
49
5.000
74
0
49
-3.000
74
0
49
1.000
74
0
49
-3.000
74
0
49
1.000
74
0
49
-3.000
74
0
0
LTYPE
5
1fe
100
AcDbSymbolTableRecord
100
AcDbLinetypeTableRecord
2
PHANTOM2
70
64
3
--------  -  -  --------  -  -
72
65
73
6
40
20.000
49
6.000
74
0
49
-5.000
74
0
49
2.000
74
0
49
-5.000
74
0
49
2.000
74
0
49
-5.000
74
0
0
LTYPE
5
1ff
100
AcDbSymbolTableRecord
100
AcDbLinetypeTableRecord
2
HIDDEN
70
64
3
-   -   -   -   -   -   -   -   
72
65
73
2
40
3.000
49
0.500
74
0
49
-2.500
74
0
0
ENDTAB
0
TABLE
2
STYLE
5
200
100
AcDbSymbolTable
70
1
0
STYLE
5
201
100
AcDbSymbolTableRecord
100
AcDbTextStyleTableRecord
2
STANDARD
70
0
40
0.0
41
1.0
50
0.0
71
0
42
0.0
3
txt.shx
4
extfont.shx
0
STYLE
5
202
100
AcDbSymbolTableRecord
100
AcDbTextStyleTableRecord
2
TATEGAKI
70
4
40
0.0
41
1.0
50
0.0
71
0
42
0.0
3
txt.shx
4
extfont.shx
0
STYLE
5
203
100
AcDbSymbolTableRecord
100
AcDbTextStyleTableRecord
2
DIM
70
0
40
0.0
41
0.75
50
0.0
71
0
42
0.0
3
txt.shx
4
extfont.shx
0
STYLE
5
204
100
AcDbSymbolTableRecord
100
AcDbTextStyleTableRecord
2
_Gothic_
70
0
40
1.0
41
1.0
50
0.0
71
0
42
10.0
3

4

1001
ACAD
1000
MS Gothic
1071
32817
0
STYLE
5
205
100
AcDbSymbolTableRecord
100
AcDbTextStyleTableRecord
2
_TateGothic_
70
4
40
0.0
41
1.0
50
0.0
71
0
42
0.0
3
@MS Gothic
4

0
ENDTAB
0
TABLE
2
VIEW
5
206
100
AcDbSymbolTable
70
0
0
ENDTAB
0
TABLE
2
UCS
5
207
100
AcDbSymbolTable
70
0
0
ENDTAB
0
TABLE
2
APPID
5
208
100
AcDbSymbolTable
70
1
0
APPID
5
209
100
AcDbSymbolTableRecord
100
AcDbRegAppTableRecord
2
ACAD
70
0
0
ENDTAB
0
TABLE
2
DIMSTYLE
5
403
330
0
100
AcDbSymbolTable
70
1
100
AcDbDimStyleTable
71
0
0
DIMSTYLE
105
404
330
402
100
AcDbSymbolTableRecord
100
AcDbDimStyleTableRecord
2
JAC_DIM
70
0
41
40.000
42
0.000
44
0.0
73
0
74
0
77
1
78
8
79
2
140
0.000
170
0
171
2
172
0
173
0
174
0
175
0
176
0
177
0
178
0
270
2
271
0
272
0
273
2
274
2
340
201
275
0
280
0
281
0
282
0
283
0
284
0
285
0
286
0
287
3
288
0
0
ENDTAB
0
TABLE
2
BLOCK_RECORD
5
405
100
AcDbSymbolTable
70
0
0
BLOCK_RECORD
5
406
100
AcDbSymbolTableRecord
100
AcDbBlockTableRecord
2
*MODEL_SPACE
0
BLOCK_RECORD
5
407
100
AcDbSymbolTableRecord
100
AcDbBlockTableRecord
2
*PAPER_SPACE
0
BLOCK_RECORD
5
408
100
AcDbSymbolTableRecord
100
AcDbBlockTableRecord
2
_JACCONVERT_
0
ENDTAB
0
TABLE
2
LAYER
5
409
100
AcDbSymbolTable
70
10
0
LAYER
5
40a
100
AcDbSymbolTableRecord
100
AcDbLayerTableRecord
2
0
70
0
62
7
6
CONTINUOUS
370
-3
390
14
0
LAYER
5
40b
100
AcDbSymbolTableRecord
100
AcDbLayerTableRecord
2
0-00
70
0
62
7
6
CONTINUOUS
370
-3
390
14
0
LAYER
5
40c
100
AcDbSymbolTableRecord
100
AcDbLayerTableRecord
2
0-3RC
70
0
62
7
6
CONTINUOUS
370
-3
390
14
0
LAYER
5
40d
100
AcDbSymbolTableRecord
100
AcDbLayerTableRecord
2
0-4陰線
70
0
62
7
6
CONTINUOUS
370
-3
390
14
0
LAYER
5
40e
100
AcDbSymbolTableRecord
100
AcDbLayerTableRecord
2
0-5基準線
70
0
62
7
6
CONTINUOUS
370
-3
390
14
0
LAYER
5
40f
100
AcDbSymbolTableRecord
100
AcDbLayerTableRecord
2
0-6戸当り
70
0
62
7
6
CONTINUOUS
370
-3
390
14
0
LAYER
5
410
100
AcDbSymbolTableRecord
100
AcDbLayerTableRecord
2
0-7図枠
70
0
62
7
6
CONTINUOUS
370
-3
390
14
0
LAYER
5
411
100
AcDbSymbolTableRecord
100
AcDbLayerTableRecord
2
0-8寸法
70
0
62
7
6
CONTINUOUS
370
-3
390
14
0
LAYER
5
412
100
AcDbSymbolTableRecord
100
AcDbLayerTableRecord
2
0-9扉体
70
0
62
7
6
CONTINUOUS
370
-3
390
14
0
LAYER
5
413
100
AcDbSymbolTableRecord
100
AcDbLayerTableRecord
2
0-A文字
70
0
62
7
6
CONTINUOUS
370
-3
390
14
0
LAYER
5
414
100
AcDbSymbolTableRecord
100
AcDbLayerTableRecord
2
1-0
70
0
62
7
6
CONTINUOUS
370
-3
390
14
0
LAYER
5
415
100
AcDbSymbolTableRecord
100
AcDbLayerTableRecord
2
F-F_J_ADD
70
0
62
-7
6
CONTINUOUS
290
0
370
-3
390
14
0
ENDTAB
0
ENDSEC
0
SECTION
2
BLOCKS
0
BLOCK
5
416
100
AcDbEntity
67
1
8
0
100
AcDbBlockBegin
2
*MODEL_SPACE
70
0
10
0.0
20
0.0
30
0.0
3
*MODEL_SPACE
1

0
ENDBLK
5
417
100
AcDbEntity
8
0
100
AcDbBlockEnd
0
BLOCK
5
418
100
AcDbEntity
67
1
8
0
100
AcDbBlockBegin
2
*PAPER_SPACE
70
0
10
0.0
20
0.0
30
0.0
3
*PAPER_SPACE
1

0
ENDBLK
5
419
100
AcDbEntity
67
1
8
0
100
AcDbBlockEnd
0
BLOCK
5
41a
100
AcDbEntity
8
0
100
AcDbBlockBegin
2
_JACCONVERT_
70
2
10
0.0
20
0.0
30
0.0
3
_JACCONVERT_
1
_JACCONVERT_
0
ATTDEF
5
41b
100
AcDbEntity
8
0
62
0
100
AcDbText
10
0.0
20
0.0
30
0.0
40
1.0
1
User:33307E08109409567083093083089083760830E50960850900C608B4808D6408F6408F4F08E
100
AcDbAttributeDefinition
3

2
USER
70
8
0
ATTDEF
5
41c
100
AcDbEntity
8
0
62
0
100
AcDbText
10
0.0
20
2.0
30
0.0
40
1.0
1
Date:24/01/30 10:35
100
AcDbAttributeDefinition
3

2
REVDATE
70
8
0
ATTDEF
5
41d
100
AcDbEntity
8
0
62
0
100
AcDbText
10
0.0
20
4.0
30
0.0
40
1.0
1
File:_MFR-A0707K.dxf
100
AcDbAttributeDefinition
3

2
FNAME
70
8
0
ATTDEF
5
41e
100
AcDbEntity
8
0
62
0
100
AcDbText
10
0.0
20
6.0
30
0.0
40
1.0
1
JacConvert Version3.13p copyright (c) 2001-2021 K.Nakahara
100
AcDbAttributeDefinition
3

2
VER
70
8
0
ENDBLK
5
41f
100
AcDbEntity
67
1
8
0
100
AcDbBlockEnd
0
ENDSEC
0
SECTION
2
ENTITIES
0
POLYLINE
5
420
100
AcDbEntity
8
0-7図枠
6
CONTINUOUS
62
  7
100
AcDb2dPolyline
66
1
10
0.0
20
0.0
30
0.0
70
0
0
VERTEX
5
421
100
AcDbEntity
8
0-7図枠
6
CONTINUOUS
62
  7
100
AcDbVertex
100
AcDb2dVertex
10
8100.000000000000
20
5540.000000000000
30
0.0
0
VERTEX
5
422
100
AcDbEntity
8
0-7図枠
6
CONTINUOUS
62
  7
100
AcDbVertex
100
AcDb2dVertex
10
8100.000000000000
20
300.000000000000
30
0.0
0
VERTEX
5
423
100
AcDbEntity
8
0-7図枠
6
CONTINUOUS
62
  7
100
AcDbVertex
100
AcDb2dVertex
10
499.998000000000
20
300.000000000000
30
0.0
0
SEQEND
5
424
100
AcDbEntity
8
0-7図枠
0
POLYLINE
5
425
100
AcDbEntity
8
0-7図枠
6
CONTINUOUS
62
  7
100
AcDb2dPolyline
66
1
10
0.0
20
0.0
30
0.0
70
0
0
VERTEX
5
426
100
AcDbEntity
8
0-7図枠
6
CONTINUOUS
62
  7
100
AcDbVertex
100
AcDb2dVertex
10
8100.000000000000
20
5540.000000000000
30
0.0
0
VERTEX
5
427
100
AcDbEntity
8
0-7図枠
6
CONTINUOUS
62
  7
100
AcDbVertex
100
AcDb2dVertex
10
499.998000000000
20
5540.000000000000
30
0.0
0
VERTEX
5
428
100
AcDbEntity
8
0-7図枠
6
CONTINUOUS
62
  7
100
AcDbVertex
100
AcDb2dVertex
10
499.998000000000
20
300.000000000000
30
0.0
0
SEQEND
5
429
100
AcDbEntity
8
0-7図枠
0
LINE
5
42a
100
AcDbEntity
8
0-9扉体
6
CONTINUOUS
62
4
100
AcDbLine
10
5047.188000000000
20
3018.376000000000
30
0.0
11
4988.188000000000
21
2888.376000000000
31
0.0
0
ARC
5
42b
100
AcDbEntity
8
0-9扉体
6
CONTINUOUS
62
3
100
AcDbCircle
10
5130.188000000000
20
2850.376000000000
30
0.0
40
20.000000000000
100
AcDbArc
50
270.000000000000
51
540.000000000000
0
ARC
5
42c
100
AcDbEntity
8
0-9扉体
6
CONTINUOUS
62
3
100
AcDbCircle
10
5130.188000000000
20
2850.376000000000
30
0.0
40
20.000000000000
100
AcDbArc
50
270.000000000000
51
540.000000000000
0
POLYLINE
5
42d
100
AcDbEntity
  8
0-8寸法
6
CONTINUOUS
62
4
100
AcDb2dPolyline
66
1
10
0
20
0
70
1
40
8.000
41
8.000
0
VERTEX
5
42e
100
AcDbEntity
  8
0-8寸法
6
CONTINUOUS
62
4
100
AcDbVertex
100
AcDb2dVertex
10
5094.188
20
2370.374
30
0.0
42
1.000
0
VERTEX
5
42f
100
AcDbEntity
  8
0-8寸法
6
CONTINUOUS
62
4
100
AcDbVertex
100
AcDb2dVertex
10
5102.188
20
2370.374
30
0.0
42
1.000
0
SEQEND
5
430
100
AcDbEntity
  8
0-8寸法
0
POLYLINE
5
431
100
AcDbEntity
  8
0-8寸法
6
CONTINUOUS
62
4
100
AcDb2dPolyline
66
1
10
0
20
0
70
1
40
8.000
41
8.000
0
VERTEX
5
432
100
AcDbEntity
  8
0-8寸法
6
CONTINUOUS
62
4
100
AcDbVertex
100
AcDb2dVertex
10
5094.188
20
2370.374
30
0.0
42
1.000
0
VERTEX
5
433
100
AcDbEntity
  8
0-8寸法
6
CONTINUOUS
62
4
100
AcDbVertex
100
AcDb2dVertex
10
5102.188
20
2370.374
30
0.0
42
1.000
0
SEQEND
5
434
100
AcDbEntity
  8
0-8寸法
0
LINE
5
435
100
AcDbEntity
8
0-9扉体
6
CONTINUOUS
62
4
100
AcDbLine
10
5110.188000000000
20
2880.376000000000
30
0.0
11
5098.188000000000
21
2880.376000000000
31
0.0
0
LINE
5
436
100
AcDbEntity
8
0-9扉体
6
CONTINUOUS
62
3
100
AcDbLine
10
5110.188000000000
20
2750.376000000000
30
0.0
11
5126.188000000000
21
2750.376000000000
31
0.0
0
LINE
5
437
100
AcDbEntity
8
0-9扉体
6
CONTINUOUS
62
3
100
AcDbLine
10
5130.188000000000
20
2830.376000000000
30
0.0
11
5126.188000000000
21
2830.376000000000
31
0.0
0
LINE
5
438
100
AcDbEntity
8
0-9扉体
6
CONTINUOUS
62
3
100
AcDbLine
10
5126.188000000000
20
2828.376000000000
30
0.0
11
5138.188000000000
21
2828.376000000000
31
0.0
0
LINE
5
439
100
AcDbEntity
8
0-9扉体
6
CONTINUOUS
62
3
100
AcDbLine
10
5126.188000000000
20
2752.376000000000
30
0.0
11
5138.188000000000
21
2752.376000000000
31
0.0
0
LINE
5
43a
100
AcDbEntity
8
0-9扉体
6
DOT
62
3
100
AcDbLine
10
5130.188000000000
20
2782.376000000000
30
0.0
11
5138.188000000000
21
2774.376000000000
31
0.0
0
LINE
5
43b
100
AcDbEntity
8
0-9扉体
6
DOT
62
3
100
AcDbLine
10
5130.188000000000
20
2798.376000000000
30
0.0
11
5138.188000000000
21
2806.376000000000
31
0.0
0
LINE
5
43c
100
AcDbEntity
8
0-9扉体
6
DOT
62
3
100
AcDbLine
10
5130.188000000000
20
2782.376000000000
30
0.0
11
5130.188000000000
21
2798.376000000000
31
0.0
0
LINE
5
43d
100
AcDbEntity
8
0-9扉体
6
DOT
62
3
100
AcDbLine
10
5098.188000000000
20
2798.376000000000
30
0.0
11
5130.188000000000
21
2798.376000000000
31
0.0
0
LINE
5
43e
100
AcDbEntity
8
0-9扉体
6
DOT
62
3
100
AcDbLine
10
5098.188000000000
20
2782.376000000000
30
0.0
11
5130.188000000000
21
2782.376000000000
31
0.0
0
LINE
5
43f
100
AcDbEntity
8
0-9扉体
6
CONTINUOUS
62
3
100
AcDbLine
10
5094.988000000000
20
2772.374000000000
30
0.0
11
5098.188000000000
21
2772.374000000000
31
0.0
0
LINE
5
440
100
AcDbEntity
8
0-9扉体
6
CONTINUOUS
62
3
100
AcDbLine
10
5094.988000000000
20
2808.376000000000
30
0.0
11
5098.188000000000
21
2808.376000000000
31
0.0
0
LINE
5
441
100
AcDbEntity
8
0-9扉体
6
CONTINUOUS
62
3
100
AcDbLine
10
5068.188000000000
20
2782.376000000000
30
0.0
11
5068.188000000000
21
2798.376000000000
31
0.0
0
LINE
5
442
100
AcDbEntity
8
0-9扉体
6
CONTINUOUS
62
3
100
AcDbLine
10
5094.988000000000
20
2808.376000000000
30
0.0
11
5094.988000000000
21
2772.374000000000
31
0.0
0
LINE
5
443
100
AcDbEntity
8
0-9扉体
6
CONTINUOUS
62
7
100
AcDbLine
10
5081.988000000000
20
2777.376000000000
30
0.0
11
5083.148000000000
21
2775.364000000000
31
0.0
0
LINE
5
444
100
AcDbEntity
8
0-9扉体
6
CONTINUOUS
62
7
100
AcDbLine
10
5081.988000000000
20
2803.376000000000
30
0.0
11
5083.148000000000
21
2805.386000000000
31
0.0
0
LINE
5
445
100
AcDbEntity
8
0-9扉体
6
CONTINUOUS
62
7
100
AcDbLine
10
5081.988000000000
20
2777.376000000000
30
0.0
11
5081.988000000000
21
2803.376000000000
31
0.0
0
LINE
5
446
100
AcDbEntity
8
0-9扉体
6
CONTINUOUS
62
3
100
AcDbLine
10
5081.988000000000
20
2798.376000000000
30
0.0
11
5068.188000000000
21
2798.376000000000
31
0.0
0
LINE
5
447
100
AcDbEntity
8
0-9扉体
6
CONTINUOUS
62
3
100
AcDbLine
10
5081.988000000000
20
2782.376000000000
30
0.0
11
5068.188000000000
21
2782.376000000000
31
0.0
0
LINE
5
448
100
AcDbEntity
8
0-9扉体
6
CONTINUOUS
62
7
100
AcDbLine
10
5094.988000000000
20
2805.386000000000
30
0.0
11
5083.148000000000
21
2805.386000000000
31
0.0
0
LINE
5
449
100
AcDbEntity
8
0-9扉体
6
CONTINUOUS
62
7
100
AcDbLine
10
5094.988000000000
20
2797.880000000000
30
0.0
11
5083.148000000000
21
2797.880000000000
31
0.0
0
LINE
5
44a
100
AcDbEntity
8
0-9扉体
6
CONTINUOUS
62
7
100
AcDbLine
10
5094.988000000000
20
2782.870000000000
30
0.0
11
5083.148000000000
21
2782.870000000000
31
0.0
0
LINE
5
44b
100
AcDbEntity
8
0-9扉体
6
CONTINUOUS
62
7
100
AcDbLine
10
5094.988000000000
20
2775.364000000000
30
0.0
11
5083.148000000000
21
2775.364000000000
31
0.0
0
LINE
5
44c
100
AcDbEntity
8
0-9扉体
6
CONTINUOUS
62
2
100
AcDbLine
10
5081.988000000000
20
2796.376000000000
30
0.0
11
5068.188000000000
21
2796.376000000000
31
0.0
0
LINE
5
44d
100
AcDbEntity
8
0-9扉体
6
CONTINUOUS
62
2
100
AcDbLine
10
5081.988000000000
20
2784.376000000000
30
0.0
11
5068.188000000000
21
2784.376000000000
31
0.0
0
LINE
5
44e
100
AcDbEntity
8
0-9扉体
6
CONTINUOUS
62
3
100
AcDbLine
10
5110.188000000000
20
1390.374000000000
30
0.0
11
5126.188000000000
21
1390.374000000000
31
0.0
0
LINE
5
44f
100
AcDbEntity
8
0-9扉体
6
CONTINUOUS
62
3
100
AcDbLine
10
5130.188000000000
20
1310.376000000000
30
0.0
11
5126.188000000000
21
1310.376000000000
31
0.0
0
LINE
5
450
100
AcDbEntity
8
0-9扉体
6
CONTINUOUS
62
3
100
AcDbLine
10
5126.188000000000
20
1312.374000000000
30
0.0
11
5138.188000000000
21
1312.374000000000
31
0.0
0
LINE
5
451
100
AcDbEntity
8
0-9扉体
6
CONTINUOUS
62
3
100
AcDbLine
10
5126.188000000000
20
1388.376000000000
30
0.0
11
5138.188000000000
21
1388.376000000000
31
0.0
0
LINE
5
452
100
AcDbEntity
8
0-9扉体
6
DOT
62
3
100
AcDbLine
10
5130.188000000000
20
1358.376000000000
30
0.0
11
5138.188000000000
21
1366.376000000000
31
0.0
0
LINE
5
453
100
AcDbEntity
8
0-9扉体
6
DOT
62
3
100
AcDbLine
10
5130.188000000000
20
1342.374000000000
30
0.0
11
5138.188000000000
21
1334.374000000000
31
0.0
0
LINE
5
454
100
AcDbEntity
8
0-9扉体
6
DOT
62
3
100
AcDbLine
10
5130.188000000000
20
1358.376000000000
30
0.0
11
5130.188000000000
21
1342.374000000000
31
0.0
0
LINE
5
455
100
AcDbEntity
8
0-9扉体
6
DOT
62
3
100
AcDbLine
10
5098.188000000000
20
1342.374000000000
30
0.0
11
5130.188000000000
21
1342.374000000000
31
0.0
0
LINE
5
456
100
AcDbEntity
8
0-9扉体
6
DOT
62
3
100
AcDbLine
10
5098.188000000000
20
1358.376000000000
30
0.0
11
5130.188000000000
21
1358.376000000000
31
0.0
0
LINE
5
457
100
AcDbEntity
8
0-9扉体
6
CONTINUOUS
62
3
100
AcDbLine
10
5094.988000000000
20
1368.376000000000
30
0.0
11
5098.188000000000
21
1368.376000000000
31
0.0
0
LINE
5
458
100
AcDbEntity
8
0-9扉体
6
CONTINUOUS
62
3
100
AcDbLine
10
5094.988000000000
20
1332.376000000000
30
0.0
11
5098.188000000000
21
1332.376000000000
31
0.0
0
LINE
5
459
100
AcDbEntity
8
0-9扉体
6
CONTINUOUS
62
3
100
AcDbLine
10
5068.188000000000
20
1358.376000000000
30
0.0
11
5068.188000000000
21
1342.374000000000
31
0.0
0
LINE
5
45a
100
AcDbEntity
8
0-9扉体
6
CONTINUOUS
62
3
100
AcDbLine
10
5094.988000000000
20
1332.376000000000
30
0.0
11
5094.988000000000
21
1368.376000000000
31
0.0
0
LINE
5
45b
100
AcDbEntity
8
0-5基準線
6
CENTER2
62
7
100
AcDbLine
10
5063.380000000000
20
1350.376000000000
30
0.0
11
5141.236000000000
21
1350.376000000000
31
0.0
0
LINE
5
45c
100
AcDbEntity
8
0-9扉体
6
CONTINUOUS
62
7
100
AcDbLine
10
5081.988000000000
20
1363.376000000000
30
0.0
11
5083.148000000000
21
1365.386000000000
31
0.0
0
LINE
5
45d
100
AcDbEntity
8
0-9扉体
6
CONTINUOUS
62
7
100
AcDbLine
10
5081.988000000000
20
1337.376000000000
30
0.0
11
5083.148000000000
21
1335.364000000000
31
0.0
0
LINE
5
45e
100
AcDbEntity
8
0-9扉体
6
CONTINUOUS
62
7
100
AcDbLine
10
5081.988000000000
20
1363.376000000000
30
0.0
11
5081.988000000000
21
1337.376000000000
31
0.0
0
LINE
5
45f
100
AcDbEntity
8
0-9扉体
6
CONTINUOUS
62
3
100
AcDbLine
10
5081.988000000000
20
1342.374000000000
30
0.0
11
5068.188000000000
21
1342.374000000000
31
0.0
0
LINE
5
460
100
AcDbEntity
8
0-9扉体
6
CONTINUOUS
62
3
100
AcDbLine
10
5081.988000000000
20
1358.376000000000
30
0.0
11
5068.188000000000
21
1358.376000000000
31
0.0
0
LINE
5
461
100
AcDbEntity
8
0-9扉体
6
CONTINUOUS
62
7
100
AcDbLine
10
5094.988000000000
20
1335.364000000000
30
0.0
11
5083.148000000000
21
1335.364000000000
31
0.0
0
LINE
5
462
100
AcDbEntity
8
0-9扉体
6
CONTINUOUS
62
7
100
AcDbLine
10
5094.988000000000
20
1342.870000000000
30
0.0
11
5083.148000000000
21
1342.870000000000
31
0.0
0
LINE
5
463
100
AcDbEntity
8
0-9扉体
6
CONTINUOUS
62
7
100
AcDbLine
10
5094.988000000000
20
1357.882000000000
30
0.0
11
5083.148000000000
21
1357.882000000000
31
0.0
0
LINE
5
464
100
AcDbEntity
8
0-9扉体
6
CONTINUOUS
62
7
100
AcDbLine
10
5094.988000000000
20
1365.386000000000
30
0.0
11
5083.148000000000
21
1365.386000000000
31
0.0
0
LINE
5
465
100
AcDbEntity
8
0-9扉体
6
CONTINUOUS
62
2
100
AcDbLine
10
5081.988000000000
20
1344.374000000000
30
0.0
11
5068.188000000000
21
1344.374000000000
31
0.0
0
LINE
5
466
100
AcDbEntity
8
0-9扉体
6
CONTINUOUS
62
2
100
AcDbLine
10
5081.988000000000
20
1356.374000000000
30
0.0
11
5068.188000000000
21
1356.374000000000
31
0.0
0
LINE
5
467
100
AcDbEntity
8
0-5基準線
6
CENTER2
62
7
100
AcDbLine
10
5061.500000000000
20
2790.376000000000
30
0.0
11
5141.236000000000
21
2790.376000000000
31
0.0
0
LINE
5
468
100
AcDbEntity
8
0-9扉体
6
CONTINUOUS
62
4
100
AcDbLine
10
5012.188000000000
20
2892.976000000000
30
0.0
11
5064.188000000000
21
2892.976000000000
31
0.0
0
LINE
5
469
100
AcDbEntity
8
0-9扉体
6
CONTINUOUS
62
4
100
AcDbLine
10
5012.188000000000
20
2892.976000000000
30
0.0
11
5012.188000000000
21
2888.376000000000
31
0.0
0
LINE
5
46a
100
AcDbEntity
8
0-9扉体
6
CONTINUOUS
62
4
100
AcDbLine
10
5064.188000000000
20
2892.976000000000
30
0.0
11
5064.188000000000
21
2888.376000000000
31
0.0
0
LINE
5
46b
100
AcDbEntity
8
0-9扉体
6
CONTINUOUS
62
4
100
AcDbLine
10
5016.688000000000
20
2898.974000000000
30
0.0
11
5016.688000000000
21
2892.976000000000
31
0.0
0
LINE
5
46c
100
AcDbEntity
8
0-9扉体
6
CONTINUOUS
62
4
100
AcDbLine
10
5059.688000000000
20
2898.974000000000
30
0.0
11
5059.688000000000
21
2892.976000000000
31
0.0
0
LINE
5
46d
100
AcDbEntity
8
0-9扉体
6
CONTINUOUS
62
7
100
AcDbLine
10
5019.188000000000
20
2918.976000000000
30
0.0
11
5057.188000000000
21
2918.976000000000
31
0.0
0
LINE
5
46e
100
AcDbEntity
8
0-9扉体
6
CONTINUOUS
62
7
100
AcDbLine
10
5019.188000000000
20
2918.976000000000
30
0.0
11
5016.248000000000
21
2917.278000000000
31
0.0
0
LINE
5
46f
100
AcDbEntity
8
0-9扉体
6
CONTINUOUS
62
7
100
AcDbLine
10
5057.188000000000
20
2918.976000000000
30
0.0
11
5060.126000000000
21
2917.278000000000
31
0.0
0
LINE
5
470
100
AcDbEntity
8
0-9扉体
6
CONTINUOUS
62
7
100
AcDbLine
10
5016.248000000000
20
2898.974000000000
30
0.0
11
5016.248000000000
21
2917.278000000000
31
0.0
0
LINE
5
471
100
AcDbEntity
8
0-9扉体
6
CONTINUOUS
62
7
100
AcDbLine
10
5060.126000000000
20
2898.974000000000
30
0.0
11
5060.126000000000
21
2917.278000000000
31
0.0
0
LINE
5
472
100
AcDbEntity
8
0-9扉体
6
CONTINUOUS
62
4
100
AcDbLine
10
5016.248000000000
20
2898.974000000000
30
0.0
11
5060.126000000000
21
2898.974000000000
31
0.0
0
LINE
5
473
100
AcDbEntity
8
0-9扉体
6
CONTINUOUS
62
7
100
AcDbLine
10
5027.218000000000
20
2898.974000000000
30
0.0
11
5027.218000000000
21
2917.278000000000
31
0.0
0
LINE
5
474
100
AcDbEntity
8
0-9扉体
6
CONTINUOUS
62
7
100
AcDbLine
10
5049.156000000000
20
2898.974000000000
30
0.0
11
5049.156000000000
21
2917.278000000000
31
0.0
0
LINE
5
475
100
AcDbEntity
8
0-9扉体
6
CONTINUOUS
62
7
100
AcDbLine
10
5057.188000000000
20
2842.376000000000
30
0.0
11
5019.188000000000
21
2842.376000000000
31
0.0
0
LINE
5
476
100
AcDbEntity
8
0-9扉体
6
CONTINUOUS
62
7
100
AcDbLine
10
5057.188000000000
20
2842.376000000000
30
0.0
11
5060.126000000000
21
2844.072000000000
31
0.0
0
LINE
5
477
100
AcDbEntity
8
0-9扉体
6
CONTINUOUS
62
7
100
AcDbLine
10
5019.188000000000
20
2842.376000000000
30
0.0
11
5016.248000000000
21
2844.072000000000
31
0.0
0
LINE
5
478
100
AcDbEntity
8
0-9扉体
6
CONTINUOUS
62
7
100
AcDbLine
10
5060.126000000000
20
2858.376000000000
30
0.0
11
5060.126000000000
21
2844.072000000000
31
0.0
0
LINE
5
479
100
AcDbEntity
8
0-9扉体
6
CONTINUOUS
62
7
100
AcDbLine
10
5016.248000000000
20
2858.376000000000
30
0.0
11
5016.248000000000
21
2844.072000000000
31
0.0
0
LINE
5
47a
100
AcDbEntity
8
0-9扉体
6
CONTINUOUS
62
7
100
AcDbLine
10
5049.156000000000
20
2858.376000000000
30
0.0
11
5049.156000000000
21
2844.072000000000
31
0.0
0
LINE
5
47b
100
AcDbEntity
8
0-9扉体
6
CONTINUOUS
62
7
100
AcDbLine
10
5027.218000000000
20
2858.376000000000
30
0.0
11
5027.218000000000
21
2844.072000000000
31
0.0
0
LINE
5
47c
100
AcDbEntity
8
0-9扉体
6
CONTINUOUS
62
4
100
AcDbLine
10
5026.188000000000
20
2938.376000000000
30
0.0
11
5050.188000000000
21
2938.376000000000
31
0.0
0
LINE
5
47d
100
AcDbEntity
8
0-9扉体
6
CONTINUOUS
62
4
100
AcDbLine
10
5026.188000000000
20
2938.376000000000
30
0.0
11
5026.188000000000
21
2918.976000000000
31
0.0
0
LINE
5
47e
100
AcDbEntity
8
0-9扉体
6
CONTINUOUS
62
4
100
AcDbLine
10
5050.188000000000
20
2938.376000000000
30
0.0
11
5050.188000000000
21
2918.976000000000
31
0.0
0
LINE
5
47f
100
AcDbEntity
8
0-9扉体
6
CONTINUOUS
62
4
100
AcDbLine
10
5028.188000000000
20
2938.376000000000
30
0.0
11
5028.188000000000
21
2918.976000000000
31
0.0
0
LINE
5
480
100
AcDbEntity
8
0-9扉体
6
CONTINUOUS
62
4
100
AcDbLine
10
5048.188000000000
20
2938.376000000000
30
0.0
11
5048.188000000000
21
2918.976000000000
31
0.0
0
LINE
5
481
100
AcDbEntity
8
0-9扉体
6
CONTINUOUS
62
4
100
AcDbLine
10
5088.188000000000
20
2888.376000000000
30
0.0
11
5117.188000000000
21
2917.376000000000
31
0.0
0
LINE
5
482
100
AcDbEntity
8
0-5基準線
6
CENTER2
62
7
100
AcDbLine
10
5082.188000000000
20
3010.376000000000
30
0.0
11
5082.188000000000
21
2930.376000000000
31
0.0
0
LINE
5
483
100
AcDbEntity
8
0-9扉体
6
CONTINUOUS
62
4
100
AcDbLine
10
1787.324000000000
20
2870.376000000000
30
0.0
11
3387.324000000000
21
2870.376000000000
31
0.0
0
LINE
5
484
100
AcDbEntity
8
0-9扉体
6
DOT
62
4
100
AcDbLine
10
1799.324000000000
20
1270.376000000000
30
0.0
11
1799.324000000000
21
2870.376000000000
31
0.0
0
LINE
5
485
100
AcDbEntity
8
0-9扉体
6
DOT
62
4
100
AcDbLine
10
1799.324000000000
20
2858.376000000000
30
0.0
11
3375.324000000000
21
2858.376000000000
31
0.0
0
LINE
5
486
100
AcDbEntity
8
0-9扉体
6
CONTINUOUS
62
4
100
AcDbLine
10
5038.188000000000
20
2898.974000000000
30
0.0
11
5032.188000000000
21
2892.976000000000
31
0.0
0
LINE
5
487
100
AcDbEntity
8
0-9扉体
6
CONTINUOUS
62
4
100
AcDbLine
10
5038.188000000000
20
2892.976000000000
30
0.0
11
5044.188000000000
21
2898.974000000000
31
0.0
0
LINE
5
488
100
AcDbEntity
8
0-9扉体
6
CONTINUOUS
62
4
100
AcDbLine
10
3207.324000000000
20
2880.376000000000
30
0.0
11
3397.324000000000
21
2880.376000000000
31
0.0
0
LINE
5
489
100
AcDbEntity
8
0-6戸当り
6
CONTINUOUS
62
7
100
AcDbLine
10
1976.324000000000
20
3041.344000000000
30
0.0
11
1957.324000000000
21
3052.314000000000
31
0.0
0
LINE
5
48a
100
AcDbEntity
8
0-6戸当り
6
CONTINUOUS
62
7
100
AcDbLine
10
1976.324000000000
20
3041.344000000000
30
0.0
11
1976.324000000000
21
3019.406000000000
31
0.0
0
LINE
5
48b
100
AcDbEntity
8
0-6戸当り
6
CONTINUOUS
62
7
100
AcDbLine
10
1957.324000000000
20
3008.436000000000
30
0.0
11
1976.324000000000
21
3019.406000000000
31
0.0
0
POLYLINE
5
48c
100
AcDbEntity
8
0-6戸当り
6
CONTINUOUS
62
  7
100
AcDb2dPolyline
66
1
10
0.0
20
0.0
30
0.0
70
0
0
VERTEX
5
48d
100
AcDbEntity
8
0-6戸当り
6
CONTINUOUS
62
  7
100
AcDbVertex
100
AcDb2dVertex
10
1957.324000000000
20
3008.436000000000
30
0.0
0
VERTEX
5
48e
100
AcDbEntity
8
0-6戸当り
6
CONTINUOUS
62
  7
100
AcDbVertex
100
AcDb2dVertex
10
1938.324000000000
20
3019.406000000000
30
0.0
0
VERTEX
5
48f
100
AcDbEntity
8
0-6戸当り
6
CONTINUOUS
62
  7
100
AcDbVertex
100
AcDb2dVertex
10
1938.324000000000
20
3041.344000000000
30
0.0
0
VERTEX
5
490
100
AcDbEntity
8
0-6戸当り
6
CONTINUOUS
62
  7
100
AcDbVertex
100
AcDb2dVertex
10
1957.324000000000
20
3052.314000000000
30
0.0
0
SEQEND
5
491
100
AcDbEntity
8
0-6戸当り
0
LINE
5
492
100
AcDbEntity
8
0-5基準線
6
CENTER2
62
7
100
AcDbLine
10
5044.748000000000
20
2970.376000000000
30
0.0
11
5120.666000000000
21
2970.376000000000
31
0.0
0
LINE
5
493
100
AcDbEntity
8
0-9扉体
6
CONTINUOUS
62
6
100
AcDbLine
10
5132.174000000000
20
1270.474000000000
30
0.0
11
5150.090000000000
21
1288.390000000000
31
0.0
0
LINE
5
494
100
AcDbEntity
8
0-9扉体
6
CONTINUOUS
62
6
100
AcDbLine
10
5129.268000000000
20
1270.396000000000
30
0.0
11
5150.166000000000
21
1291.296000000000
31
0.0
0
LINE
5
495
100
AcDbEntity
8
0-9扉体
6
CONTINUOUS
62
6
100
AcDbLine
10
5110.188000000000
20
1305.056000000000
30
0.0
11
5126.188000000000
21
1321.056000000000
31
0.0
0
LINE
5
496
100
AcDbEntity
8
0-9扉体
6
CONTINUOUS
62
6
100
AcDbLine
10
5110.188000000000
20
1307.884000000000
30
0.0
11
5126.188000000000
21
1323.884000000000
31
0.0
0
LINE
5
497
100
AcDbEntity
8
0-9扉体
6
CONTINUOUS
62
6
100
AcDbLine
10
5110.188000000000
20
1333.340000000000
30
0.0
11
5126.188000000000
21
1349.340000000000
31
0.0
0
LINE
5
498
100
AcDbEntity
8
0-9扉体
6
CONTINUOUS
62
6
100
AcDbLine
10
5110.188000000000
20
1336.170000000000
30
0.0
11
5126.188000000000
21
1352.170000000000
31
0.0
0
LINE
5
499
100
AcDbEntity
8
0-9扉体
6
CONTINUOUS
62
6
100
AcDbLine
10
5110.188000000000
20
1361.626000000000
30
0.0
11
5126.188000000000
21
1377.624000000000
31
0.0
0
LINE
5
49a
100
AcDbEntity
8
0-9扉体
6
CONTINUOUS
62
6
100
AcDbLine
10
5110.188000000000
20
1364.454000000000
30
0.0
11
5126.188000000000
21
1380.454000000000
31
0.0
0
LINE
5
49b
100
AcDbEntity
8
0-9扉体
6
CONTINUOUS
62
6
100
AcDbLine
10
5110.188000000000
20
1389.910000000000
30
0.0
11
5110.652000000000
21
1390.374000000000
31
0.0
0
LINE
5
49c
100
AcDbEntity
8
0-9扉体
6
CONTINUOUS
62
6
100
AcDbLine
10
5113.214000000000
20
1279.798000000000
30
0.0
11
5122.324000000000
21
1288.908000000000
31
0.0
0
LINE
5
49d
100
AcDbEntity
8
0-9扉体
6
CONTINUOUS
62
6
100
AcDbLine
10
5131.654000000001
20
1298.240000000000
30
0.0
11
5140.766000000000
21
1307.350000000000
31
0.0
0
LINE
5
49e
100
AcDbEntity
8
0-9扉体
6
CONTINUOUS
62
6
100
AcDbLine
10
5112.206000000000
20
1281.620000000000
30
0.0
11
5122.300000000000
21
1291.714000000000
31
0.0
0
LINE
5
49f
100
AcDbEntity
8
0-9扉体
6
CONTINUOUS
62
6
100
AcDbLine
10
5128.850000000000
20
1298.262000000000
30
0.0
11
5138.944000000000
21
1308.356000000000
31
0.0
0
LINE
5
4a0
100
AcDbEntity
8
0-9扉体
6
CONTINUOUS
62
6
100
AcDbLine
10
5121.538000000000
20
2750.376000000000
30
0.0
11
5126.188000000000
21
2755.026000000000
31
0.0
0
LINE
5
4a1
100
AcDbEntity
8
0-9扉体
6
CONTINUOUS
62
6
100
AcDbLine
10
5118.710000000000
20
2750.376000000000
30
0.0
11
5126.188000000000
21
2757.854000000000
31
0.0
0
LINE
5
4a2
100
AcDbEntity
8
0-9扉体
6
CONTINUOUS
62
6
100
AcDbLine
10
5110.188000000000
20
2767.310000000000
30
0.0
11
5126.188000000000
21
2783.310000000000
31
0.0
0
LINE
5
4a3
100
AcDbEntity
8
0-9扉体
6
CONTINUOUS
62
6
100
AcDbLine
10
5110.188000000000
20
2770.138000000000
30
0.0
11
5126.188000000000
21
2786.138000000000
31
0.0
0
LINE
5
4a4
100
AcDbEntity
8
0-9扉体
6
CONTINUOUS
62
6
100
AcDbLine
10
5110.188000000000
20
2795.594000000000
30
0.0
11
5126.188000000000
21
2811.594000000000
31
0.0
0
LINE
5
4a5
100
AcDbEntity
8
0-9扉体
6
CONTINUOUS
62
6
100
AcDbLine
10
5110.188000000000
20
2798.422000000000
30
0.0
11
5126.188000000000
21
2814.422000000000
31
0.0
0
LINE
5
4a6
100
AcDbEntity
8
0-9扉体
6
CONTINUOUS
62
6
100
AcDbLine
10
5110.276000000000
20
2852.252000000000
30
0.0
11
5128.312000000000
21
2870.288000000000
31
0.0
0
LINE
5
4a7
100
AcDbEntity
8
0-9扉体
6
CONTINUOUS
62
6
100
AcDbLine
10
5110.916000000000
20
2855.720000000000
30
0.0
11
5124.844000000000
21
2869.648000000000
31
0.0
0
LINE
5
4a8
100
AcDbEntity
8
0-9扉体
6
CONTINUOUS
62
6
100
AcDbLine
10
5137.374000000000
20
2853.892000000000
30
0.0
11
5146.044000000000
21
2862.564000000000
31
0.0
0
LINE
5
4a9
100
AcDbEntity
8
0-9扉体
6
CONTINUOUS
62
6
100
AcDbLine
10
5110.188000000000
20
2823.878000000000
30
0.0
11
5128.804000000000
21
2842.496000000000
31
0.0
0
LINE
5
4aa
100
AcDbEntity
8
0-9扉体
6
CONTINUOUS
62
6
100
AcDbLine
10
5138.068000000000
20
2851.758000000000
30
0.0
11
5147.200000000000
21
2860.892000000000
31
0.0
0
LINE
5
4ab
100
AcDbEntity
8
0-A文字
6
CONTINUOUS
62
7
100
AcDbLine
10
4304.224000000000
20
2110.376000000000
30
0.0
11
4705.624000000000
21
2110.376000000000
31
0.0
0
LINE
5
4ac
100
AcDbEntity
8
0-A文字
6
CONTINUOUS
62
7
100
AcDbLine
10
4304.224000000000
20
2030.376000000000
30
0.0
11
4705.624000000000
21
2030.376000000000
31
0.0
0
LINE
5
4ad
100
AcDbEntity
8
0-A文字
6
CONTINUOUS
62
7
100
AcDbLine
10
4304.224000000000
20
2110.376000000000
30
0.0
11
4304.224000000000
21
2030.376000000000
31
0.0
0
LINE
5
4ae
100
AcDbEntity
8
0-A文字
6
CONTINUOUS
62
7
100
AcDbLine
10
4705.624000000000
20
2110.376000000000
30
0.0
11
4705.624000000000
21
2150.376000000000
31
0.0
0
LINE
5
4af
100
AcDbEntity
8
0-A文字
6
CONTINUOUS
62
7
100
AcDbLine
10
4705.624000000000
20
2030.376000000000
30
0.0
11
4705.624000000000
21
1990.374000000000
31
0.0
0
LINE
5
4b0
100
AcDbEntity
8
0-A文字
6
CONTINUOUS
62
7
100
AcDbLine
10
4705.624000000000
20
2150.376000000000
30
0.0
11
4844.188000000000
21
2070.376000000000
31
0.0
0
LINE
5
4b1
100
AcDbEntity
8
0-A文字
6
CONTINUOUS
62
7
100
AcDbLine
10
4705.624000000000
20
1990.374000000000
30
0.0
11
4844.188000000000
21
2070.376000000000
31
0.0
0
LINE
5
4b2
100
AcDbEntity
8
0-8寸法
6
CONTINUOUS
62
4
100
AcDbLine
10
5774.188000000000
20
1370.376000000000
30
0.0
11
5774.188000000000
21
2770.376000000000
31
0.0
0
LINE
5
4b3
100
AcDbEntity
8
0-8寸法
6
CONTINUOUS
62
4
100
AcDbLine
10
5774.188000000000
20
1370.376000000000
30
0.0
11
5763.834000000000
21
1409.012000000000
31
0.0
0
LINE
5
4b4
100
AcDbEntity
8
0-8寸法
6
CONTINUOUS
62
4
100
AcDbLine
10
5774.188000000000
20
1370.376000000000
30
0.0
11
5784.540000000000
21
1409.012000000000
31
0.0
0
LINE
5
4b5
100
AcDbEntity
8
0-8寸法
6
CONTINUOUS
62
4
100
AcDbLine
10
5774.188000000000
20
2770.376000000000
30
0.0
11
5763.834000000000
21
2731.738000000000
31
0.0
0
LINE
5
4b6
100
AcDbEntity
8
0-8寸法
6
CONTINUOUS
62
4
100
AcDbLine
10
5774.188000000000
20
2770.376000000000
30
0.0
11
5784.540000000000
21
2731.738000000000
31
0.0
0
LINE
5
4b7
100
AcDbEntity
8
0-8寸法
6
CONTINUOUS
62
4
100
AcDbLine
10
1787.324000000000
20
870.376000000000
30
0.0
11
3387.324000000000
21
870.376000000000
31
0.0
0
LINE
5
4b8
100
AcDbEntity
8
0-8寸法
6
CONTINUOUS
62
4
100
AcDbLine
10
1787.324000000000
20
870.376000000000
30
0.0
11
1825.962000000000
21
880.728000000000
31
0.0
0
LINE
5
4b9
100
AcDbEntity
8
0-8寸法
6
CONTINUOUS
62
4
100
AcDbLine
10
1787.324000000000
20
870.376000000000
30
0.0
11
1825.962000000000
21
860.022000000000
31
0.0
0
LINE
5
4ba
100
AcDbEntity
8
0-8寸法
6
CONTINUOUS
62
4
100
AcDbLine
10
3387.324000000000
20
870.376000000000
30
0.0
11
3348.688000000000
21
880.728000000000
31
0.0
0
LINE
5
4bb
100
AcDbEntity
8
0-8寸法
6
CONTINUOUS
62
4
100
AcDbLine
10
3387.324000000000
20
870.376000000000
30
0.0
11
3348.688000000000
21
860.022000000000
31
0.0
0
LINE
5
4bc
100
AcDbEntity
8
0-8寸法
6
CONTINUOUS
62
4
100
AcDbLine
10
1387.324000000000
20
1270.376000000000
30
0.0
11
1387.324000000000
21
2870.376000000000
31
0.0
0
LINE
5
4bd
100
AcDbEntity
8
0-8寸法
6
CONTINUOUS
62
4
100
AcDbLine
10
1762.674000000000
20
1270.376000000000
30
0.0
11
1367.324000000000
21
1270.376000000000
31
0.0
0
LINE
5
4be
100
AcDbEntity
8
0-8寸法
6
CONTINUOUS
62
4
100
AcDbLine
10
1762.674000000000
20
2870.376000000000
30
0.0
11
1367.324000000000
21
2870.376000000000
31
0.0
0
LINE
5
4bf
100
AcDbEntity
8
0-8寸法
6
CONTINUOUS
62
4
100
AcDbLine
10
1387.324000000000
20
1270.376000000000
30
0.0
11
1376.972000000000
21
1309.012000000000
31
0.0
0
LINE
5
4c0
100
AcDbEntity
8
0-8寸法
6
CONTINUOUS
62
4
100
AcDbLine
10
1387.324000000000
20
1270.376000000000
30
0.0
11
1397.678000000000
21
1309.012000000000
31
0.0
0
LINE
5
4c1
100
AcDbEntity
8
0-8寸法
6
CONTINUOUS
62
4
100
AcDbLine
10
1387.324000000000
20
2870.376000000000
30
0.0
11
1376.972000000000
21
2831.738000000000
31
0.0
0
LINE
5
4c2
100
AcDbEntity
8
0-8寸法
6
CONTINUOUS
62
4
100
AcDbLine
10
1387.324000000000
20
2870.376000000000
30
0.0
11
1397.678000000000
21
2831.738000000000
31
0.0
0
LINE
5
4c3
100
AcDbEntity
8
0-8寸法
6
CONTINUOUS
62
4
100
AcDbLine
10
1787.324000000000
20
1256.664000000000
30
0.0
11
1787.324000000000
21
850.376000000000
31
0.0
0
LINE
5
4c4
100
AcDbEntity
8
0-8寸法
6
CONTINUOUS
62
4
100
AcDbLine
10
3387.324000000000
20
1256.664000000000
30
0.0
11
3387.324000000000
21
850.376000000000
31
0.0
0
LINE
5
4c5
100
AcDbEntity
8
0-8寸法
6
CONTINUOUS
62
4
100
AcDbLine
10
2107.324000000000
20
3520.376000000000
30
0.0
11
3067.324000000000
21
3520.376000000000
31
0.0
0
LINE
5
4c6
100
AcDbEntity
8
0-8寸法
6
CONTINUOUS
62
4
100
AcDbLine
10
2107.324000000000
20
3520.376000000000
30
0.0
11
2145.960000000000
21
3530.728000000000
31
0.0
0
LINE
5
4c7
100
AcDbEntity
8
0-8寸法
6
CONTINUOUS
62
4
100
AcDbLine
10
2107.324000000000
20
3520.376000000000
30
0.0
11
2145.960000000000
21
3510.022000000000
31
0.0
0
LINE
5
4c8
100
AcDbEntity
8
0-8寸法
6
CONTINUOUS
62
4
100
AcDbLine
10
3067.324000000000
20
3520.376000000000
30
0.0
11
3028.688000000000
21
3530.728000000000
31
0.0
0
LINE
5
4c9
100
AcDbEntity
8
0-8寸法
6
CONTINUOUS
62
4
100
AcDbLine
10
3067.324000000000
20
3520.376000000000
30
0.0
11
3028.688000000000
21
3510.022000000000
31
0.0
0
LINE
5
4ca
100
AcDbEntity
8
0-8寸法
6
CONTINUOUS
62
4
100
AcDbLine
10
522.760000000000
20
3520.376000000000
30
0.0
11
1787.324000000000
21
3520.376000000000
31
0.0
0
LINE
5
4cb
100
AcDbEntity
8
0-8寸法
6
CONTINUOUS
62
4
100
AcDbLine
10
522.760000000000
20
3720.376000000000
30
0.0
11
1787.324000000000
21
3720.376000000000
31
0.0
0
LINE
5
4cc
100
AcDbEntity
8
0-9扉体
6
CONTINUOUS
62
3
100
AcDbLine
10
3267.326000000000
20
4645.294000000000
30
0.0
11
3267.326000000000
21
4661.294000000000
31
0.0
0
LINE
5
4cd
100
AcDbEntity
8
0-9扉体
6
CONTINUOUS
62
3
100
AcDbLine
10
3347.324000000000
20
4665.294000000000
30
0.0
11
3347.324000000000
21
4661.294000000000
31
0.0
0
LINE
5
4ce
100
AcDbEntity
8
0-9扉体
6
CONTINUOUS
62
3
100
AcDbLine
10
3345.324000000000
20
4661.294000000000
30
0.0
11
3345.324000000000
21
4673.294000000000
31
0.0
0
LINE
5
4cf
100
AcDbEntity
8
0-9扉体
6
CONTINUOUS
62
3
100
AcDbLine
10
3269.324000000000
20
4661.294000000000
30
0.0
11
3269.324000000000
21
4673.294000000000
31
0.0
0
LINE
5
4d0
100
AcDbEntity
8
0-9扉体
6
DOT
62
3
100
AcDbLine
10
3299.324000000000
20
4665.294000000000
30
0.0
11
3291.324000000000
21
4673.294000000000
31
0.0
0
LINE
5
4d1
100
AcDbEntity
8
0-9扉体
6
DOT
62
3
100
AcDbLine
10
3315.326000000000
20
4665.294000000000
30
0.0
11
3323.324000000000
21
4673.294000000000
31
0.0
0
LINE
5
4d2
100
AcDbEntity
8
0-9扉体
6
DOT
62
3
100
AcDbLine
10
3299.324000000000
20
4665.294000000000
30
0.0
11
3315.326000000000
21
4665.294000000000
31
0.0
0
LINE
5
4d3
100
AcDbEntity
8
0-9扉体
6
DOT
62
3
100
AcDbLine
10
3315.326000000000
20
4633.294000000000
30
0.0
11
3315.326000000000
21
4665.294000000000
31
0.0
0
LINE
5
4d4
100
AcDbEntity
8
0-9扉体
6
DOT
62
3
100
AcDbLine
10
3299.324000000000
20
4633.294000000000
30
0.0
11
3299.324000000000
21
4665.294000000000
31
0.0
0
LINE
5
4d5
100
AcDbEntity
8
0-9扉体
6
CONTINUOUS
62
3
100
AcDbLine
10
3289.324000000000
20
4630.094000000000
30
0.0
11
3289.324000000000
21
4633.294000000000
31
0.0
0
LINE
5
4d6
100
AcDbEntity
8
0-9扉体
6
CONTINUOUS
62
3
100
AcDbLine
10
3325.324000000000
20
4630.094000000000
30
0.0
11
3325.324000000000
21
4633.294000000000
31
0.0
0
LINE
5
4d7
100
AcDbEntity
8
0-9扉体
6
CONTINUOUS
62
3
100
AcDbLine
10
3299.324000000000
20
4603.294000000000
30
0.0
11
3315.326000000000
21
4603.294000000000
31
0.0
0
LINE
5
4d8
100
AcDbEntity
8
0-9扉体
6
CONTINUOUS
62
3
100
AcDbLine
10
3325.324000000000
20
4630.094000000000
30
0.0
11
3289.324000000000
21
4630.094000000000
31
0.0
0
LINE
5
4d9
100
AcDbEntity
8
0-5基準線
6
CENTER2
62
7
100
AcDbLine
10
3307.324000000000
20
4598.488000000000
30
0.0
11
3307.324000000000
21
4676.344000000000
31
0.0
0
LINE
5
4da
100
AcDbEntity
8
0-9扉体
6
CONTINUOUS
62
7
100
AcDbLine
10
3294.324000000000
20
4617.094000000000
30
0.0
11
3292.314000000000
21
4618.256000000000
31
0.0
0
LINE
5
4db
100
AcDbEntity
8
0-9扉体
6
CONTINUOUS
62
7
100
AcDbLine
10
3320.324000000000
20
4617.094000000000
30
0.0
11
3322.334000000000
21
4618.256000000000
31
0.0
0
LINE
5
4dc
100
AcDbEntity
8
0-9扉体
6
CONTINUOUS
62
7
100
AcDbLine
10
3294.324000000000
20
4617.094000000000
30
0.0
11
3320.324000000000
21
4617.094000000000
31
0.0
0
LINE
5
4dd
100
AcDbEntity
8
0-9扉体
6
CONTINUOUS
62
3
100
AcDbLine
10
3315.326000000000
20
4617.094000000000
30
0.0
11
3315.326000000000
21
4603.294000000000
31
0.0
0
LINE
5
4de
100
AcDbEntity
8
0-9扉体
6
CONTINUOUS
62
3
100
AcDbLine
10
3299.324000000000
20
4617.094000000000
30
0.0
11
3299.324000000000
21
4603.294000000000
31
0.0
0
LINE
5
4df
100
AcDbEntity
8
0-9扉体
6
CONTINUOUS
62
7
100
AcDbLine
10
3322.334000000000
20
4630.094000000000
30
0.0
11
3322.334000000000
21
4618.256000000000
31
0.0
0
LINE
5
4e0
100
AcDbEntity
8
0-9扉体
6
CONTINUOUS
62
7
100
AcDbLine
10
3314.830000000000
20
4630.094000000000
30
0.0
11
3314.830000000000
21
4618.256000000000
31
0.0
0
LINE
5
4e1
100
AcDbEntity
8
0-9扉体
6
CONTINUOUS
62
7
100
AcDbLine
10
3299.818000000000
20
4630.094000000000
30
0.0
11
3299.818000000000
21
4618.256000000000
31
0.0
0
LINE
5
4e2
100
AcDbEntity
8
0-9扉体
6
CONTINUOUS
62
7
100
AcDbLine
10
3292.314000000000
20
4630.094000000000
30
0.0
11
3292.314000000000
21
4618.256000000000
31
0.0
0
LINE
5
4e3
100
AcDbEntity
8
0-9扉体
6
CONTINUOUS
62
2
100
AcDbLine
10
3313.324000000000
20
4617.094000000000
30
0.0
11
3313.324000000000
21
4603.294000000000
31
0.0
0
LINE
5
4e4
100
AcDbEntity
8
0-9扉体
6
CONTINUOUS
62
2
100
AcDbLine
10
3301.324000000000
20
4617.094000000000
30
0.0
11
3301.324000000000
21
4603.294000000000
31
0.0
0
LINE
5
4e5
100
AcDbEntity
8
0-9扉体
6
CONTINUOUS
62
6
100
AcDbLine
10
3387.226000000000
20
4667.280000000001
30
0.0
11
3369.310000000000
21
4685.196000000000
31
0.0
0
LINE
5
4e6
100
AcDbEntity
8
0-9扉体
6
CONTINUOUS
62
6
100
AcDbLine
10
3387.304000000000
20
4664.374000000000
30
0.0
11
3366.404000000000
21
4685.273999999999
31
0.0
0
LINE
5
4e7
100
AcDbEntity
8
0-9扉体
6
CONTINUOUS
62
6
100
AcDbLine
10
3352.644000000000
20
4645.294000000000
30
0.0
11
3336.644000000000
21
4661.294000000000
31
0.0
0
LINE
5
4e8
100
AcDbEntity
8
0-9扉体
6
CONTINUOUS
62
6
100
AcDbLine
10
3349.814000000000
20
4645.294000000000
30
0.0
11
3333.814000000000
21
4661.294000000000
31
0.0
0
LINE
5
4e9
100
AcDbEntity
8
0-9扉体
6
CONTINUOUS
62
6
100
AcDbLine
10
3324.358000000000
20
4645.294000000000
30
0.0
11
3308.360000000000
21
4661.294000000000
31
0.0
0
LINE
5
4ea
100
AcDbEntity
8
0-9扉体
6
CONTINUOUS
62
6
100
AcDbLine
10
3321.530000000000
20
4645.294000000000
30
0.0
11
3305.530000000000
21
4661.294000000000
31
0.0
0
LINE
5
4eb
100
AcDbEntity
8
0-9扉体
6
CONTINUOUS
62
6
100
AcDbLine
10
3296.074000000000
20
4645.294000000000
30
0.0
11
3280.074000000000
21
4661.294000000000
31
0.0
0
LINE
5
4ec
100
AcDbEntity
8
0-9扉体
6
CONTINUOUS
62
6
100
AcDbLine
10
3293.246000000000
20
4645.294000000000
30
0.0
11
3277.246000000000
21
4661.294000000000
31
0.0
0
LINE
5
4ed
100
AcDbEntity
8
0-9扉体
6
CONTINUOUS
62
6
100
AcDbLine
10
3267.790000000000
20
4645.294000000000
30
0.0
11
3267.326000000000
21
4645.760000000000
31
0.0
0
LINE
5
4ee
100
AcDbEntity
8
0-9扉体
6
CONTINUOUS
62
6
100
AcDbLine
10
3377.902000000000
20
4648.320000000000
30
0.0
11
3368.792000000000
21
4657.430000000000
31
0.0
0
LINE
5
4ef
100
AcDbEntity
8
0-9扉体
6
CONTINUOUS
62
6
100
AcDbLine
10
3359.460000000000
20
4666.762000000000
30
0.0
11
3350.350000000000
21
4675.871999999999
31
0.0
0
LINE
5
4f0
100
AcDbEntity
8
0-9扉体
6
CONTINUOUS
62
6
100
AcDbLine
10
3376.080000000000
20
4647.314000000000
30
0.0
11
3365.986000000000
21
4657.408000000000
31
0.0
0
LINE
5
4f1
100
AcDbEntity
8
0-9扉体
6
CONTINUOUS
62
6
100
AcDbLine
10
3359.438000000000
20
4663.956000000000
30
0.0
11
3349.342000000000
21
4674.050000000000
31
0.0
0
LINE
5
4f2
100
AcDbEntity
8
0-9扉体
6
CONTINUOUS
62
4
100
AcDbLine
10
3397.324000000000
20
4633.294000000000
30
0.0
11
3397.324000000000
21
4645.294000000000
31
0.0
0
LINE
5
4f3
100
AcDbEntity
8
0-5基準線
6
CENTER2
62
7
100
AcDbLine
10
2107.324000000000
20
4498.384000000000
30
0.0
11
2107.324000000000
21
4844.536000000000
31
0.0
0
LINE
5
4f4
100
AcDbEntity
8
0-8寸法
6
CONTINUOUS
62
4
100
AcDbLine
10
4283.770000000000
20
3070.376000000000
30
0.0
11
4680.228000000000
21
3070.376000000000
31
0.0
0
LINE
5
4f5
100
AcDbEntity
8
0-8寸法
6
CONTINUOUS
62
4
100
AcDbLine
10
4312.388000000000
20
3050.374000000000
30
0.0
11
4652.272000000000
21
3050.374000000000
31
0.0
0
LINE
5
4f6
100
AcDbEntity
8
0-8寸法
6
CONTINUOUS
62
4
100
AcDbLine
10
4349.172000000000
20
3030.376000000000
30
0.0
11
4611.074000000000
21
3030.376000000000
31
0.0
0
LINE
5
4f7
100
AcDbEntity
8
0-8寸法
6
CONTINUOUS
62
4
100
AcDbLine
10
4388.900000000000
20
3010.376000000000
30
0.0
11
4574.290000000000
21
3010.376000000000
31
0.0
0
LINE
5
4f8
100
AcDbEntity
8
0-8寸法
6
CONTINUOUS
62
4
100
AcDbLine
10
4425.684000000000
20
2990.376000000000
30
0.0
11
4531.620000000000
21
2990.376000000000
31
0.0
0
LINE
5
4f9
100
AcDbEntity
8
0-8寸法
6
CONTINUOUS
62
4
100
AcDbLine
10
4450.696000000000
20
2970.374000000000
30
0.0
11
4502.194000000000
21
2970.374000000000
31
0.0
0
LINE
5
4fa
100
AcDbEntity
8
0-8寸法
6
CONTINUOUS
62
4
100
AcDbLine
10
5082.188000000000
20
3470.376000000000
30
0.0
11
5043.550000000000
21
3480.728000000000
31
0.0
0
LINE
5
4fb
100
AcDbEntity
8
0-8寸法
6
CONTINUOUS
62
4
100
AcDbLine
10
5082.188000000000
20
3470.376000000000
30
0.0
11
5043.550000000000
21
3460.022000000000
31
0.0
0
LINE
5
4fc
100
AcDbEntity
8
0-8寸法
6
CONTINUOUS
62
4
100
AcDbLine
10
4144.188000000000
20
1270.376000000000
30
0.0
11
4144.188000000000
21
3070.376000000000
31
0.0
0
LINE
5
4fd
100
AcDbEntity
8
0-8寸法
6
CONTINUOUS
62
4
100
AcDbLine
10
4229.952000000000
20
3070.376000000000
30
0.0
11
4124.188000000000
21
3070.376000000000
31
0.0
0
LINE
5
4fe
100
AcDbEntity
8
0-8寸法
6
CONTINUOUS
62
4
100
AcDbLine
10
4144.188000000000
20
1270.376000000000
30
0.0
11
4133.836000000000
21
1309.012000000000
31
0.0
0
LINE
5
4ff
100
AcDbEntity
8
0-8寸法
6
CONTINUOUS
62
4
100
AcDbLine
10
4144.188000000000
20
1270.376000000000
30
0.0
11
4154.542000000000
21
1309.012000000000
31
0.0
0
LINE
5
500
100
AcDbEntity
8
0-8寸法
6
CONTINUOUS
62
4
100
AcDbLine
10
4144.188000000000
20
3070.376000000000
30
0.0
11
4133.836000000000
21
3031.738000000000
31
0.0
0
LINE
5
501
100
AcDbEntity
8
0-8寸法
6
CONTINUOUS
62
4
100
AcDbLine
10
4144.188000000000
20
3070.376000000000
30
0.0
11
4154.542000000000
21
3031.738000000000
31
0.0
0
LINE
5
502
100
AcDbEntity
8
0-8寸法
6
CONTINUOUS
62
4
100
AcDbLine
10
4960.446000000000
20
1270.376000000000
30
0.0
11
4124.188000000000
21
1270.376000000000
31
0.0
0
LINE
5
503
100
AcDbEntity
8
0-8寸法
6
CONTINUOUS
62
4
100
AcDbLine
10
3503.356000000000
20
4320.376000000000
30
0.0
11
4872.280000000000
21
4320.376000000000
31
0.0
0
LINE
5
504
100
AcDbEntity
8
0-8寸法
6
CONTINUOUS
62
4
100
AcDbLine
10
3503.356000000000
20
4120.376000000000
30
0.0
11
4872.280000000000
21
4120.376000000000
31
0.0
0
LINE
5
505
100
AcDbEntity
8
0-8寸法
6
CONTINUOUS
62
4
100
AcDbLine
10
3503.356000000000
20
3920.376000000000
30
0.0
11
4872.280000000000
21
3920.376000000000
31
0.0
0
LINE
5
506
100
AcDbEntity
8
0-8寸法
6
CONTINUOUS
62
4
100
AcDbLine
10
4904.188000000000
20
870.376000000000
30
0.0
11
4904.188000000000
21
670.376000000000
31
0.0
0
LINE
5
507
100
AcDbEntity
8
0-8寸法
6
CONTINUOUS
62
4
100
AcDbLine
10
1887.324000000000
20
5309.294000000000
30
0.0
11
3287.324000000000
21
5309.294000000000
31
0.0
0
LINE
5
508
100
AcDbEntity
8
0-8寸法
6
CONTINUOUS
62
4
100
AcDbLine
10
1887.324000000000
20
5309.294000000000
30
0.0
11
1925.962000000000
21
5319.646000000000
31
0.0
0
LINE
5
509
100
AcDbEntity
8
0-8寸法
6
CONTINUOUS
62
4
100
AcDbLine
10
1887.324000000000
20
5309.294000000000
30
0.0
11
1925.962000000000
21
5298.942000000000
31
0.0
0
LINE
5
50a
100
AcDbEntity
8
0-8寸法
6
CONTINUOUS
62
4
100
AcDbLine
10
3287.324000000000
20
5309.294000000000
30
0.0
11
3248.688000000000
21
5319.646000000000
31
0.0
0
LINE
5
50b
100
AcDbEntity
8
0-8寸法
6
CONTINUOUS
62
4
100
AcDbLine
10
3287.324000000000
20
5309.294000000000
30
0.0
11
3248.688000000000
21
5298.942000000000
31
0.0
0
LINE
5
50c
100
AcDbEntity
8
0-8寸法
6
CONTINUOUS
62
4
100
AcDbLine
10
3503.356000000000
20
3520.376000000000
30
0.0
11
4677.894000000000
21
3520.376000000000
31
0.0
0
LINE
5
50d
100
AcDbEntity
8
0-8寸法
6
CONTINUOUS
62
4
100
AcDbLine
10
3503.356000000000
20
3320.376000000000
30
0.0
11
4677.894000000000
21
3320.376000000000
31
0.0
0
LINE
5
50e
100
AcDbEntity
8
0-8寸法
6
CONTINUOUS
62
4
100
AcDbLine
10
5110.188000000000
20
2370.376000000000
30
0.0
11
5148.824000000000
21
2380.728000000000
31
0.0
0
LINE
5
50f
100
AcDbEntity
8
0-8寸法
6
CONTINUOUS
62
4
100
AcDbLine
10
5110.188000000000
20
2370.376000000000
30
0.0
11
5148.824000000000
21
2360.022000000000
31
0.0
0
LINE
5
510
100
AcDbEntity
8
0-8寸法
6
CONTINUOUS
62
4
100
AcDbLine
10
4977.188000000000
20
2370.376000000000
30
0.0
11
4938.550000000000
21
2380.728000000000
31
0.0
0
LINE
5
511
100
AcDbEntity
8
0-8寸法
6
CONTINUOUS
62
4
100
AcDbLine
10
4977.188000000000
20
2370.376000000000
30
0.0
11
4938.550000000000
21
2360.022000000000
31
0.0
0
LINE
5
512
100
AcDbEntity
8
0-8寸法
6
CONTINUOUS
62
4
100
AcDbLine
10
5098.188000000000
20
2370.376000000000
30
0.0
11
4722.012000000000
21
2370.376000000000
31
0.0
0
LINE
5
513
100
AcDbEntity
8
0-8寸法
6
CONTINUOUS
62
4
100
AcDbLine
10
3503.356000000000
20
4320.376000000000
30
0.0
11
3503.356000000000
21
3920.376000000000
31
0.0
0
LINE
5
514
100
AcDbEntity
8
0-8寸法
6
CONTINUOUS
62
4
100
AcDbLine
10
3503.356000000000
20
4320.376000000000
30
0.0
11
3355.398000000000
21
4655.376000000000
31
0.0
0
LINE
5
515
100
AcDbEntity
8
0-9扉体
6
CONTINUOUS
62
4
100
AcDbLine
10
4978.188000000000
20
2870.376000000000
30
0.0
11
5098.188000000000
21
2870.376000000000
31
0.0
0
LINE
5
516
100
AcDbEntity
8
0-9扉体
6
CONTINUOUS
62
4
100
AcDbLine
10
5098.188000000000
20
2880.376000000000
30
0.0
11
5098.188000000000
21
2197.856000000000
31
0.0
0
LINE
5
517
100
AcDbEntity
8
0-9扉体
6
CONTINUOUS
62
6
100
AcDbLine
10
5110.188000000000
20
2826.708000000000
30
0.0
11
5126.670000000000
21
2843.190000000000
31
0.0
0
LINE
5
518
100
AcDbEntity
8
0-9扉体
6
CONTINUOUS
62
4
100
AcDbLine
10
4988.188000000000
20
2888.376000000000
30
0.0
11
4988.188000000000
21
2870.376000000000
31
0.0
0
POLYLINE
5
519
100
AcDbEntity
8
0-9扉体
6
CONTINUOUS
62
  4
100
AcDb2dPolyline
66
1
10
0.0
20
0.0
30
0.0
70
0
0
VERTEX
5
51a
100
AcDbEntity
8
0-9扉体
6
CONTINUOUS
62
  4
100
AcDbVertex
100
AcDb2dVertex
10
4988.188000000000
20
2888.376000000000
30
0.0
0
VERTEX
5
51b
100
AcDbEntity
8
0-9扉体
6
CONTINUOUS
62
  4
100
AcDbVertex
100
AcDb2dVertex
10
5088.188000000000
20
2888.376000000000
30
0.0
0
VERTEX
5
51c
100
AcDbEntity
8
0-9扉体
6
CONTINUOUS
62
  4
100
AcDbVertex
100
AcDb2dVertex
10
5088.188000000000
20
2870.376000000000
30
0.0
0
SEQEND
5
51d
100
AcDbEntity
8
0-9扉体
0
LINE
5
51e
100
AcDbEntity
8
0-8寸法
6
CONTINUOUS
62
4
100
AcDbLine
10
4973.200000000000
20
2870.376000000000
30
0.0
11
4782.188000000000
21
2870.376000000000
31
0.0
0
LINE
5
51f
100
AcDbEntity
8
0-8寸法
6
CONTINUOUS
62
4
100
AcDbLine
10
4802.188000000000
20
2770.376000000000
30
0.0
11
4791.834000000000
21
2731.738000000000
31
0.0
0
LINE
5
520
100
AcDbEntity
8
0-8寸法
6
CONTINUOUS
62
4
100
AcDbLine
10
4802.188000000000
20
2770.376000000000
30
0.0
11
4812.540000000000
21
2731.738000000000
31
0.0
0
LINE
5
521
100
AcDbEntity
8
0-8寸法
6
CONTINUOUS
62
4
100
AcDbLine
10
4802.188000000000
20
2970.376000000000
30
0.0
11
4791.834000000000
21
3009.012000000000
31
0.0
0
LINE
5
522
100
AcDbEntity
8
0-8寸法
6
CONTINUOUS
62
4
100
AcDbLine
10
4802.188000000000
20
2970.376000000000
30
0.0
11
4812.540000000000
21
3009.012000000000
31
0.0
0
LINE
5
523
100
AcDbEntity
8
0-8寸法
6
CONTINUOUS
62
4
100
AcDbLine
10
5008.886000000000
20
2970.376000000000
30
0.0
11
4782.188000000000
21
2970.376000000000
31
0.0
0
POLYLINE
5
524
100
AcDbEntity
8
0-8寸法
6
CONTINUOUS
62
  4
100
AcDb2dPolyline
66
1
10
0.0
20
0.0
30
0.0
70
0
0
VERTEX
5
525
100
AcDbEntity
8
0-8寸法
6
CONTINUOUS
62
  4
100
AcDbVertex
100
AcDb2dVertex
10
4802.188000000000
20
2630.002000000000
30
0.0
0
VERTEX
5
526
100
AcDbEntity
8
0-8寸法
6
CONTINUOUS
62
  4
100
AcDbVertex
100
AcDb2dVertex
10
4802.188000000000
20
2870.376000000000
30
0.0
0
VERTEX
5
527
100
AcDbEntity
8
0-8寸法
6
CONTINUOUS
62
  4
100
AcDbVertex
100
AcDb2dVertex
10
4802.188000000000
20
3115.524000000000
30
0.0
0
SEQEND
5
528
100
AcDbEntity
8
0-8寸法
0
LINE
5
529
100
AcDbEntity
8
0-8寸法
6
CONTINUOUS
62
4
100
AcDbLine
10
4973.200000000000
20
2770.376000000000
30
0.0
11
4782.188000000000
21
2770.376000000000
31
0.0
0
LINE
5
52a
100
AcDbEntity
8
0-6戸当り
6
CONTINUOUS
62
6
100
AcDbLine
10
5150.188000000000
20
1170.376000000000
30
0.0
11
5174.188000000000
21
1170.376000000000
31
0.0
0
LINE
5
52b
100
AcDbEntity
8
0-6戸当り
6
CONTINUOUS
62
6
100
AcDbLine
10
5150.188000000000
20
3070.376000000000
30
0.0
11
5174.188000000000
21
3070.376000000000
31
0.0
0
LINE
5
52c
100
AcDbEntity
8
0-5基準線
6
CENTER2
62
7
100
AcDbLine
10
5038.188000000000
20
2942.804000000000
30
0.0
11
5038.188000000000
21
2831.830000000000
31
0.0
0
LINE
5
52d
100
AcDbEntity
8
0-6戸当り
6
CONTINUOUS
62
6
100
AcDbLine
10
3487.324000000000
20
1170.376000000000
30
0.0
11
1687.324000000000
21
1170.376000000000
31
0.0
0
LINE
5
52e
100
AcDbEntity
8
0-6戸当り
6
CONTINUOUS
62
6
100
AcDbLine
10
3487.324000000000
20
3070.376000000000
30
0.0
11
3487.324000000000
21
1170.376000000000
31
0.0
0
LINE
5
52f
100
AcDbEntity
8
0-6戸当り
6
CONTINUOUS
62
6
100
AcDbLine
10
1687.324000000000
20
3070.376000000000
30
0.0
11
3487.324000000000
21
3070.376000000000
31
0.0
0
LINE
5
530
100
AcDbEntity
8
0-6戸当り
6
CONTINUOUS
62
6
100
AcDbLine
10
1687.324000000000
20
1170.376000000000
30
0.0
11
1687.324000000000
21
3070.376000000000
31
0.0
0
LINE
5
531
100
AcDbEntity
8
0-6戸当り
6
CONTINUOUS
62
2
100
AcDbLine
10
5182.590000000000
20
1220.374000000000
30
0.0
11
5241.616000000000
21
1225.376000000000
31
0.0
0
LINE
5
532
100
AcDbEntity
8
0-6戸当り
6
CONTINUOUS
62
2
100
AcDbLine
10
5182.590000000000
20
1210.376000000000
30
0.0
11
5241.616000000000
21
1215.374000000000
31
0.0
0
LINE
5
533
100
AcDbEntity
8
0-6戸当り
6
CONTINUOUS
62
2
100
AcDbLine
10
5182.590000000000
20
1220.374000000000
30
0.0
11
5182.590000000000
21
1200.376000000000
31
0.0
0
LINE
5
534
100
AcDbEntity
8
0-6戸当り
6
CONTINUOUS
62
2
100
AcDbLine
10
5191.024000000000
20
1221.090000000000
30
0.0
11
5191.024000000000
21
1211.090000000000
31
0.0
0
LINE
5
535
100
AcDbEntity
8
0-6戸当り
6
CONTINUOUS
62
2
100
AcDbLine
10
5199.456000000000
20
1221.804000000000
30
0.0
11
5199.456000000000
21
1211.802000000000
31
0.0
0
LINE
5
536
100
AcDbEntity
8
0-6戸当り
6
CONTINUOUS
62
2
100
AcDbLine
10
5207.888000000000
20
1222.518000000000
30
0.0
11
5207.888000000000
21
1212.518000000000
31
0.0
0
LINE
5
537
100
AcDbEntity
8
0-6戸当り
6
CONTINUOUS
62
2
100
AcDbLine
10
5216.320000000000
20
1223.232000000000
30
0.0
11
5216.320000000000
21
1213.232000000000
31
0.0
0
LINE
5
538
100
AcDbEntity
8
0-6戸当り
6
CONTINUOUS
62
2
100
AcDbLine
10
5224.752000000000
20
1223.946000000000
30
0.0
11
5224.752000000000
21
1213.946000000000
31
0.0
0
LINE
5
539
100
AcDbEntity
8
0-6戸当り
6
CONTINUOUS
62
2
100
AcDbLine
10
5233.184000000000
20
1224.660000000000
30
0.0
11
5233.184000000000
21
1214.660000000000
31
0.0
0
POLYLINE
5
53a
100
AcDbEntity
8
0-6戸当り
6
CONTINUOUS
62
  2
100
AcDb2dPolyline
66
1
10
0.0
20
0.0
30
0.0
70
0
0
VERTEX
5
53b
100
AcDbEntity
8
0-6戸当り
6
CONTINUOUS
62
  2
100
AcDbVertex
100
AcDb2dVertex
10
5182.590000000000
20
1200.376000000000
30
0.0
0
VERTEX
5
53c
100
AcDbEntity
8
0-6戸当り
6
CONTINUOUS
62
  2
100
AcDbVertex
100
AcDb2dVertex
10
5241.616000000000
20
1195.374000000000
30
0.0
0
VERTEX
5
53d
100
AcDbEntity
8
0-6戸当り
6
CONTINUOUS
62
  2
100
AcDbVertex
100
AcDb2dVertex
10
5241.616000000000
20
1205.376000000000
30
0.0
0
SEQEND
5
53e
100
AcDbEntity
8
0-6戸当り
0
LINE
5
53f
100
AcDbEntity
8
0-6戸当り
6
CONTINUOUS
62
2
100
AcDbLine
10
5182.590000000000
20
1210.376000000000
30
0.0
11
5241.616000000000
21
1205.376000000000
31
0.0
0
LINE
5
540
100
AcDbEntity
8
0-6戸当り
6
CONTINUOUS
62
2
100
AcDbLine
10
5191.024000000000
20
1199.660000000000
30
0.0
11
5191.024000000000
21
1209.660000000000
31
0.0
0
LINE
5
541
100
AcDbEntity
8
0-6戸当り
6
CONTINUOUS
62
2
100
AcDbLine
10
5199.456000000000
20
1198.948000000000
30
0.0
11
5199.456000000000
21
1208.946000000000
31
0.0
0
LINE
5
542
100
AcDbEntity
8
0-6戸当り
6
CONTINUOUS
62
2
100
AcDbLine
10
5207.888000000000
20
1198.232000000000
30
0.0
11
5207.888000000000
21
1208.232000000000
31
0.0
0
LINE
5
543
100
AcDbEntity
8
0-6戸当り
6
CONTINUOUS
62
2
100
AcDbLine
10
5216.320000000000
20
1197.518000000000
30
0.0
11
5216.320000000000
21
1207.518000000000
31
0.0
0
LINE
5
544
100
AcDbEntity
8
0-6戸当り
6
CONTINUOUS
62
2
100
AcDbLine
10
5224.752000000000
20
1196.804000000000
30
0.0
11
5224.752000000000
21
1206.804000000000
31
0.0
0
LINE
5
545
100
AcDbEntity
8
0-6戸当り
6
CONTINUOUS
62
2
100
AcDbLine
10
5233.184000000000
20
1196.088000000000
30
0.0
11
5233.184000000000
21
1206.090000000000
31
0.0
0
LINE
5
546
100
AcDbEntity
8
0-6戸当り
6
CONTINUOUS
62
3
100
AcDbLine
10
5146.986000000000
20
1232.374000000000
30
0.0
11
5150.188000000000
21
1232.374000000000
31
0.0
0
LINE
5
547
100
AcDbEntity
8
0-6戸当り
6
CONTINUOUS
62
3
100
AcDbLine
10
5146.986000000000
20
1188.374000000000
30
0.0
11
5150.188000000000
21
1188.374000000000
31
0.0
0
LINE
5
548
100
AcDbEntity
8
0-6戸当り
6
CONTINUOUS
62
7
100
AcDbLine
10
5130.988000000000
20
1227.374000000000
30
0.0
11
5132.505999999999
21
1230.006000000000
31
0.0
0
POLYLINE
5
549
100
AcDbEntity
8
0-6戸当り
6
CONTINUOUS
62
  7
100
AcDb2dPolyline
66
1
10
0.0
20
0.0
30
0.0
70
0
0
VERTEX
5
54a
100
AcDbEntity
8
0-6戸当り
6
CONTINUOUS
62
  7
100
AcDbVertex
100
AcDb2dVertex
10
5130.988000000000
20
1227.374000000000
30
0.0
0
VERTEX
5
54b
100
AcDbEntity
8
0-6戸当り
6
CONTINUOUS
62
  7
100
AcDbVertex
100
AcDb2dVertex
10
5130.988000000000
20
1193.374000000000
30
0.0
0
VERTEX
5
54c
100
AcDbEntity
8
0-6戸当り
6
CONTINUOUS
62
  7
100
AcDbVertex
100
AcDb2dVertex
10
5132.505999999999
20
1190.744000000000
30
0.0
0
SEQEND
5
54d
100
AcDbEntity
8
0-6戸当り
0
LINE
5
54e
100
AcDbEntity
8
0-6戸当り
6
CONTINUOUS
62
7
100
AcDbLine
10
5146.986000000000
20
1190.744000000000
30
0.0
11
5132.505999999999
21
1190.744000000000
31
0.0
0
LINE
5
54f
100
AcDbEntity
8
0-6戸当り
6
CONTINUOUS
62
7
100
AcDbLine
10
5146.986000000000
20
1220.190000000000
30
0.0
11
5132.505999999999
21
1220.190000000000
31
0.0
0
LINE
5
550
100
AcDbEntity
8
0-6戸当り
6
CONTINUOUS
62
7
100
AcDbLine
10
5146.986000000000
20
1200.560000000000
30
0.0
11
5132.505999999999
21
1200.560000000000
31
0.0
0
LINE
5
551
100
AcDbEntity
8
0-6戸当り
6
CONTINUOUS
62
7
100
AcDbLine
10
5146.986000000000
20
1230.006000000000
30
0.0
11
5132.505999999999
21
1230.006000000000
31
0.0
0
LINE
5
552
100
AcDbEntity
8
0-6戸当り
6
CONTINUOUS
62
3
100
AcDbLine
10
5146.986000000000
20
1188.374000000000
30
0.0
11
5146.986000000000
21
1232.374000000000
31
0.0
0
LINE
5
553
100
AcDbEntity
8
0-6戸当り
6
CONTINUOUS
62
3
100
AcDbLine
10
5130.988000000000
20
1200.374000000000
30
0.0
11
5121.616000000000
21
1200.374000000000
31
0.0
0
LINE
5
554
100
AcDbEntity
8
0-6戸当り
6
CONTINUOUS
62
3
100
AcDbLine
10
5130.988000000000
20
1220.376000000000
30
0.0
11
5121.616000000000
21
1220.376000000000
31
0.0
0
LINE
5
555
100
AcDbEntity
8
0-6戸当り
6
CONTINUOUS
62
4
100
AcDbLine
10
5130.988000000000
20
1202.376000000000
30
0.0
11
5121.154000000001
21
1202.376000000000
31
0.0
0
LINE
5
556
100
AcDbEntity
8
0-6戸当り
6
CONTINUOUS
62
4
100
AcDbLine
10
5130.988000000000
20
1218.374000000000
30
0.0
11
5121.154000000001
21
1218.374000000000
31
0.0
0
LINE
5
557
100
AcDbEntity
8
0-6戸当り
6
CONTINUOUS
62
3
100
AcDbLine
10
5121.616000000000
20
1200.374000000000
30
0.0
11
5121.616000000000
21
1220.376000000000
31
0.0
0
LINE
5
558
100
AcDbEntity
8
0-6戸当り
6
CONTINUOUS
62
2
100
AcDbLine
10
5241.616000000000
20
1225.376000000000
30
0.0
11
5241.616000000000
21
1215.374000000000
31
0.0
0
LINE
5
559
100
AcDbEntity
8
0-6戸当り
6
CONTINUOUS
62
2
100
AcDbLine
10
5174.188000000000
20
1220.374000000000
30
0.0
11
5182.590000000000
21
1220.374000000000
31
0.0
0
LINE
5
55a
100
AcDbEntity
8
0-6戸当り
6
CONTINUOUS
62
2
100
AcDbLine
10
5174.188000000000
20
1200.376000000000
30
0.0
11
5182.590000000000
21
1200.376000000000
31
0.0
0
LINE
5
55b
100
AcDbEntity
8
0-5基準線
6
CENTER2
62
7
100
AcDbLine
10
5113.842000000000
20
1210.376000000000
30
0.0
11
5251.754000000000
21
1210.376000000000
31
0.0
0
LINE
5
55c
100
AcDbEntity
8
0-6戸当り
6
CONTINUOUS
62
3
100
AcDbLine
10
3447.324000000000
20
1229.974000000000
30
0.0
11
3430.350000000000
21
1220.174000000000
31
0.0
0
LINE
5
55d
100
AcDbEntity
8
0-6戸当り
6
CONTINUOUS
62
3
100
AcDbLine
10
3447.324000000000
20
1190.774000000000
30
0.0
11
3430.350000000000
21
1200.574000000000
31
0.0
0
LINE
5
55e
100
AcDbEntity
8
0-6戸当り
6
CONTINUOUS
62
3
100
AcDbLine
10
3430.350000000000
20
1220.174000000000
30
0.0
11
3430.350000000000
21
1200.574000000000
31
0.0
0
LINE
5
55f
100
AcDbEntity
8
0-6戸当り
6
CONTINUOUS
62
3
100
AcDbLine
10
3447.324000000000
20
1190.774000000000
30
0.0
11
3464.298000000000
21
1200.574000000000
31
0.0
0
LINE
5
560
100
AcDbEntity
8
0-6戸当り
6
CONTINUOUS
62
3
100
AcDbLine
10
3447.324000000000
20
1229.974000000000
30
0.0
11
3464.298000000000
21
1220.174000000000
31
0.0
0
LINE
5
561
100
AcDbEntity
8
0-6戸当り
6
CONTINUOUS
62
3
100
AcDbLine
10
3464.298000000000
20
1200.574000000000
30
0.0
11
3464.298000000000
21
1220.174000000000
31
0.0
0
LINE
5
562
100
AcDbEntity
8
0-5基準線
6
CENTER2
62
7
100
AcDbLine
10
3447.324000000000
20
1180.374000000000
30
0.0
11
3447.324000000000
21
1240.374000000000
31
0.0
0
LINE
5
563
100
AcDbEntity
8
0-5基準線
6
CENTER2
62
7
100
AcDbLine
10
3417.324000000000
20
1210.374000000000
30
0.0
11
3477.324000000000
21
1210.374000000000
31
0.0
0
LINE
5
564
100
AcDbEntity
8
0-6戸当り
6
CONTINUOUS
62
3
100
AcDbLine
10
1727.324000000000
20
1229.974000000000
30
0.0
11
1744.298000000000
21
1220.174000000000
31
0.0
0
LINE
5
565
100
AcDbEntity
8
0-6戸当り
6
CONTINUOUS
62
3
100
AcDbLine
10
1727.324000000000
20
1190.774000000000
30
0.0
11
1744.298000000000
21
1200.574000000000
31
0.0
0
LINE
5
566
100
AcDbEntity
8
0-6戸当り
6
CONTINUOUS
62
3
100
AcDbLine
10
1744.298000000000
20
1220.174000000000
30
0.0
11
1744.298000000000
21
1200.574000000000
31
0.0
0
LINE
5
567
100
AcDbEntity
8
0-6戸当り
6
CONTINUOUS
62
3
100
AcDbLine
10
1727.324000000000
20
1190.774000000000
30
0.0
11
1710.350000000000
21
1200.574000000000
31
0.0
0
LINE
5
568
100
AcDbEntity
8
0-6戸当り
6
CONTINUOUS
62
3
100
AcDbLine
10
1727.324000000000
20
1229.974000000000
30
0.0
11
1710.350000000000
21
1220.174000000000
31
0.0
0
LINE
5
569
100
AcDbEntity
8
0-6戸当り
6
CONTINUOUS
62
3
100
AcDbLine
10
1710.350000000000
20
1200.574000000000
30
0.0
11
1710.350000000000
21
1220.174000000000
31
0.0
0
LINE
5
56a
100
AcDbEntity
8
0-5基準線
6
CENTER2
62
7
100
AcDbLine
10
1727.324000000000
20
1180.374000000000
30
0.0
11
1727.324000000000
21
1240.374000000000
31
0.0
0
LINE
5
56b
100
AcDbEntity
8
0-5基準線
6
CENTER2
62
7
100
AcDbLine
10
1757.324000000000
20
1210.374000000000
30
0.0
11
1697.324000000000
21
1210.374000000000
31
0.0
0
LINE
5
56c
100
AcDbEntity
8
0-8寸法
6
CONTINUOUS
62
4
100
AcDbLine
10
3487.324000000000
20
670.376000000000
30
0.0
11
3525.962000000000
21
680.728000000000
31
0.0
0
LINE
5
56d
100
AcDbEntity
8
0-8寸法
6
CONTINUOUS
62
4
100
AcDbLine
10
3487.324000000000
20
670.376000000000
30
0.0
11
3525.962000000000
21
660.022000000000
31
0.0
0
LINE
5
56e
100
AcDbEntity
8
0-8寸法
6
CONTINUOUS
62
4
100
AcDbLine
10
1687.324000000000
20
470.376000000000
30
0.0
11
3487.324000000000
21
470.376000000000
31
0.0
0
LINE
5
56f
100
AcDbEntity
8
0-8寸法
6
CONTINUOUS
62
4
100
AcDbLine
10
1687.324000000000
20
470.376000000000
30
0.0
11
1725.962000000000
21
480.728000000000
31
0.0
0
LINE
5
570
100
AcDbEntity
8
0-8寸法
6
CONTINUOUS
62
4
100
AcDbLine
10
1687.324000000000
20
470.376000000000
30
0.0
11
1725.962000000000
21
460.022000000000
31
0.0
0
LINE
5
571
100
AcDbEntity
8
0-8寸法
6
CONTINUOUS
62
4
100
AcDbLine
10
3487.324000000000
20
470.376000000000
30
0.0
11
3448.688000000000
21
480.728000000000
31
0.0
0
LINE
5
572
100
AcDbEntity
8
0-8寸法
6
CONTINUOUS
62
4
100
AcDbLine
10
3487.324000000000
20
470.376000000000
30
0.0
11
3448.688000000000
21
460.022000000000
31
0.0
0
LINE
5
573
100
AcDbEntity
8
0-8寸法
6
CONTINUOUS
62
4
100
AcDbLine
10
3447.324000000000
20
670.376000000000
30
0.0
11
3637.616000000000
21
670.376000000000
31
0.0
0
LINE
5
574
100
AcDbEntity
8
0-8寸法
6
CONTINUOUS
62
4
100
AcDbLine
10
1687.324000000000
20
1147.916000000000
30
0.0
11
1687.324000000000
21
450.376000000000
31
0.0
0
LINE
5
575
100
AcDbEntity
8
0-8寸法
6
CONTINUOUS
62
4
100
AcDbLine
10
3487.324000000000
20
1147.916000000000
30
0.0
11
3487.324000000000
21
450.376000000000
31
0.0
0
LINE
5
576
100
AcDbEntity
8
0-8寸法
6
CONTINUOUS
62
4
100
AcDbLine
10
1687.324000000000
20
670.376000000000
30
0.0
11
1648.688000000000
21
680.728000000000
31
0.0
0
LINE
5
577
100
AcDbEntity
8
0-8寸法
6
CONTINUOUS
62
4
100
AcDbLine
10
1687.324000000000
20
670.376000000000
30
0.0
11
1648.688000000000
21
660.022000000000
31
0.0
0
LINE
5
578
100
AcDbEntity
8
0-8寸法
6
CONTINUOUS
62
4
100
AcDbLine
10
1727.324000000000
20
670.376000000000
30
0.0
11
1537.032000000000
21
670.376000000000
31
0.0
0
LINE
5
579
100
AcDbEntity
8
0-5基準線
6
CENTER2
62
7
100
AcDbLine
10
2107.324000000000
20
3056.274000000000
30
0.0
11
2107.324000000000
21
2847.448000000000
31
0.0
0
LINE
5
57a
100
AcDbEntity
8
0-5基準線
6
CENTER2
62
7
100
AcDbLine
10
1957.324000000000
20
3064.376000000000
30
0.0
11
1957.324000000000
21
2996.376000000000
31
0.0
0
LINE
5
57b
100
AcDbEntity
8
0-5基準線
6
CENTER2
62
7
100
AcDbLine
10
1991.324000000000
20
3030.376000000000
30
0.0
11
1923.324000000000
21
3030.376000000000
31
0.0
0
LINE
5
57c
100
AcDbEntity
8
0-6戸当り
6
CONTINUOUS
62
7
100
AcDbLine
10
2238.324000000000
20
3041.344000000000
30
0.0
11
2257.324000000000
21
3052.314000000000
31
0.0
0
LINE
5
57d
100
AcDbEntity
8
0-6戸当り
6
CONTINUOUS
62
7
100
AcDbLine
10
2238.324000000000
20
3041.344000000000
30
0.0
11
2238.324000000000
21
3019.406000000000
31
0.0
0
LINE
5
57e
100
AcDbEntity
8
0-6戸当り
6
CONTINUOUS
62
7
100
AcDbLine
10
2257.324000000000
20
3008.436000000000
30
0.0
11
2238.324000000000
21
3019.406000000000
31
0.0
0
POLYLINE
5
57f
100
AcDbEntity
8
0-6戸当り
6
CONTINUOUS
62
  7
100
AcDb2dPolyline
66
1
10
0.0
20
0.0
30
0.0
70
0
0
VERTEX
5
580
100
AcDbEntity
8
0-6戸当り
6
CONTINUOUS
62
  7
100
AcDbVertex
100
AcDb2dVertex
10
2257.324000000000
20
3008.436000000000
30
0.0
0
VERTEX
5
581
100
AcDbEntity
8
0-6戸当り
6
CONTINUOUS
62
  7
100
AcDbVertex
100
AcDb2dVertex
10
2276.324000000000
20
3019.406000000000
30
0.0
0
VERTEX
5
582
100
AcDbEntity
8
0-6戸当り
6
CONTINUOUS
62
  7
100
AcDbVertex
100
AcDb2dVertex
10
2276.324000000000
20
3041.344000000000
30
0.0
0
VERTEX
5
583
100
AcDbEntity
8
0-6戸当り
6
CONTINUOUS
62
  7
100
AcDbVertex
100
AcDb2dVertex
10
2257.324000000000
20
3052.314000000000
30
0.0
0
SEQEND
5
584
100
AcDbEntity
8
0-6戸当り
0
LINE
5
585
100
AcDbEntity
8
0-5基準線
6
CENTER2
62
7
100
AcDbLine
10
2257.324000000000
20
3064.376000000000
30
0.0
11
2257.324000000000
21
2996.376000000000
31
0.0
0
LINE
5
586
100
AcDbEntity
8
0-5基準線
6
CENTER2
62
7
100
AcDbLine
10
2223.324000000000
20
3030.376000000000
30
0.0
11
2291.324000000000
21
3030.376000000000
31
0.0
0
LINE
5
587
100
AcDbEntity
8
0-6戸当り
6
CONTINUOUS
62
7
100
AcDbLine
10
3198.324000000000
20
3041.344000000000
30
0.0
11
3217.324000000000
21
3052.314000000000
31
0.0
0
LINE
5
588
100
AcDbEntity
8
0-6戸当り
6
CONTINUOUS
62
7
100
AcDbLine
10
3198.324000000000
20
3041.344000000000
30
0.0
11
3198.324000000000
21
3019.406000000000
31
0.0
0
LINE
5
589
100
AcDbEntity
8
0-6戸当り
6
CONTINUOUS
62
7
100
AcDbLine
10
3217.324000000000
20
3008.436000000000
30
0.0
11
3198.324000000000
21
3019.406000000000
31
0.0
0
POLYLINE
5
58a
100
AcDbEntity
8
0-6戸当り
6
CONTINUOUS
62
  7
100
AcDb2dPolyline
66
1
10
0.0
20
0.0
30
0.0
70
0
0
VERTEX
5
58b
100
AcDbEntity
8
0-6戸当り
6
CONTINUOUS
62
  7
100
AcDbVertex
100
AcDb2dVertex
10
3217.324000000000
20
3008.436000000000
30
0.0
0
VERTEX
5
58c
100
AcDbEntity
8
0-6戸当り
6
CONTINUOUS
62
  7
100
AcDbVertex
100
AcDb2dVertex
10
3236.324000000000
20
3019.406000000000
30
0.0
0
VERTEX
5
58d
100
AcDbEntity
8
0-6戸当り
6
CONTINUOUS
62
  7
100
AcDbVertex
100
AcDb2dVertex
10
3236.324000000000
20
3041.344000000000
30
0.0
0
VERTEX
5
58e
100
AcDbEntity
8
0-6戸当り
6
CONTINUOUS
62
  7
100
AcDbVertex
100
AcDb2dVertex
10
3217.324000000000
20
3052.314000000000
30
0.0
0
SEQEND
5
58f
100
AcDbEntity
8
0-6戸当り
0
LINE
5
590
100
AcDbEntity
8
0-5基準線
6
CENTER2
62
7
100
AcDbLine
10
3217.324000000000
20
3064.376000000000
30
0.0
11
3217.324000000000
21
2996.376000000000
31
0.0
0
LINE
5
591
100
AcDbEntity
8
0-5基準線
6
CENTER2
62
7
100
AcDbLine
10
3183.324000000000
20
3030.376000000000
30
0.0
11
3251.324000000000
21
3030.376000000000
31
0.0
0
LINE
5
592
100
AcDbEntity
8
0-6戸当り
6
CONTINUOUS
62
7
100
AcDbLine
10
2936.324000000000
20
3041.344000000000
30
0.0
11
2917.324000000000
21
3052.314000000000
31
0.0
0
LINE
5
593
100
AcDbEntity
8
0-6戸当り
6
CONTINUOUS
62
7
100
AcDbLine
10
2936.324000000000
20
3041.344000000000
30
0.0
11
2936.324000000000
21
3019.406000000000
31
0.0
0
LINE
5
594
100
AcDbEntity
8
0-6戸当り
6
CONTINUOUS
62
7
100
AcDbLine
10
2917.324000000000
20
3008.436000000000
30
0.0
11
2936.324000000000
21
3019.406000000000
31
0.0
0
POLYLINE
5
595
100
AcDbEntity
8
0-6戸当り
6
CONTINUOUS
62
  7
100
AcDb2dPolyline
66
1
10
0.0
20
0.0
30
0.0
70
0
0
VERTEX
5
596
100
AcDbEntity
8
0-6戸当り
6
CONTINUOUS
62
  7
100
AcDbVertex
100
AcDb2dVertex
10
2917.324000000000
20
3008.436000000000
30
0.0
0
VERTEX
5
597
100
AcDbEntity
8
0-6戸当り
6
CONTINUOUS
62
  7
100
AcDbVertex
100
AcDb2dVertex
10
2898.324000000000
20
3019.406000000000
30
0.0
0
VERTEX
5
598
100
AcDbEntity
8
0-6戸当り
6
CONTINUOUS
62
  7
100
AcDbVertex
100
AcDb2dVertex
10
2898.324000000000
20
3041.344000000000
30
0.0
0
VERTEX
5
599
100
AcDbEntity
8
0-6戸当り
6
CONTINUOUS
62
  7
100
AcDbVertex
100
AcDb2dVertex
10
2917.324000000000
20
3052.314000000000
30
0.0
0
SEQEND
5
59a
100
AcDbEntity
8
0-6戸当り
0
LINE
5
59b
100
AcDbEntity
8
0-5基準線
6
CENTER2
62
7
100
AcDbLine
10
2917.324000000000
20
3064.376000000000
30
0.0
11
2917.324000000000
21
2996.376000000000
31
0.0
0
LINE
5
59c
100
AcDbEntity
8
0-5基準線
6
CENTER2
62
7
100
AcDbLine
10
2951.324000000000
20
3030.376000000000
30
0.0
11
2883.324000000000
21
3030.376000000000
31
0.0
0
LINE
5
59d
100
AcDbEntity
8
0-8寸法
6
CONTINUOUS
62
4
100
AcDbLine
10
1187.324000000000
20
1170.376000000000
30
0.0
11
1176.972000000000
21
1131.738000000000
31
0.0
0
LINE
5
59e
100
AcDbEntity
8
0-8寸法
6
CONTINUOUS
62
4
100
AcDbLine
10
1187.324000000000
20
1170.376000000000
30
0.0
11
1197.676000000000
21
1131.738000000000
31
0.0
0
LINE
5
59f
100
AcDbEntity
8
0-8寸法
6
CONTINUOUS
62
4
100
AcDbLine
10
1187.324000000000
20
1210.374000000000
30
0.0
11
1187.324000000000
21
1020.084000000000
31
0.0
0
LINE
5
5a0
100
AcDbEntity
8
0-8寸法
6
CONTINUOUS
62
4
100
AcDbLine
10
987.324000000000
20
1170.376000000000
30
0.0
11
987.324000000000
21
3070.376000000000
31
0.0
0
LINE
5
5a1
100
AcDbEntity
8
0-8寸法
6
CONTINUOUS
62
4
100
AcDbLine
10
987.324000000000
20
1170.376000000000
30
0.0
11
976.972000000000
21
1209.012000000000
31
0.0
0
LINE
5
5a2
100
AcDbEntity
8
0-8寸法
6
CONTINUOUS
62
4
100
AcDbLine
10
987.324000000000
20
1170.376000000000
30
0.0
11
997.678000000000
21
1209.012000000000
31
0.0
0
LINE
5
5a3
100
AcDbEntity
8
0-8寸法
6
CONTINUOUS
62
4
100
AcDbLine
10
987.324000000000
20
3070.376000000000
30
0.0
11
976.972000000000
21
3031.738000000000
31
0.0
0
LINE
5
5a4
100
AcDbEntity
8
0-8寸法
6
CONTINUOUS
62
4
100
AcDbLine
10
987.324000000000
20
3070.376000000000
30
0.0
11
997.678000000000
21
3031.738000000000
31
0.0
0
LINE
5
5a5
100
AcDbEntity
8
0-6戸当り
6
CONTINUOUS
62
3
100
AcDbLine
10
5145.388000000000
20
3004.376000000000
30
0.0
11
5145.388000000000
21
3056.376000000000
31
0.0
0
LINE
5
5a6
100
AcDbEntity
8
0-6戸当り
6
CONTINUOUS
62
2
100
AcDbLine
10
5145.388000000000
20
3004.376000000000
30
0.0
11
5150.188000000000
21
3004.376000000000
31
0.0
0
LINE
5
5a7
100
AcDbEntity
8
0-6戸当り
6
CONTINUOUS
62
2
100
AcDbLine
10
5145.388000000000
20
3056.376000000000
30
0.0
11
5150.188000000000
21
3056.376000000000
31
0.0
0
LINE
5
5a8
100
AcDbEntity
8
0-8寸法
6
CONTINUOUS
62
4
100
AcDbLine
10
5082.188000000000
20
3045.430000000000
30
0.0
11
5082.188000000000
21
3490.376000000000
31
0.0
0
LINE
5
5a9
100
AcDbEntity
8
0-8寸法
6
CONTINUOUS
62
4
100
AcDbLine
10
5174.188000000000
20
3470.376000000000
30
0.0
11
5212.824000000000
21
3480.728000000000
31
0.0
0
LINE
5
5aa
100
AcDbEntity
8
0-8寸法
6
CONTINUOUS
62
4
100
AcDbLine
10
5174.188000000000
20
3470.376000000000
30
0.0
11
5212.824000000000
21
3460.022000000000
31
0.0
0
LINE
5
5ab
100
AcDbEntity
8
0-8寸法
6
CONTINUOUS
62
4
100
AcDbLine
10
5349.690000000001
20
3470.376000000000
30
0.0
11
5150.188000000000
21
3470.376000000000
31
0.0
0
LINE
5
5ac
100
AcDbEntity
8
0-8寸法
6
CONTINUOUS
62
4
100
AcDbLine
10
5150.188000000000
20
3082.002000000000
30
0.0
11
5150.188000000000
21
3490.376000000000
31
0.0
0
LINE
5
5ad
100
AcDbEntity
8
0-8寸法
6
CONTINUOUS
62
4
100
AcDbLine
10
5174.188000000000
20
3286.026000000000
30
0.0
11
5174.188000000000
21
3490.376000000000
31
0.0
0
LINE
5
5ae
100
AcDbEntity
8
0-8寸法
6
CONTINUOUS
62
4
100
AcDbLine
10
5774.188000000000
20
1170.376000000000
30
0.0
11
5774.188000000000
21
1370.376000000000
31
0.0
0
LINE
5
5af
100
AcDbEntity
8
0-8寸法
6
CONTINUOUS
62
4
100
AcDbLine
10
5774.188000000000
20
1170.376000000000
30
0.0
11
5763.834000000000
21
1209.012000000000
31
0.0
0
LINE
5
5b0
100
AcDbEntity
8
0-8寸法
6
CONTINUOUS
62
4
100
AcDbLine
10
5774.188000000000
20
1170.376000000000
30
0.0
11
5784.540000000000
21
1209.012000000000
31
0.0
0
LINE
5
5b1
100
AcDbEntity
8
0-8寸法
6
CONTINUOUS
62
4
100
AcDbLine
10
5774.188000000000
20
1370.376000000000
30
0.0
11
5763.834000000000
21
1331.740000000000
31
0.0
0
LINE
5
5b2
100
AcDbEntity
8
0-8寸法
6
CONTINUOUS
62
4
100
AcDbLine
10
5774.188000000000
20
1370.376000000000
30
0.0
11
5784.540000000000
21
1331.740000000000
31
0.0
0
LINE
5
5b3
100
AcDbEntity
8
0-8寸法
6
CONTINUOUS
62
4
100
AcDbLine
10
5774.188000000000
20
2770.376000000000
30
0.0
11
5774.188000000000
21
3070.376000000000
31
0.0
0
LINE
5
5b4
100
AcDbEntity
8
0-8寸法
6
CONTINUOUS
62
4
100
AcDbLine
10
5774.188000000000
20
2770.376000000000
30
0.0
11
5763.834000000000
21
2809.012000000000
31
0.0
0
LINE
5
5b5
100
AcDbEntity
8
0-8寸法
6
CONTINUOUS
62
4
100
AcDbLine
10
5774.188000000000
20
2770.376000000000
30
0.0
11
5784.540000000000
21
2809.012000000000
31
0.0
0
LINE
5
5b6
100
AcDbEntity
8
0-8寸法
6
CONTINUOUS
62
4
100
AcDbLine
10
5774.188000000000
20
3070.376000000000
30
0.0
11
5763.834000000000
21
3031.738000000000
31
0.0
0
LINE
5
5b7
100
AcDbEntity
8
0-8寸法
6
CONTINUOUS
62
4
100
AcDbLine
10
5774.188000000000
20
3070.376000000000
30
0.0
11
5784.540000000000
21
3031.738000000000
31
0.0
0
LINE
5
5b8
100
AcDbEntity
8
0-8寸法
6
CONTINUOUS
62
4
100
AcDbLine
10
5183.546000000000
20
3070.376000000000
30
0.0
11
5794.188000000000
21
3070.376000000000
31
0.0
0
LINE
5
5b9
100
AcDbEntity
8
0-8寸法
6
CONTINUOUS
62
4
100
AcDbLine
10
5183.546000000000
20
1170.376000000000
30
0.0
11
5794.188000000000
21
1170.376000000000
31
0.0
0
LINE
5
5ba
100
AcDbEntity
8
0-8寸法
6
CONTINUOUS
62
4
100
AcDbLine
10
5150.188000000000
20
2170.376000000000
30
0.0
11
5188.824000000000
21
2180.728000000000
31
0.0
0
LINE
5
5bb
100
AcDbEntity
8
0-8寸法
6
CONTINUOUS
62
4
100
AcDbLine
10
5150.188000000000
20
2170.376000000000
30
0.0
11
5188.824000000000
21
2160.022000000000
31
0.0
0
LINE
5
5bc
100
AcDbEntity
8
0-8寸法
6
CONTINUOUS
62
4
100
AcDbLine
10
5110.188000000000
20
2170.376000000000
30
0.0
11
5071.550000000000
21
2180.728000000000
31
0.0
0
LINE
5
5bd
100
AcDbEntity
8
0-8寸法
6
CONTINUOUS
62
4
100
AcDbLine
10
5110.188000000000
20
2170.376000000000
30
0.0
11
5071.550000000000
21
2160.022000000000
31
0.0
0
LINE
5
5be
100
AcDbEntity
8
0-3RC
6
CONTINUOUS
62
6
100
AcDbLine
10
5174.188000000000
20
2152.230000000000
30
0.0
11
5174.188000000000
21
970.376000000000
31
0.0
0
LINE
5
5bf
100
AcDbEntity
8
0-6戸当り
6
CONTINUOUS
62
6
100
AcDbLine
10
5150.188000000000
20
2338.908000000000
30
0.0
11
5150.188000000000
21
1170.376000000000
31
0.0
0
LINE
5
5c0
100
AcDbEntity
8
0-3RC
6
CONTINUOUS
62
6
100
AcDbLine
10
5174.188000000000
20
3270.374000000000
30
0.0
11
5174.188000000000
21
2197.856000000000
31
0.0
0
LINE
5
5c1
100
AcDbEntity
8
0-6戸当り
6
CONTINUOUS
62
6
100
AcDbLine
10
5150.188000000000
20
3070.376000000000
30
0.0
11
5150.188000000000
21
2404.010000000000
31
0.0
0
LINE
5
5c2
100
AcDbEntity
8
0-8寸法
6
CONTINUOUS
62
4
100
AcDbLine
10
3817.544000000000
20
470.376000000000
30
0.0
11
4904.188000000000
21
470.376000000000
31
0.0
0
LINE
5
5c3
100
AcDbEntity
8
0-8寸法
6
CONTINUOUS
62
4
100
AcDbLine
10
1957.324000000000
20
3320.376000000000
30
0.0
11
2257.324000000000
21
3320.376000000000
31
0.0
0
LINE
5
5c4
100
AcDbEntity
8
0-8寸法
6
CONTINUOUS
62
4
100
AcDbLine
10
1957.324000000000
20
3088.914000000000
30
0.0
11
1957.324000000000
21
3340.376000000000
31
0.0
0
LINE
5
5c5
100
AcDbEntity
8
0-8寸法
6
CONTINUOUS
62
4
100
AcDbLine
10
2257.324000000000
20
3088.914000000000
30
0.0
11
2257.324000000000
21
3340.376000000000
31
0.0
0
LINE
5
5c6
100
AcDbEntity
8
0-8寸法
6
CONTINUOUS
62
4
100
AcDbLine
10
1957.324000000000
20
3320.376000000000
30
0.0
11
1995.962000000000
21
3330.728000000000
31
0.0
0
LINE
5
5c7
100
AcDbEntity
8
0-8寸法
6
CONTINUOUS
62
4
100
AcDbLine
10
1957.324000000000
20
3320.376000000000
30
0.0
11
1995.962000000000
21
3310.022000000000
31
0.0
0
LINE
5
5c8
100
AcDbEntity
8
0-8寸法
6
CONTINUOUS
62
4
100
AcDbLine
10
2257.324000000000
20
3320.376000000000
30
0.0
11
2218.686000000000
21
3330.728000000000
31
0.0
0
LINE
5
5c9
100
AcDbEntity
8
0-8寸法
6
CONTINUOUS
62
4
100
AcDbLine
10
2257.324000000000
20
3320.376000000000
30
0.0
11
2218.686000000000
21
3310.022000000000
31
0.0
0
LINE
5
5ca
100
AcDbEntity
8
0-8寸法
6
CONTINUOUS
62
4
100
AcDbLine
10
2107.324000000000
20
3088.914000000000
30
0.0
11
2107.324000000000
21
3295.968000000000
31
0.0
0
LINE
5
5cb
100
AcDbEntity
8
0-8寸法
6
CONTINUOUS
62
4
100
AcDbLine
10
2107.324000000000
20
3440.678000000000
30
0.0
11
2107.324000000000
21
3540.376000000000
31
0.0
0
LINE
5
5cc
100
AcDbEntity
8
0-8寸法
6
CONTINUOUS
62
4
100
AcDbLine
10
3217.324000000000
20
3320.376000000000
30
0.0
11
2917.324000000000
21
3320.376000000000
31
0.0
0
LINE
5
5cd
100
AcDbEntity
8
0-8寸法
6
CONTINUOUS
62
4
100
AcDbLine
10
3217.324000000000
20
3088.914000000000
30
0.0
11
3217.324000000000
21
3340.376000000000
31
0.0
0
LINE
5
5ce
100
AcDbEntity
8
0-8寸法
6
CONTINUOUS
62
4
100
AcDbLine
10
3217.324000000000
20
3320.376000000000
30
0.0
11
3178.688000000000
21
3330.728000000000
31
0.0
0
LINE
5
5cf
100
AcDbEntity
8
0-8寸法
6
CONTINUOUS
62
4
100
AcDbLine
10
3217.324000000000
20
3320.376000000000
30
0.0
11
3178.688000000000
21
3310.022000000000
31
0.0
0
LINE
5
5d0
100
AcDbEntity
8
0-8寸法
6
CONTINUOUS
62
4
100
AcDbLine
10
2917.324000000000
20
3320.376000000000
30
0.0
11
2955.962000000000
21
3330.728000000000
31
0.0
0
LINE
5
5d1
100
AcDbEntity
8
0-8寸法
6
CONTINUOUS
62
4
100
AcDbLine
10
2917.324000000000
20
3320.376000000000
30
0.0
11
2955.962000000000
21
3310.022000000000
31
0.0
0
LINE
5
5d2
100
AcDbEntity
8
0-8寸法
6
CONTINUOUS
62
4
100
AcDbLine
10
3067.324000000000
20
3088.914000000000
30
0.0
11
3067.324000000000
21
3295.968000000000
31
0.0
0
LINE
5
5d3
100
AcDbEntity
8
0-8寸法
6
CONTINUOUS
62
4
100
AcDbLine
10
3067.324000000000
20
3440.678000000000
30
0.0
11
3067.324000000000
21
3540.376000000000
31
0.0
0
LINE
5
5d4
100
AcDbEntity
8
0-8寸法
6
CONTINUOUS
62
4
100
AcDbLine
10
2917.324000000000
20
3088.914000000000
30
0.0
11
2917.324000000000
21
3340.376000000000
31
0.0
0
LINE
5
5d5
100
AcDbEntity
8
0-8寸法
6
CONTINUOUS
62
4
100
AcDbLine
10
522.760000000000
20
3320.376000000000
30
0.0
11
1787.324000000000
21
3320.376000000000
31
0.0
0
LINE
5
5d6
100
AcDbEntity
8
0-8寸法
6
CONTINUOUS
62
4
100
AcDbLine
10
1787.324000000000
20
3720.376000000000
30
0.0
11
1787.324000000000
21
3320.376000000000
31
0.0
0
LINE
5
5d7
100
AcDbEntity
8
0-3RC
6
CONTINUOUS
62
6
100
AcDbLine
10
1487.324000000000
20
4709.294000000000
30
0.0
11
3687.324000000000
21
4709.294000000000
31
0.0
0
LINE
5
5d8
100
AcDbEntity
8
0-6戸当り
6
CONTINUOUS
62
6
100
AcDbLine
10
1687.324000000000
20
4685.294000000000
30
0.0
11
1687.324000000000
21
4709.294000000000
31
0.0
0
LINE
5
5d9
100
AcDbEntity
8
0-6戸当り
6
CONTINUOUS
62
7
100
AcDbLine
10
1687.324000000000
20
4685.294000000000
30
0.0
11
3487.324000000000
21
4685.294000000000
31
0.0
0
LINE
5
5da
100
AcDbEntity
8
0-6戸当り
6
CONTINUOUS
62
6
100
AcDbLine
10
3487.324000000000
20
4685.294000000000
30
0.0
11
3487.324000000000
21
4709.294000000000
31
0.0
0
LINE
5
5db
100
AcDbEntity
8
0-6戸当り
6
CONTINUOUS
62
2
100
AcDbLine
10
3437.326000000000
20
4717.698000000000
30
0.0
11
3432.324000000000
21
4776.722000000000
31
0.0
0
LINE
5
5dc
100
AcDbEntity
8
0-6戸当り
6
CONTINUOUS
62
2
100
AcDbLine
10
3447.324000000000
20
4717.698000000000
30
0.0
11
3442.324000000000
21
4776.722000000000
31
0.0
0
LINE
5
5dd
100
AcDbEntity
8
0-6戸当り
6
CONTINUOUS
62
2
100
AcDbLine
10
3437.326000000000
20
4717.698000000000
30
0.0
11
3457.324000000000
21
4717.698000000000
31
0.0
0
LINE
5
5de
100
AcDbEntity
8
0-6戸当り
6
CONTINUOUS
62
2
100
AcDbLine
10
3436.610000000000
20
4726.130000000000
30
0.0
11
3446.610000000000
21
4726.130000000000
31
0.0
0
LINE
5
5df
100
AcDbEntity
8
0-6戸当り
6
CONTINUOUS
62
2
100
AcDbLine
10
3435.896000000000
20
4734.562000000000
30
0.0
11
3445.896000000000
21
4734.562000000000
31
0.0
0
LINE
5
5e0
100
AcDbEntity
8
0-6戸当り
6
CONTINUOUS
62
2
100
AcDbLine
10
3435.182000000000
20
4742.994000000000
30
0.0
11
3445.182000000000
21
4742.994000000000
31
0.0
0
LINE
5
5e1
100
AcDbEntity
8
0-6戸当り
6
CONTINUOUS
62
2
100
AcDbLine
10
3434.466000000000
20
4751.426000000000
30
0.0
11
3444.468000000000
21
4751.426000000000
31
0.0
0
LINE
5
5e2
100
AcDbEntity
8
0-6戸当り
6
CONTINUOUS
62
2
100
AcDbLine
10
3433.754000000000
20
4759.858000000000
30
0.0
11
3443.754000000000
21
4759.858000000000
31
0.0
0
LINE
5
5e3
100
AcDbEntity
8
0-6戸当り
6
CONTINUOUS
62
2
100
AcDbLine
10
3433.040000000000
20
4768.290000000000
30
0.0
11
3443.040000000000
21
4768.290000000000
31
0.0
0
POLYLINE
5
5e4
100
AcDbEntity
8
0-6戸当り
6
CONTINUOUS
62
  2
100
AcDb2dPolyline
66
1
10
0.0
20
0.0
30
0.0
70
0
0
VERTEX
5
5e5
100
AcDbEntity
8
0-6戸当り
6
CONTINUOUS
62
  2
100
AcDbVertex
100
AcDb2dVertex
10
3457.324000000000
20
4717.698000000000
30
0.0
0
VERTEX
5
5e6
100
AcDbEntity
8
0-6戸当り
6
CONTINUOUS
62
  2
100
AcDbVertex
100
AcDb2dVertex
10
3462.324000000000
20
4776.722000000000
30
0.0
0
VERTEX
5
5e7
100
AcDbEntity
8
0-6戸当り
6
CONTINUOUS
62
  2
100
AcDbVertex
100
AcDb2dVertex
10
3452.324000000000
20
4776.722000000000
30
0.0
0
SEQEND
5
5e8
100
AcDbEntity
8
0-6戸当り
0
LINE
5
5e9
100
AcDbEntity
8
0-6戸当り
6
CONTINUOUS
62
2
100
AcDbLine
10
3447.324000000000
20
4717.698000000000
30
0.0
11
3452.324000000000
21
4776.722000000000
31
0.0
0
LINE
5
5ea
100
AcDbEntity
8
0-6戸当り
6
CONTINUOUS
62
2
100
AcDbLine
10
3458.038000000000
20
4726.130000000000
30
0.0
11
3448.040000000000
21
4726.130000000000
31
0.0
0
LINE
5
5eb
100
AcDbEntity
8
0-6戸当り
6
CONTINUOUS
62
2
100
AcDbLine
10
3458.752000000000
20
4734.562000000000
30
0.0
11
3448.752000000000
21
4734.562000000000
31
0.0
0
LINE
5
5ec
100
AcDbEntity
8
0-6戸当り
6
CONTINUOUS
62
2
100
AcDbLine
10
3459.468000000000
20
4742.994000000000
30
0.0
11
3449.468000000000
21
4742.994000000000
31
0.0
0
LINE
5
5ed
100
AcDbEntity
8
0-6戸当り
6
CONTINUOUS
62
2
100
AcDbLine
10
3460.182000000000
20
4751.426000000000
30
0.0
11
3450.182000000000
21
4751.426000000000
31
0.0
0
LINE
5
5ee
100
AcDbEntity
8
0-6戸当り
6
CONTINUOUS
62
2
100
AcDbLine
10
3460.894000000000
20
4759.858000000000
30
0.0
11
3450.896000000000
21
4759.858000000000
31
0.0
0
LINE
5
5ef
100
AcDbEntity
8
0-6戸当り
6
CONTINUOUS
62
2
100
AcDbLine
10
3461.610000000000
20
4768.290000000000
30
0.0
11
3451.610000000000
21
4768.290000000000
31
0.0
0
LINE
5
5f0
100
AcDbEntity
8
0-6戸当り
6
CONTINUOUS
62
3
100
AcDbLine
10
3425.324000000000
20
4682.094000000000
30
0.0
11
3425.324000000000
21
4685.294000000000
31
0.0
0
LINE
5
5f1
100
AcDbEntity
8
0-6戸当り
6
CONTINUOUS
62
3
100
AcDbLine
10
3469.326000000000
20
4682.094000000000
30
0.0
11
3469.326000000000
21
4685.294000000000
31
0.0
0
LINE
5
5f2
100
AcDbEntity
8
0-6戸当り
6
CONTINUOUS
62
7
100
AcDbLine
10
3430.324000000000
20
4666.094000000000
30
0.0
11
3427.694000000000
21
4667.612000000000
31
0.0
0
POLYLINE
5
5f3
100
AcDbEntity
8
0-6戸当り
6
CONTINUOUS
62
  7
100
AcDb2dPolyline
66
1
10
0.0
20
0.0
30
0.0
70
0
0
VERTEX
5
5f4
100
AcDbEntity
8
0-6戸当り
6
CONTINUOUS
62
  7
100
AcDbVertex
100
AcDb2dVertex
10
3430.324000000000
20
4666.094000000000
30
0.0
0
VERTEX
5
5f5
100
AcDbEntity
8
0-6戸当り
6
CONTINUOUS
62
  7
100
AcDbVertex
100
AcDb2dVertex
10
3464.324000000000
20
4666.094000000000
30
0.0
0
VERTEX
5
5f6
100
AcDbEntity
8
0-6戸当り
6
CONTINUOUS
62
  7
100
AcDbVertex
100
AcDb2dVertex
10
3466.954000000000
20
4667.612000000000
30
0.0
0
SEQEND
5
5f7
100
AcDbEntity
8
0-6戸当り
0
LINE
5
5f8
100
AcDbEntity
8
0-6戸当り
6
CONTINUOUS
62
7
100
AcDbLine
10
3466.954000000000
20
4682.094000000000
30
0.0
11
3466.954000000000
21
4667.612000000000
31
0.0
0
LINE
5
5f9
100
AcDbEntity
8
0-6戸当り
6
CONTINUOUS
62
7
100
AcDbLine
10
3437.510000000000
20
4682.094000000000
30
0.0
11
3437.510000000000
21
4667.612000000000
31
0.0
0
LINE
5
5fa
100
AcDbEntity
8
0-6戸当り
6
CONTINUOUS
62
7
100
AcDbLine
10
3457.140000000000
20
4682.094000000000
30
0.0
11
3457.140000000000
21
4667.612000000000
31
0.0
0
LINE
5
5fb
100
AcDbEntity
8
0-6戸当り
6
CONTINUOUS
62
7
100
AcDbLine
10
3427.694000000000
20
4682.094000000000
30
0.0
11
3427.694000000000
21
4667.612000000000
31
0.0
0
LINE
5
5fc
100
AcDbEntity
8
0-6戸当り
6
CONTINUOUS
62
3
100
AcDbLine
10
3469.326000000000
20
4682.094000000000
30
0.0
11
3425.324000000000
21
4682.094000000000
31
0.0
0
LINE
5
5fd
100
AcDbEntity
8
0-6戸当り
6
CONTINUOUS
62
3
100
AcDbLine
10
3457.324000000000
20
4666.094000000000
30
0.0
11
3457.324000000000
21
4656.722000000000
31
0.0
0
LINE
5
5fe
100
AcDbEntity
8
0-6戸当り
6
CONTINUOUS
62
3
100
AcDbLine
10
3437.324000000000
20
4666.094000000000
30
0.0
11
3437.324000000000
21
4656.722000000000
31
0.0
0
LINE
5
5ff
100
AcDbEntity
8
0-6戸当り
6
CONTINUOUS
62
4
100
AcDbLine
10
3455.324000000000
20
4666.094000000000
30
0.0
11
3455.324000000000
21
4656.260000000000
31
0.0
0
LINE
5
600
100
AcDbEntity
8
0-6戸当り
6
CONTINUOUS
62
4
100
AcDbLine
10
3439.324000000000
20
4666.094000000000
30
0.0
11
3439.324000000000
21
4656.260000000000
31
0.0
0
LINE
5
601
100
AcDbEntity
8
0-6戸当り
6
CONTINUOUS
62
3
100
AcDbLine
10
3457.324000000000
20
4656.722000000000
30
0.0
11
3437.324000000000
21
4656.722000000000
31
0.0
0
LINE
5
602
100
AcDbEntity
8
0-6戸当り
6
CONTINUOUS
62
2
100
AcDbLine
10
3432.324000000000
20
4776.722000000000
30
0.0
11
3442.324000000000
21
4776.722000000000
31
0.0
0
LINE
5
603
100
AcDbEntity
8
0-6戸当り
6
CONTINUOUS
62
2
100
AcDbLine
10
3437.326000000000
20
4709.294000000000
30
0.0
11
3437.326000000000
21
4717.698000000000
31
0.0
0
LINE
5
604
100
AcDbEntity
8
0-6戸当り
6
CONTINUOUS
62
2
100
AcDbLine
10
3457.324000000000
20
4709.294000000000
30
0.0
11
3457.324000000000
21
4717.698000000000
31
0.0
0
LINE
5
605
100
AcDbEntity
8
0-5基準線
6
CENTER2
62
7
100
AcDbLine
10
3447.324000000000
20
4648.948000000000
30
0.0
11
3447.324000000000
21
4786.860000000001
31
0.0
0
LINE
5
606
100
AcDbEntity
8
0-6戸当り
6
CONTINUOUS
62
3
100
AcDbLine
10
1749.324000000000
20
4682.094000000000
30
0.0
11
1749.324000000000
21
4685.294000000000
31
0.0
0
LINE
5
607
100
AcDbEntity
8
0-6戸当り
6
CONTINUOUS
62
3
100
AcDbLine
10
1705.324000000000
20
4682.094000000000
30
0.0
11
1705.324000000000
21
4685.294000000000
31
0.0
0
LINE
5
608
100
AcDbEntity
8
0-6戸当り
6
CONTINUOUS
62
7
100
AcDbLine
10
1744.324000000000
20
4666.094000000000
30
0.0
11
1746.954000000000
21
4667.612000000000
31
0.0
0
POLYLINE
5
609
100
AcDbEntity
8
0-6戸当り
6
CONTINUOUS
62
  7
100
AcDb2dPolyline
66
1
10
0.0
20
0.0
30
0.0
70
0
0
VERTEX
5
60a
100
AcDbEntity
8
0-6戸当り
6
CONTINUOUS
62
  7
100
AcDbVertex
100
AcDb2dVertex
10
1744.324000000000
20
4666.094000000000
30
0.0
0
VERTEX
5
60b
100
AcDbEntity
8
0-6戸当り
6
CONTINUOUS
62
  7
100
AcDbVertex
100
AcDb2dVertex
10
1710.324000000000
20
4666.094000000000
30
0.0
0
VERTEX
5
60c
100
AcDbEntity
8
0-6戸当り
6
CONTINUOUS
62
  7
100
AcDbVertex
100
AcDb2dVertex
10
1707.694000000000
20
4667.612000000000
30
0.0
0
SEQEND
5
60d
100
AcDbEntity
8
0-6戸当り
0
LINE
5
60e
100
AcDbEntity
8
0-6戸当り
6
CONTINUOUS
62
7
100
AcDbLine
10
1707.694000000000
20
4682.094000000000
30
0.0
11
1707.694000000000
21
4667.612000000000
31
0.0
0
LINE
5
60f
100
AcDbEntity
8
0-6戸当り
6
CONTINUOUS
62
7
100
AcDbLine
10
1737.138000000000
20
4682.094000000000
30
0.0
11
1737.138000000000
21
4667.612000000000
31
0.0
0
LINE
5
610
100
AcDbEntity
8
0-6戸当り
6
CONTINUOUS
62
7
100
AcDbLine
10
1717.510000000000
20
4682.094000000000
30
0.0
11
1717.510000000000
21
4667.612000000000
31
0.0
0
LINE
5
611
100
AcDbEntity
8
0-6戸当り
6
CONTINUOUS
62
7
100
AcDbLine
10
1746.954000000000
20
4682.094000000000
30
0.0
11
1746.954000000000
21
4667.612000000000
31
0.0
0
LINE
5
612
100
AcDbEntity
8
0-6戸当り
6
CONTINUOUS
62
3
100
AcDbLine
10
1705.324000000000
20
4682.094000000000
30
0.0
11
1749.324000000000
21
4682.094000000000
31
0.0
0
LINE
5
613
100
AcDbEntity
8
0-6戸当り
6
CONTINUOUS
62
3
100
AcDbLine
10
1717.324000000000
20
4666.094000000000
30
0.0
11
1717.324000000000
21
4656.722000000000
31
0.0
0
LINE
5
614
100
AcDbEntity
8
0-6戸当り
6
CONTINUOUS
62
3
100
AcDbLine
10
1737.324000000000
20
4666.094000000000
30
0.0
11
1737.324000000000
21
4656.722000000000
31
0.0
0
LINE
5
615
100
AcDbEntity
8
0-6戸当り
6
CONTINUOUS
62
4
100
AcDbLine
10
1719.324000000000
20
4666.094000000000
30
0.0
11
1719.324000000000
21
4656.260000000000
31
0.0
0
LINE
5
616
100
AcDbEntity
8
0-6戸当り
6
CONTINUOUS
62
4
100
AcDbLine
10
1735.324000000000
20
4666.094000000000
30
0.0
11
1735.324000000000
21
4656.260000000000
31
0.0
0
LINE
5
617
100
AcDbEntity
8
0-6戸当り
6
CONTINUOUS
62
3
100
AcDbLine
10
1717.324000000000
20
4656.722000000000
30
0.0
11
1737.324000000000
21
4656.722000000000
31
0.0
0
LINE
5
618
100
AcDbEntity
8
0-5基準線
6
CENTER2
62
7
100
AcDbLine
10
1727.324000000000
20
4648.948000000000
30
0.0
11
1727.324000000000
21
4786.860000000001
31
0.0
0
LINE
5
619
100
AcDbEntity
8
0-8寸法
6
CONTINUOUS
62
4
100
AcDbLine
10
5500.922000000001
20
2770.376000000000
30
0.0
11
5794.188000000000
21
2770.376000000000
31
0.0
0
LINE
5
61a
100
AcDbEntity
8
0-8寸法
6
CONTINUOUS
62
4
100
AcDbLine
10
5500.922000000001
20
1370.376000000000
30
0.0
11
5794.188000000000
21
1370.376000000000
31
0.0
0
LINE
5
61b
100
AcDbEntity
8
0-3RC
6
CONTINUOUS
62
7
100
AcDbLine
10
5174.188000000000
20
2770.376000000000
30
0.0
11
5474.188000000000
21
2770.376000000000
31
0.0
0
LINE
5
61c
100
AcDbEntity
8
0-3RC
6
CONTINUOUS
62
7
100
AcDbLine
10
5174.188000000000
20
1370.376000000000
30
0.0
11
5474.188000000000
21
1370.376000000000
31
0.0
0
LINE
5
61d
100
AcDbEntity
8
0-3RC
6
DOT
62
4
100
AcDbLine
10
1887.324000000000
20
4685.294000000000
30
0.0
11
1887.324000000000
21
4909.294000000000
31
0.0
0
LINE
5
61e
100
AcDbEntity
8
0-3RC
6
CONTINUOUS
62
7
100
AcDbLine
10
3287.324000000000
20
4685.294000000000
30
0.0
11
3287.324000000000
21
4909.294000000000
31
0.0
0
LINE
5
61f
100
AcDbEntity
8
0-8寸法
6
CONTINUOUS
62
4
100
AcDbLine
10
1887.324000000000
20
4941.558000000000
30
0.0
11
1887.324000000000
21
5329.294000000000
31
0.0
0
LINE
5
620
100
AcDbEntity
8
0-5基準線
6
CENTER2
62
7
100
AcDbLine
10
2587.324000000000
20
4909.294000000000
30
0.0
11
2587.324000000000
21
4474.714000000000
31
0.0
0
LINE
5
621
100
AcDbEntity
8
0-8寸法
6
CONTINUOUS
62
4
100
AcDbLine
10
1687.324000000000
20
5309.294000000000
30
0.0
11
1887.324000000000
21
5309.294000000000
31
0.0
0
LINE
5
622
100
AcDbEntity
8
0-8寸法
6
CONTINUOUS
62
4
100
AcDbLine
10
1687.324000000000
20
5309.294000000000
30
0.0
11
1725.962000000000
21
5319.646000000000
31
0.0
0
LINE
5
623
100
AcDbEntity
8
0-8寸法
6
CONTINUOUS
62
4
100
AcDbLine
10
1687.324000000000
20
5309.294000000000
30
0.0
11
1725.962000000000
21
5298.942000000000
31
0.0
0
LINE
5
624
100
AcDbEntity
8
0-8寸法
6
CONTINUOUS
62
4
100
AcDbLine
10
1887.324000000000
20
5309.294000000000
30
0.0
11
1848.686000000000
21
5319.646000000000
31
0.0
0
LINE
5
625
100
AcDbEntity
8
0-8寸法
6
CONTINUOUS
62
4
100
AcDbLine
10
1887.324000000000
20
5309.294000000000
30
0.0
11
1848.686000000000
21
5298.942000000000
31
0.0
0
LINE
5
626
100
AcDbEntity
8
0-8寸法
6
CONTINUOUS
62
4
100
AcDbLine
10
3287.324000000000
20
5309.294000000000
30
0.0
11
3487.324000000000
21
5309.294000000000
31
0.0
0
LINE
5
627
100
AcDbEntity
8
0-8寸法
6
CONTINUOUS
62
4
100
AcDbLine
10
3287.324000000000
20
4941.558000000000
30
0.0
11
3287.324000000000
21
5329.294000000000
31
0.0
0
LINE
5
628
100
AcDbEntity
8
0-8寸法
6
CONTINUOUS
62
4
100
AcDbLine
10
3287.324000000000
20
5309.294000000000
30
0.0
11
3325.962000000000
21
5319.646000000000
31
0.0
0
LINE
5
629
100
AcDbEntity
8
0-8寸法
6
CONTINUOUS
62
4
100
AcDbLine
10
3287.324000000000
20
5309.294000000000
30
0.0
11
3325.962000000000
21
5298.942000000000
31
0.0
0
LINE
5
62a
100
AcDbEntity
8
0-8寸法
6
CONTINUOUS
62
4
100
AcDbLine
10
3487.324000000000
20
5309.294000000000
30
0.0
11
3448.688000000000
21
5319.646000000000
31
0.0
0
LINE
5
62b
100
AcDbEntity
8
0-8寸法
6
CONTINUOUS
62
4
100
AcDbLine
10
3487.324000000000
20
5309.294000000000
30
0.0
11
3448.688000000000
21
5298.942000000000
31
0.0
0
LINE
5
62c
100
AcDbEntity
8
0-8寸法
6
CONTINUOUS
62
4
100
AcDbLine
10
1687.324000000000
20
4736.990000000000
30
0.0
11
1687.324000000000
21
5329.294000000000
31
0.0
0
LINE
5
62d
100
AcDbEntity
8
0-8寸法
6
CONTINUOUS
62
4
100
AcDbLine
10
3487.324000000000
20
4736.990000000000
30
0.0
11
3487.324000000000
21
5329.294000000000
31
0.0
0
LINE
5
62e
100
AcDbEntity
8
0-8寸法
6
CONTINUOUS
62
4
100
AcDbLine
10
1787.324000000000
20
4120.376000000000
30
0.0
11
3387.324000000000
21
4120.376000000000
31
0.0
0
LINE
5
62f
100
AcDbEntity
8
0-8寸法
6
CONTINUOUS
62
4
100
AcDbLine
10
1787.324000000000
20
4120.376000000000
30
0.0
11
1825.962000000000
21
4130.728000000000
31
0.0
0
LINE
5
630
100
AcDbEntity
8
0-8寸法
6
CONTINUOUS
62
4
100
AcDbLine
10
1787.324000000000
20
4120.376000000000
30
0.0
11
1825.962000000000
21
4110.022000000000
31
0.0
0
LINE
5
631
100
AcDbEntity
8
0-8寸法
6
CONTINUOUS
62
4
100
AcDbLine
10
3387.324000000000
20
4120.376000000000
30
0.0
11
3348.688000000000
21
4130.728000000000
31
0.0
0
LINE
5
632
100
AcDbEntity
8
0-8寸法
6
CONTINUOUS
62
4
100
AcDbLine
10
3387.324000000000
20
4120.376000000000
30
0.0
11
3348.688000000000
21
4110.022000000000
31
0.0
0
LINE
5
633
100
AcDbEntity
8
0-8寸法
6
CONTINUOUS
62
4
100
AcDbLine
10
1787.324000000000
20
4483.904000000001
30
0.0
11
1787.324000000000
21
4100.376000000000
31
0.0
0
LINE
5
634
100
AcDbEntity
8
0-8寸法
6
CONTINUOUS
62
4
100
AcDbLine
10
3387.324000000000
20
4483.904000000001
30
0.0
11
3387.324000000000
21
4100.376000000000
31
0.0
0
LINE
5
635
100
AcDbEntity
8
0-8寸法
6
CONTINUOUS
62
4
100
AcDbLine
10
5174.188000000000
20
1170.376000000000
30
0.0
11
5169.942000000000
21
1130.602000000000
31
0.0
0
LINE
5
636
100
AcDbEntity
8
0-8寸法
6
CONTINUOUS
62
4
100
AcDbLine
10
5174.188000000000
20
1170.376000000000
30
0.0
11
5150.624000000000
21
1138.052000000000
31
0.0
0
LINE
5
637
100
AcDbEntity
8
0-9扉体
6
CONTINUOUS
62
3
100
AcDbLine
10
5126.188000000000
20
2404.010000000000
30
0.0
11
5126.188000000000
21
2741.620000000000
31
0.0
0
LINE
5
638
100
AcDbEntity
8
0-9扉体
6
CONTINUOUS
62
3
100
AcDbLine
10
5126.188000000000
20
2750.376000000000
30
0.0
11
5126.188000000000
21
2830.376000000000
31
0.0
0
LINE
5
639
100
AcDbEntity
8
0-9扉体
6
CONTINUOUS
62
3
100
AcDbLine
10
5138.188000000000
20
2404.010000000000
30
0.0
11
5138.188000000000
21
2741.620000000000
31
0.0
0
LINE
5
63a
100
AcDbEntity
8
0-9扉体
6
CONTINUOUS
62
3
100
AcDbLine
10
5138.188000000000
20
2752.376000000000
30
0.0
11
5138.188000000000
21
2828.376000000000
31
0.0
0
LINE
5
63b
100
AcDbEntity
8
0-9扉体
6
CONTINUOUS
62
3
100
AcDbLine
10
5126.188000000000
20
2338.908000000000
30
0.0
11
5126.188000000000
21
1407.002000000000
31
0.0
0
LINE
5
63c
100
AcDbEntity
8
0-9扉体
6
CONTINUOUS
62
3
100
AcDbLine
10
5126.188000000000
20
1390.374000000000
30
0.0
11
5126.188000000000
21
1310.376000000000
31
0.0
0
LINE
5
63d
100
AcDbEntity
8
0-9扉体
6
CONTINUOUS
62
3
100
AcDbLine
10
5138.188000000000
20
2338.908000000000
30
0.0
11
5138.188000000000
21
1407.002000000000
31
0.0
0
LINE
5
63e
100
AcDbEntity
8
0-9扉体
6
CONTINUOUS
62
3
100
AcDbLine
10
5138.188000000000
20
1388.376000000000
30
0.0
11
5138.188000000000
21
1312.374000000000
31
0.0
0
LINE
5
63f
100
AcDbEntity
8
0-9扉体
6
CONTINUOUS
62
3
100
AcDbLine
10
2587.324000000000
20
4661.294000000000
30
0.0
11
3256.452000000000
21
4661.294000000000
31
0.0
0
LINE
5
640
100
AcDbEntity
8
0-9扉体
6
CONTINUOUS
62
3
100
AcDbLine
10
3267.326000000000
20
4661.294000000000
30
0.0
11
3347.324000000000
21
4661.294000000000
31
0.0
0
LINE
5
641
100
AcDbEntity
8
0-9扉体
6
CONTINUOUS
62
3
100
AcDbLine
10
2587.324000000000
20
4673.294000000000
30
0.0
11
3256.452000000000
21
4673.294000000000
31
0.0
0
LINE
5
642
100
AcDbEntity
8
0-9扉体
6
CONTINUOUS
62
3
100
AcDbLine
10
3269.324000000000
20
4673.294000000000
30
0.0
11
3345.324000000000
21
4673.294000000000
31
0.0
0
LINE
5
643
100
AcDbEntity
8
0-6戸当り
6
CONTINUOUS
62
3
100
AcDbLine
10
2283.324000000000
20
4680.494000000000
30
0.0
11
2231.324000000000
21
4680.494000000000
31
0.0
0
LINE
5
644
100
AcDbEntity
8
0-6戸当り
6
CONTINUOUS
62
2
100
AcDbLine
10
2283.324000000000
20
4680.494000000000
30
0.0
11
2283.324000000000
21
4685.294000000000
31
0.0
0
LINE
5
645
100
AcDbEntity
8
0-6戸当り
6
CONTINUOUS
62
2
100
AcDbLine
10
2231.324000000000
20
4680.494000000000
30
0.0
11
2231.324000000000
21
4685.294000000000
31
0.0
0
LINE
5
646
100
AcDbEntity
8
0-5基準線
6
CENTER2
62
7
100
AcDbLine
10
2257.324000000000
20
4685.294000000000
30
0.0
11
2257.324000000000
21
4915.534000000000
31
0.0
0
LINE
5
647
100
AcDbEntity
8
0-6戸当り
6
CONTINUOUS
62
3
100
AcDbLine
10
1931.324000000000
20
4680.494000000000
30
0.0
11
1983.326000000000
21
4680.494000000000
31
0.0
0
LINE
5
648
100
AcDbEntity
8
0-6戸当り
6
CONTINUOUS
62
2
100
AcDbLine
10
1931.324000000000
20
4680.494000000000
30
0.0
11
1931.324000000000
21
4685.294000000000
31
0.0
0
LINE
5
649
100
AcDbEntity
8
0-6戸当り
6
CONTINUOUS
62
2
100
AcDbLine
10
1983.326000000000
20
4680.494000000000
30
0.0
11
1983.326000000000
21
4685.294000000000
31
0.0
0
LINE
5
64a
100
AcDbEntity
8
0-5基準線
6
CENTER2
62
7
100
AcDbLine
10
1957.324000000000
20
4685.294000000000
30
0.0
11
1957.324000000000
21
4915.534000000000
31
0.0
0
LINE
5
64b
100
AcDbEntity
8
0-9扉体
6
CONTINUOUS
62
4
100
AcDbLine
10
1777.324000000000
20
4633.294000000000
30
0.0
11
1777.324000000000
21
4645.294000000000
31
0.0
0
LINE
5
64c
100
AcDbEntity
8
0-9扉体
6
CONTINUOUS
62
6
100
AcDbLine
10
1886.708000000000
20
4645.294000000000
30
0.0
11
1926.708000000000
21
4685.294000000000
31
0.0
0
LINE
5
64d
100
AcDbEntity
8
0-9扉体
6
CONTINUOUS
62
6
100
AcDbLine
10
1884.136000000000
20
4645.550000000000
30
0.0
11
1923.880000000000
21
4685.294000000000
31
0.0
0
LINE
5
64e
100
AcDbEntity
8
0-9扉体
6
CONTINUOUS
62
6
100
AcDbLine
10
2282.688000000000
20
4645.294000000000
30
0.0
11
2322.688000000000
21
4685.294000000000
31
0.0
0
LINE
5
64f
100
AcDbEntity
8
0-9扉体
6
CONTINUOUS
62
6
100
AcDbLine
10
2279.860000000000
20
4645.294000000000
30
0.0
11
2319.860000000000
21
4685.294000000000
31
0.0
0
LINE
5
650
100
AcDbEntity
8
0-9扉体
6
CONTINUOUS
62
6
100
AcDbLine
10
2310.972000000000
20
4645.294000000000
30
0.0
11
2350.974000000000
21
4685.294000000000
31
0.0
0
LINE
5
651
100
AcDbEntity
8
0-9扉体
6
CONTINUOUS
62
6
100
AcDbLine
10
2308.144000000000
20
4645.294000000000
30
0.0
11
2348.144000000000
21
4685.294000000000
31
0.0
0
LINE
5
652
100
AcDbEntity
8
0-9扉体
6
CONTINUOUS
62
6
100
AcDbLine
10
2339.258000000000
20
4645.294000000000
30
0.0
11
2379.258000000000
21
4685.294000000000
31
0.0
0
LINE
5
653
100
AcDbEntity
8
0-9扉体
6
CONTINUOUS
62
6
100
AcDbLine
10
2336.430000000000
20
4645.294000000000
30
0.0
11
2376.430000000000
21
4685.294000000000
31
0.0
0
LINE
5
654
100
AcDbEntity
8
0-9扉体
6
CONTINUOUS
62
6
100
AcDbLine
10
1855.596000000000
20
4645.294000000000
30
0.0
11
1895.594000000000
21
4685.294000000000
31
0.0
0
LINE
5
655
100
AcDbEntity
8
0-9扉体
6
CONTINUOUS
62
6
100
AcDbLine
10
1858.422000000000
20
4645.294000000000
30
0.0
11
1898.422000000000
21
4685.294000000000
31
0.0
0
LINE
5
656
100
AcDbEntity
8
0-A文字
6
CONTINUOUS
62
4
100
AcDbLine
10
2737.286000000000
20
1739.898000000000
30
0.0
11
3133.300000000000
21
1739.898000000000
31
0.0
0
LINE
5
657
100
AcDbEntity
8
0-5基準線
6
CENTER2
62
7
100
AcDbLine
10
2587.324000000000
20
3170.376000000000
30
0.0
11
2587.324000000000
21
1106.086000000000
31
0.0
0
LINE
5
658
100
AcDbEntity
8
0-9扉体
6
CONTINUOUS
62
6
100
AcDbLine
10
4995.188000000000
20
2746.376000000000
30
0.0
11
4995.188000000000
21
2846.376000000000
31
0.0
0
LINE
5
659
100
AcDbEntity
8
0-9扉体
6
CONTINUOUS
62
6
100
AcDbLine
10
4989.188000000000
20
2740.376000000000
30
0.0
11
4977.188000000000
21
2740.376000000000
31
0.0
0
LINE
5
65a
100
AcDbEntity
8
0-9扉体
6
CONTINUOUS
62
6
100
AcDbLine
10
5098.188000000000
20
2858.376000000000
30
0.0
11
5007.188000000000
21
2858.376000000000
31
0.0
0
LINE
5
65b
100
AcDbEntity
8
0-9扉体
6
CONTINUOUS
62
6
100
AcDbLine
10
4977.188000000000
20
2870.376000000000
30
0.0
11
5098.188000000000
21
2870.376000000000
31
0.0
0
LINE
5
65c
100
AcDbEntity
8
0-9扉体
6
CONTINUOUS
62
6
100
AcDbLine
10
4977.188000000000
20
1270.376000000000
30
0.0
11
4977.188000000000
21
2870.376000000000
31
0.0
0
LINE
5
65d
100
AcDbEntity
8
0-9扉体
6
CONTINUOUS
62
6
100
AcDbLine
10
4995.188000000000
20
1916.376000000000
30
0.0
11
4995.188000000000
21
2016.376000000000
31
0.0
0
LINE
5
65e
100
AcDbEntity
8
0-9扉体
6
CONTINUOUS
62
6
100
AcDbLine
10
5098.188000000000
20
2028.376000000000
30
0.0
11
5007.188000000000
21
2028.376000000000
31
0.0
0
LINE
5
65f
100
AcDbEntity
8
0-9扉体
6
CONTINUOUS
62
6
100
AcDbLine
10
4977.188000000000
20
2040.376000000000
30
0.0
11
5098.188000000000
21
2040.376000000000
31
0.0
0
LINE
5
660
100
AcDbEntity
8
0-9扉体
6
CONTINUOUS
62
6
100
AcDbLine
10
4989.188000000000
20
1910.376000000000
30
0.0
11
4977.188000000000
21
1910.376000000000
31
0.0
0
LINE
5
661
100
AcDbEntity
8
0-9扉体
6
DOT
62
4
100
AcDbLine
10
3375.324000000000
20
2870.376000000000
30
0.0
11
3375.324000000000
21
1270.376000000000
31
0.0
0
LINE
5
662
100
AcDbEntity
8
0-9扉体
6
DOT
62
6
100
AcDbLine
10
3375.324000000000
20
2028.376000000000
30
0.0
11
1799.324000000000
21
2028.376000000000
31
0.0
0
LINE
5
663
100
AcDbEntity
8
0-9扉体
6
CONTINUOUS
62
6
100
AcDbLine
10
1917.324000000000
20
1270.376000000000
30
0.0
11
1917.324000000000
21
2870.376000000000
31
0.0
0
LINE
5
664
100
AcDbEntity
8
0-9扉体
6
CONTINUOUS
62
6
100
AcDbLine
10
3257.324000000000
20
2870.376000000000
30
0.0
11
3257.324000000000
21
1270.376000000000
31
0.0
0
LINE
5
665
100
AcDbEntity
8
0-9扉体
6
CONTINUOUS
62
6
100
AcDbLine
10
1917.324000000000
20
2740.376000000000
30
0.0
11
3257.324000000000
21
2740.376000000000
31
0.0
0
LINE
5
666
100
AcDbEntity
8
0-9扉体
6
DOT
62
6
100
AcDbLine
10
1917.324000000000
20
2040.376000000000
30
0.0
11
1799.324000000000
21
2040.376000000000
31
0.0
0
LINE
5
667
100
AcDbEntity
8
0-9扉体
6
CONTINUOUS
62
6
100
AcDbLine
10
3257.324000000000
20
1910.376000000000
30
0.0
11
1917.324000000000
21
1910.376000000000
31
0.0
0
LINE
5
668
100
AcDbEntity
8
0-9扉体
6
CONTINUOUS
62
6
100
AcDbLine
10
3257.324000000000
20
2040.376000000000
30
0.0
11
1917.324000000000
21
2040.376000000000
31
0.0
0
LINE
5
669
100
AcDbEntity
8
0-9扉体
6
DOT
62
6
100
AcDbLine
10
3257.324000000000
20
2040.376000000000
30
0.0
11
3375.324000000000
21
2040.376000000000
31
0.0
0
LINE
5
66a
100
AcDbEntity
8
0-9扉体
6
CONTINUOUS
62
6
100
AcDbLine
10
3257.324000000000
20
1400.376000000000
30
0.0
11
1917.324000000000
21
1400.376000000000
31
0.0
0
LINE
5
66b
100
AcDbEntity
8
0-9扉体
6
DOT
62
6
100
AcDbLine
10
2579.324000000000
20
2858.376000000000
30
0.0
11
2579.324000000000
21
2740.376000000000
31
0.0
0
LINE
5
66c
100
AcDbEntity
8
0-9扉体
6
DOT
62
6
100
AcDbLine
10
2595.324000000000
20
2858.376000000000
30
0.0
11
2595.324000000000
21
2740.376000000000
31
0.0
0
LINE
5
66d
100
AcDbEntity
8
0-9扉体
6
CONTINUOUS
62
6
100
AcDbLine
10
2579.324000000000
20
2740.376000000000
30
0.0
11
2579.324000000000
21
2040.376000000000
31
0.0
0
LINE
5
66e
100
AcDbEntity
8
0-9扉体
6
CONTINUOUS
62
6
100
AcDbLine
10
2595.324000000000
20
2740.376000000000
30
0.0
11
2595.324000000000
21
2040.376000000000
31
0.0
0
LINE
5
66f
100
AcDbEntity
8
0-9扉体
6
DOT
62
6
100
AcDbLine
10
2579.324000000000
20
2028.376000000000
30
0.0
11
2579.324000000000
21
1910.376000000000
31
0.0
0
LINE
5
670
100
AcDbEntity
8
0-9扉体
6
DOT
62
6
100
AcDbLine
10
2595.324000000000
20
2028.376000000000
30
0.0
11
2595.324000000000
21
1910.376000000000
31
0.0
0
LINE
5
671
100
AcDbEntity
8
0-9扉体
6
CONTINUOUS
62
6
100
AcDbLine
10
2579.324000000000
20
1910.376000000000
30
0.0
11
2579.324000000000
21
1400.376000000000
31
0.0
0
LINE
5
672
100
AcDbEntity
8
0-9扉体
6
CONTINUOUS
62
6
100
AcDbLine
10
2595.324000000000
20
1910.376000000000
30
0.0
11
2595.324000000000
21
1400.376000000000
31
0.0
0
LINE
5
673
100
AcDbEntity
8
0-8寸法
6
CONTINUOUS
62
4
100
AcDbLine
10
5150.188000000000
20
3470.376000000000
30
0.0
11
4836.676000000000
21
3470.376000000000
31
0.0
0
LINE
5
674
100
AcDbEntity
8
0-6戸当り
6
CONTINUOUS
62
3
100
AcDbLine
10
2157.324000000000
20
1229.974000000000
30
0.0
11
2174.298000000000
21
1220.174000000000
31
0.0
0
LINE
5
675
100
AcDbEntity
8
0-6戸当り
6
CONTINUOUS
62
3
100
AcDbLine
10
2157.324000000000
20
1190.774000000000
30
0.0
11
2174.298000000000
21
1200.574000000000
31
0.0
0
LINE
5
676
100
AcDbEntity
8
0-6戸当り
6
CONTINUOUS
62
3
100
AcDbLine
10
2174.298000000000
20
1220.174000000000
30
0.0
11
2174.298000000000
21
1200.574000000000
31
0.0
0
LINE
5
677
100
AcDbEntity
8
0-6戸当り
6
CONTINUOUS
62
3
100
AcDbLine
10
2157.324000000000
20
1190.774000000000
30
0.0
11
2140.350000000000
21
1200.574000000000
31
0.0
0
LINE
5
678
100
AcDbEntity
8
0-6戸当り
6
CONTINUOUS
62
3
100
AcDbLine
10
2157.324000000000
20
1229.974000000000
30
0.0
11
2140.350000000000
21
1220.174000000000
31
0.0
0
LINE
5
679
100
AcDbEntity
8
0-6戸当り
6
CONTINUOUS
62
3
100
AcDbLine
10
2140.350000000000
20
1200.574000000000
30
0.0
11
2140.350000000000
21
1220.174000000000
31
0.0
0
LINE
5
67a
100
AcDbEntity
8
0-5基準線
6
CENTER2
62
7
100
AcDbLine
10
2157.324000000000
20
1180.374000000000
30
0.0
11
2157.324000000000
21
1240.374000000000
31
0.0
0
LINE
5
67b
100
AcDbEntity
8
0-5基準線
6
CENTER2
62
7
100
AcDbLine
10
2187.324000000000
20
1210.374000000000
30
0.0
11
2127.324000000000
21
1210.374000000000
31
0.0
0
LINE
5
67c
100
AcDbEntity
8
0-6戸当り
6
CONTINUOUS
62
3
100
AcDbLine
10
2587.324000000000
20
1229.974000000000
30
0.0
11
2604.298000000000
21
1220.174000000000
31
0.0
0
LINE
5
67d
100
AcDbEntity
8
0-6戸当り
6
CONTINUOUS
62
3
100
AcDbLine
10
2587.324000000000
20
1190.774000000000
30
0.0
11
2604.298000000000
21
1200.574000000000
31
0.0
0
LINE
5
67e
100
AcDbEntity
8
0-6戸当り
6
CONTINUOUS
62
3
100
AcDbLine
10
2604.298000000000
20
1220.174000000000
30
0.0
11
2604.298000000000
21
1200.574000000000
31
0.0
0
LINE
5
67f
100
AcDbEntity
8
0-6戸当り
6
CONTINUOUS
62
3
100
AcDbLine
10
2587.324000000000
20
1190.774000000000
30
0.0
11
2570.350000000000
21
1200.574000000000
31
0.0
0
LINE
5
680
100
AcDbEntity
8
0-6戸当り
6
CONTINUOUS
62
3
100
AcDbLine
10
2587.324000000000
20
1229.974000000000
30
0.0
11
2570.350000000000
21
1220.174000000000
31
0.0
0
LINE
5
681
100
AcDbEntity
8
0-6戸当り
6
CONTINUOUS
62
3
100
AcDbLine
10
2570.350000000000
20
1200.574000000000
30
0.0
11
2570.350000000000
21
1220.174000000000
31
0.0
0
LINE
5
682
100
AcDbEntity
8
0-5基準線
6
CENTER2
62
7
100
AcDbLine
10
2617.324000000000
20
1210.374000000000
30
0.0
11
2557.324000000000
21
1210.374000000000
31
0.0
0
LINE
5
683
100
AcDbEntity
8
0-6戸当り
6
CONTINUOUS
62
3
100
AcDbLine
10
3017.324000000000
20
1229.974000000000
30
0.0
11
3034.298000000000
21
1220.174000000000
31
0.0
0
LINE
5
684
100
AcDbEntity
8
0-6戸当り
6
CONTINUOUS
62
3
100
AcDbLine
10
3017.324000000000
20
1190.774000000000
30
0.0
11
3034.298000000000
21
1200.574000000000
31
0.0
0
LINE
5
685
100
AcDbEntity
8
0-6戸当り
6
CONTINUOUS
62
3
100
AcDbLine
10
3034.298000000000
20
1220.174000000000
30
0.0
11
3034.298000000000
21
1200.574000000000
31
0.0
0
LINE
5
686
100
AcDbEntity
8
0-6戸当り
6
CONTINUOUS
62
3
100
AcDbLine
10
3017.324000000000
20
1190.774000000000
30
0.0
11
3000.350000000000
21
1200.574000000000
31
0.0
0
LINE
5
687
100
AcDbEntity
8
0-6戸当り
6
CONTINUOUS
62
3
100
AcDbLine
10
3017.324000000000
20
1229.974000000000
30
0.0
11
3000.350000000000
21
1220.174000000000
31
0.0
0
LINE
5
688
100
AcDbEntity
8
0-6戸当り
6
CONTINUOUS
62
3
100
AcDbLine
10
3000.350000000000
20
1200.574000000000
30
0.0
11
3000.350000000000
21
1220.174000000000
31
0.0
0
LINE
5
689
100
AcDbEntity
8
0-5基準線
6
CENTER2
62
7
100
AcDbLine
10
3017.324000000000
20
1180.374000000000
30
0.0
11
3017.324000000000
21
1240.374000000000
31
0.0
0
LINE
5
68a
100
AcDbEntity
8
0-5基準線
6
CENTER2
62
7
100
AcDbLine
10
3047.324000000000
20
1210.374000000000
30
0.0
11
2987.324000000000
21
1210.374000000000
31
0.0
0
LINE
5
68b
100
AcDbEntity
8
0-8寸法
6
CONTINUOUS
62
4
100
AcDbLine
10
1727.324000000000
20
670.376000000000
30
0.0
11
3447.324000000000
21
670.376000000000
31
0.0
0
LINE
5
68c
100
AcDbEntity
8
0-8寸法
6
CONTINUOUS
62
4
100
AcDbLine
10
1727.324000000000
20
670.376000000000
30
0.0
11
1765.962000000000
21
680.728000000000
31
0.0
0
LINE
5
68d
100
AcDbEntity
8
0-8寸法
6
CONTINUOUS
62
4
100
AcDbLine
10
1727.324000000000
20
670.376000000000
30
0.0
11
1765.962000000000
21
660.022000000000
31
0.0
0
LINE
5
68e
100
AcDbEntity
8
0-8寸法
6
CONTINUOUS
62
4
100
AcDbLine
10
3447.324000000000
20
670.376000000000
30
0.0
11
3408.688000000000
21
680.728000000000
31
0.0
0
LINE
5
68f
100
AcDbEntity
8
0-8寸法
6
CONTINUOUS
62
4
100
AcDbLine
10
3447.324000000000
20
670.376000000000
30
0.0
11
3408.688000000000
21
660.022000000000
31
0.0
0
LINE
5
690
100
AcDbEntity
8
0-8寸法
6
CONTINUOUS
62
4
100
AcDbLine
10
1727.324000000000
20
1147.916000000000
30
0.0
11
1727.324000000000
21
650.376000000000
31
0.0
0
LINE
5
691
100
AcDbEntity
8
0-8寸法
6
CONTINUOUS
62
4
100
AcDbLine
10
3447.324000000000
20
1147.916000000000
30
0.0
11
3447.324000000000
21
650.376000000000
31
0.0
0
LINE
5
692
100
AcDbEntity
8
0-8寸法
6
CONTINUOUS
62
4
100
AcDbLine
10
1668.284000000000
20
1170.376000000000
30
0.0
11
967.324000000000
21
1170.376000000000
31
0.0
0
LINE
5
693
100
AcDbEntity
8
0-8寸法
6
CONTINUOUS
62
4
100
AcDbLine
10
1668.284000000000
20
3070.376000000000
30
0.0
11
967.324000000000
21
3070.376000000000
31
0.0
0
LINE
5
694
100
AcDbEntity
8
0-9扉体
6
CONTINUOUS
62
6
100
AcDbLine
10
3263.324000000000
20
4530.294000000000
30
0.0
11
3363.324000000000
21
4530.294000000000
31
0.0
0
LINE
5
695
100
AcDbEntity
8
0-9扉体
6
CONTINUOUS
62
6
100
AcDbLine
10
3375.324000000000
20
4633.294000000000
30
0.0
11
3375.324000000000
21
4542.294000000000
31
0.0
0
LINE
5
696
100
AcDbEntity
8
0-9扉体
6
CONTINUOUS
62
6
100
AcDbLine
10
3257.324000000000
20
4524.294000000000
30
0.0
11
3257.324000000000
21
4512.294000000000
31
0.0
0
LINE
5
697
100
AcDbEntity
8
0-9扉体
6
CONTINUOUS
62
6
100
AcDbLine
10
3387.324000000000
20
4512.294000000000
30
0.0
11
3387.324000000000
21
4633.294000000000
31
0.0
0
LINE
5
698
100
AcDbEntity
8
0-9扉体
6
CONTINUOUS
62
6
100
AcDbLine
10
1787.324000000000
20
4512.294000000000
30
0.0
11
1787.324000000000
21
4633.294000000000
31
0.0
0
LINE
5
699
100
AcDbEntity
8
0-9扉体
6
CONTINUOUS
62
6
100
AcDbLine
10
1787.324000000000
20
4512.294000000000
30
0.0
11
3387.324000000000
21
4512.294000000000
31
0.0
0
LINE
5
69a
100
AcDbEntity
8
0-9扉体
6
CONTINUOUS
62
6
100
AcDbLine
10
2595.324000000000
20
4633.294000000000
30
0.0
11
2595.324000000000
21
4512.294000000000
31
0.0
0
LINE
5
69b
100
AcDbEntity
8
0-9扉体
6
DOT
62
6
100
AcDbLine
10
2579.324000000000
20
4633.294000000000
30
0.0
11
2579.324000000000
21
4512.294000000000
31
0.0
0
LINE
5
69c
100
AcDbEntity
8
0-9扉体
6
CONTINUOUS
62
6
100
AcDbLine
10
1827.310000000000
20
4645.294000000000
30
0.0
11
1867.310000000000
21
4685.294000000000
31
0.0
0
LINE
5
69d
100
AcDbEntity
8
0-9扉体
6
CONTINUOUS
62
6
100
AcDbLine
10
1830.138000000000
20
4645.294000000000
30
0.0
11
1870.138000000000
21
4685.294000000000
31
0.0
0
LINE
5
69e
100
AcDbEntity
8
0-9扉体
6
CONTINUOUS
62
6
100
AcDbLine
10
1799.026000000000
20
4645.294000000000
30
0.0
11
1839.026000000000
21
4685.294000000000
31
0.0
0
LINE
5
69f
100
AcDbEntity
8
0-9扉体
6
CONTINUOUS
62
6
100
AcDbLine
10
1802.456000000000
20
4645.896000000000
30
0.0
11
1841.854000000000
21
4685.294000000000
31
0.0
0
LINE
5
6a0
100
AcDbEntity
8
0-9扉体
6
CONTINUOUS
62
6
100
AcDbLine
10
1787.576000000000
20
4662.128000000000
30
0.0
11
1810.742000000000
21
4685.294000000000
31
0.0
0
LINE
5
6a1
100
AcDbEntity
8
0-9扉体
6
CONTINUOUS
62
6
100
AcDbLine
10
1788.090000000000
20
4659.814000000000
30
0.0
11
1813.570000000000
21
4685.294000000000
31
0.0
0
LINE
5
6a2
100
AcDbEntity
8
0-9扉体
6
CONTINUOUS
62
6
100
AcDbLine
10
2367.542000000000
20
4645.294000000000
30
0.0
11
2407.542000000000
21
4685.294000000000
31
0.0
0
LINE
5
6a3
100
AcDbEntity
8
0-9扉体
6
CONTINUOUS
62
6
100
AcDbLine
10
2364.714000000000
20
4645.294000000000
30
0.0
11
2404.714000000000
21
4685.294000000000
31
0.0
0
LINE
5
6a4
100
AcDbEntity
8
0-9扉体
6
CONTINUOUS
62
6
100
AcDbLine
10
2395.826000000000
20
4645.294000000000
30
0.0
11
2435.826000000000
21
4685.294000000000
31
0.0
0
LINE
5
6a5
100
AcDbEntity
8
0-9扉体
6
CONTINUOUS
62
6
100
AcDbLine
10
2392.998000000000
20
4645.294000000000
30
0.0
11
2432.998000000000
21
4685.294000000000
31
0.0
0
LINE
5
6a6
100
AcDbEntity
8
0-9扉体
6
CONTINUOUS
62
6
100
AcDbLine
10
2424.112000000000
20
4645.294000000000
30
0.0
11
2464.112000000000
21
4685.294000000000
31
0.0
0
LINE
5
6a7
100
AcDbEntity
8
0-9扉体
6
CONTINUOUS
62
6
100
AcDbLine
10
2421.282000000000
20
4645.294000000000
30
0.0
11
2461.284000000000
21
4685.294000000000
31
0.0
0
LINE
5
6a8
100
AcDbEntity
8
0-9扉体
6
CONTINUOUS
62
6
100
AcDbLine
10
2452.396000000000
20
4645.294000000000
30
0.0
11
2492.396000000000
21
4685.294000000000
31
0.0
0
LINE
5
6a9
100
AcDbEntity
8
0-9扉体
6
CONTINUOUS
62
6
100
AcDbLine
10
2449.568000000000
20
4645.294000000000
30
0.0
11
2489.568000000000
21
4685.294000000000
31
0.0
0
LINE
5
6aa
100
AcDbEntity
8
0-9扉体
6
CONTINUOUS
62
6
100
AcDbLine
10
2480.680000000000
20
4645.294000000000
30
0.0
11
2520.680000000000
21
4685.294000000000
31
0.0
0
LINE
5
6ab
100
AcDbEntity
8
0-9扉体
6
CONTINUOUS
62
6
100
AcDbLine
10
2477.852000000000
20
4645.294000000000
30
0.0
11
2517.852000000000
21
4685.294000000000
31
0.0
0
LINE
5
6ac
100
AcDbEntity
8
0-9扉体
6
CONTINUOUS
62
6
100
AcDbLine
10
2508.966000000000
20
4645.294000000000
30
0.0
11
2548.966000000000
21
4685.294000000000
31
0.0
0
LINE
5
6ad
100
AcDbEntity
8
0-9扉体
6
CONTINUOUS
62
6
100
AcDbLine
10
2506.136000000000
20
4645.294000000000
30
0.0
11
2546.136000000000
21
4685.294000000000
31
0.0
0
LINE
5
6ae
100
AcDbEntity
8
0-9扉体
6
CONTINUOUS
62
6
100
AcDbLine
10
2537.250000000000
20
4645.294000000000
30
0.0
11
2577.250000000000
21
4685.294000000000
31
0.0
0
LINE
5
6af
100
AcDbEntity
8
0-9扉体
6
CONTINUOUS
62
6
100
AcDbLine
10
2534.422000000000
20
4645.294000000000
30
0.0
11
2574.422000000000
21
4685.294000000000
31
0.0
0
LINE
5
6b0
100
AcDbEntity
8
0-9扉体
6
CONTINUOUS
62
6
100
AcDbLine
10
2565.534000000000
20
4645.294000000000
30
0.0
11
2587.324000000000
21
4667.084000000000
31
0.0
0
LINE
5
6b1
100
AcDbEntity
8
0-9扉体
6
CONTINUOUS
62
6
100
AcDbLine
10
2562.706000000000
20
4645.294000000000
30
0.0
11
2587.324000000000
21
4669.912000000000
31
0.0
0
LINE
5
6b2
100
AcDbEntity
8
0-8寸法
6
CONTINUOUS
62
4
100
AcDbLine
10
5098.188000000000
20
2370.376000000000
30
0.0
11
5337.570000000000
21
2370.376000000000
31
0.0
0
LINE
5
6b3
100
AcDbEntity
8
0-8寸法
6
CONTINUOUS
62
4
100
AcDbLine
10
5337.570000000000
20
2170.376000000000
30
0.0
11
5047.356000000000
21
2170.376000000000
31
0.0
0
LINE
5
6b4
100
AcDbEntity
8
0-6戸当り
6
CONTINUOUS
62
6
100
AcDbLine
10
3487.324000000000
20
1370.376000000000
30
0.0
11
3397.324000000000
21
1370.376000000000
31
0.0
0
LINE
5
6b5
100
AcDbEntity
8
0-6戸当り
6
CONTINUOUS
62
6
100
AcDbLine
10
1777.324000000000
20
1370.376000000000
30
0.0
11
1687.324000000000
21
1370.376000000000
31
0.0
0
LINE
5
6b6
100
AcDbEntity
8
0-6戸当り
6
CONTINUOUS
62
6
100
AcDbLine
10
1687.324000000000
20
2770.376000000000
30
0.0
11
1777.324000000000
21
2770.376000000000
31
0.0
0
LINE
5
6b7
100
AcDbEntity
8
0-6戸当り
6
CONTINUOUS
62
6
100
AcDbLine
10
3397.324000000000
20
2770.376000000000
30
0.0
11
3487.324000000000
21
2770.376000000000
31
0.0
0
LINE
5
6b8
100
AcDbEntity
8
0-6戸当り
6
CONTINUOUS
62
3
100
AcDbLine
10
1727.324000000000
20
1659.974000000000
30
0.0
11
1744.298000000000
21
1650.174000000000
31
0.0
0
LINE
5
6b9
100
AcDbEntity
8
0-6戸当り
6
CONTINUOUS
62
3
100
AcDbLine
10
1727.324000000000
20
1620.774000000000
30
0.0
11
1744.298000000000
21
1630.574000000000
31
0.0
0
LINE
5
6ba
100
AcDbEntity
8
0-6戸当り
6
CONTINUOUS
62
3
100
AcDbLine
10
1744.298000000000
20
1650.174000000000
30
0.0
11
1744.298000000000
21
1630.574000000000
31
0.0
0
LINE
5
6bb
100
AcDbEntity
8
0-6戸当り
6
CONTINUOUS
62
3
100
AcDbLine
10
1727.324000000000
20
1620.774000000000
30
0.0
11
1710.350000000000
21
1630.574000000000
31
0.0
0
LINE
5
6bc
100
AcDbEntity
8
0-6戸当り
6
CONTINUOUS
62
3
100
AcDbLine
10
1727.324000000000
20
1659.974000000000
30
0.0
11
1710.350000000000
21
1650.174000000000
31
0.0
0
LINE
5
6bd
100
AcDbEntity
8
0-6戸当り
6
CONTINUOUS
62
3
100
AcDbLine
10
1710.350000000000
20
1630.574000000000
30
0.0
11
1710.350000000000
21
1650.174000000000
31
0.0
0
LINE
5
6be
100
AcDbEntity
8
0-5基準線
6
CENTER2
62
7
100
AcDbLine
10
1727.324000000000
20
1610.374000000000
30
0.0
11
1727.324000000000
21
1670.374000000000
31
0.0
0
LINE
5
6bf
100
AcDbEntity
8
0-5基準線
6
CENTER2
62
7
100
AcDbLine
10
1757.324000000000
20
1640.374000000000
30
0.0
11
1697.324000000000
21
1640.374000000000
31
0.0
0
LINE
5
6c0
100
AcDbEntity
8
0-6戸当り
6
CONTINUOUS
62
3
100
AcDbLine
10
1727.324000000000
20
2089.974000000000
30
0.0
11
1744.298000000000
21
2080.174000000000
31
0.0
0
LINE
5
6c1
100
AcDbEntity
8
0-6戸当り
6
CONTINUOUS
62
3
100
AcDbLine
10
1727.324000000000
20
2050.774000000000
30
0.0
11
1744.298000000000
21
2060.574000000000
31
0.0
0
LINE
5
6c2
100
AcDbEntity
8
0-6戸当り
6
CONTINUOUS
62
3
100
AcDbLine
10
1744.298000000000
20
2080.174000000000
30
0.0
11
1744.298000000000
21
2060.574000000000
31
0.0
0
LINE
5
6c3
100
AcDbEntity
8
0-6戸当り
6
CONTINUOUS
62
3
100
AcDbLine
10
1727.324000000000
20
2050.774000000000
30
0.0
11
1710.350000000000
21
2060.574000000000
31
0.0
0
LINE
5
6c4
100
AcDbEntity
8
0-6戸当り
6
CONTINUOUS
62
3
100
AcDbLine
10
1727.324000000000
20
2089.974000000000
30
0.0
11
1710.350000000000
21
2080.174000000000
31
0.0
0
LINE
5
6c5
100
AcDbEntity
8
0-6戸当り
6
CONTINUOUS
62
3
100
AcDbLine
10
1710.350000000000
20
2060.574000000000
30
0.0
11
1710.350000000000
21
2080.174000000000
31
0.0
0
LINE
5
6c6
100
AcDbEntity
8
0-5基準線
6
CENTER2
62
7
100
AcDbLine
10
1727.324000000000
20
2040.374000000000
30
0.0
11
1727.324000000000
21
2100.374000000000
31
0.0
0
LINE
5
6c7
100
AcDbEntity
8
0-5基準線
6
CENTER2
62
7
100
AcDbLine
10
1757.324000000000
20
2070.374000000000
30
0.0
11
1697.324000000000
21
2070.374000000000
31
0.0
0
LINE
5
6c8
100
AcDbEntity
8
0-6戸当り
6
CONTINUOUS
62
3
100
AcDbLine
10
1727.324000000000
20
2519.974000000000
30
0.0
11
1744.298000000000
21
2510.174000000000
31
0.0
0
LINE
5
6c9
100
AcDbEntity
8
0-6戸当り
6
CONTINUOUS
62
3
100
AcDbLine
10
1727.324000000000
20
2480.774000000000
30
0.0
11
1744.298000000000
21
2490.574000000000
31
0.0
0
LINE
5
6ca
100
AcDbEntity
8
0-6戸当り
6
CONTINUOUS
62
3
100
AcDbLine
10
1744.298000000000
20
2510.174000000000
30
0.0
11
1744.298000000000
21
2490.574000000000
31
0.0
0
LINE
5
6cb
100
AcDbEntity
8
0-6戸当り
6
CONTINUOUS
62
3
100
AcDbLine
10
1727.324000000000
20
2480.774000000000
30
0.0
11
1710.350000000000
21
2490.574000000000
31
0.0
0
LINE
5
6cc
100
AcDbEntity
8
0-6戸当り
6
CONTINUOUS
62
3
100
AcDbLine
10
1727.324000000000
20
2519.974000000000
30
0.0
11
1710.350000000000
21
2510.174000000000
31
0.0
0
LINE
5
6cd
100
AcDbEntity
8
0-6戸当り
6
CONTINUOUS
62
3
100
AcDbLine
10
1710.350000000000
20
2490.574000000000
30
0.0
11
1710.350000000000
21
2510.174000000000
31
0.0
0
LINE
5
6ce
100
AcDbEntity
8
0-5基準線
6
CENTER2
62
7
100
AcDbLine
10
1727.324000000000
20
2470.374000000000
30
0.0
11
1727.324000000000
21
2530.374000000000
31
0.0
0
LINE
5
6cf
100
AcDbEntity
8
0-5基準線
6
CENTER2
62
7
100
AcDbLine
10
1757.324000000000
20
2500.374000000000
30
0.0
11
1697.324000000000
21
2500.374000000000
31
0.0
0
LINE
5
6d0
100
AcDbEntity
8
0-6戸当り
6
CONTINUOUS
62
3
100
AcDbLine
10
1727.324000000000
20
2949.974000000000
30
0.0
11
1744.298000000000
21
2940.174000000000
31
0.0
0
LINE
5
6d1
100
AcDbEntity
8
0-6戸当り
6
CONTINUOUS
62
3
100
AcDbLine
10
1727.324000000000
20
2910.774000000000
30
0.0
11
1744.298000000000
21
2920.574000000000
31
0.0
0
LINE
5
6d2
100
AcDbEntity
8
0-6戸当り
6
CONTINUOUS
62
3
100
AcDbLine
10
1744.298000000000
20
2940.174000000000
30
0.0
11
1744.298000000000
21
2920.574000000000
31
0.0
0
LINE
5
6d3
100
AcDbEntity
8
0-6戸当り
6
CONTINUOUS
62
3
100
AcDbLine
10
1727.324000000000
20
2910.774000000000
30
0.0
11
1710.350000000000
21
2920.574000000000
31
0.0
0
LINE
5
6d4
100
AcDbEntity
8
0-6戸当り
6
CONTINUOUS
62
3
100
AcDbLine
10
1727.324000000000
20
2949.974000000000
30
0.0
11
1710.350000000000
21
2940.174000000000
31
0.0
0
LINE
5
6d5
100
AcDbEntity
8
0-6戸当り
6
CONTINUOUS
62
3
100
AcDbLine
10
1710.350000000000
20
2920.574000000000
30
0.0
11
1710.350000000000
21
2940.174000000000
31
0.0
0
LINE
5
6d6
100
AcDbEntity
8
0-5基準線
6
CENTER2
62
7
100
AcDbLine
10
1727.324000000000
20
2900.374000000000
30
0.0
11
1727.324000000000
21
2960.374000000000
31
0.0
0
LINE
5
6d7
100
AcDbEntity
8
0-5基準線
6
CENTER2
62
7
100
AcDbLine
10
1757.324000000000
20
2930.374000000000
30
0.0
11
1697.324000000000
21
2930.374000000000
31
0.0
0
LINE
5
6d8
100
AcDbEntity
8
0-6戸当り
6
CONTINUOUS
62
3
100
AcDbLine
10
3447.324000000000
20
1659.974000000000
30
0.0
11
3430.350000000000
21
1650.174000000000
31
0.0
0
LINE
5
6d9
100
AcDbEntity
8
0-6戸当り
6
CONTINUOUS
62
3
100
AcDbLine
10
3447.324000000000
20
1620.774000000000
30
0.0
11
3430.350000000000
21
1630.574000000000
31
0.0
0
LINE
5
6da
100
AcDbEntity
8
0-6戸当り
6
CONTINUOUS
62
3
100
AcDbLine
10
3430.350000000000
20
1650.174000000000
30
0.0
11
3430.350000000000
21
1630.574000000000
31
0.0
0
LINE
5
6db
100
AcDbEntity
8
0-6戸当り
6
CONTINUOUS
62
3
100
AcDbLine
10
3447.324000000000
20
1620.774000000000
30
0.0
11
3464.298000000000
21
1630.574000000000
31
0.0
0
LINE
5
6dc
100
AcDbEntity
8
0-6戸当り
6
CONTINUOUS
62
3
100
AcDbLine
10
3447.324000000000
20
1659.974000000000
30
0.0
11
3464.298000000000
21
1650.174000000000
31
0.0
0
LINE
5
6dd
100
AcDbEntity
8
0-6戸当り
6
CONTINUOUS
62
3
100
AcDbLine
10
3464.298000000000
20
1630.574000000000
30
0.0
11
3464.298000000000
21
1650.174000000000
31
0.0
0
LINE
5
6de
100
AcDbEntity
8
0-5基準線
6
CENTER2
62
7
100
AcDbLine
10
3447.324000000000
20
1610.374000000000
30
0.0
11
3447.324000000000
21
1670.374000000000
31
0.0
0
LINE
5
6df
100
AcDbEntity
8
0-5基準線
6
CENTER2
62
7
100
AcDbLine
10
3417.324000000000
20
1640.374000000000
30
0.0
11
3477.324000000000
21
1640.374000000000
31
0.0
0
LINE
5
6e0
100
AcDbEntity
8
0-6戸当り
6
CONTINUOUS
62
3
100
AcDbLine
10
3447.324000000000
20
2089.974000000000
30
0.0
11
3430.350000000000
21
2080.174000000000
31
0.0
0
LINE
5
6e1
100
AcDbEntity
8
0-6戸当り
6
CONTINUOUS
62
3
100
AcDbLine
10
3447.324000000000
20
2050.774000000000
30
0.0
11
3430.350000000000
21
2060.574000000000
31
0.0
0
LINE
5
6e2
100
AcDbEntity
8
0-6戸当り
6
CONTINUOUS
62
3
100
AcDbLine
10
3430.350000000000
20
2080.174000000000
30
0.0
11
3430.350000000000
21
2060.574000000000
31
0.0
0
LINE
5
6e3
100
AcDbEntity
8
0-6戸当り
6
CONTINUOUS
62
3
100
AcDbLine
10
3447.324000000000
20
2050.774000000000
30
0.0
11
3464.298000000000
21
2060.574000000000
31
0.0
0
LINE
5
6e4
100
AcDbEntity
8
0-6戸当り
6
CONTINUOUS
62
3
100
AcDbLine
10
3447.324000000000
20
2089.974000000000
30
0.0
11
3464.298000000000
21
2080.174000000000
31
0.0
0
LINE
5
6e5
100
AcDbEntity
8
0-6戸当り
6
CONTINUOUS
62
3
100
AcDbLine
10
3464.298000000000
20
2060.574000000000
30
0.0
11
3464.298000000000
21
2080.174000000000
31
0.0
0
LINE
5
6e6
100
AcDbEntity
8
0-5基準線
6
CENTER2
62
7
100
AcDbLine
10
3447.324000000000
20
2040.374000000000
30
0.0
11
3447.324000000000
21
2100.374000000000
31
0.0
0
LINE
5
6e7
100
AcDbEntity
8
0-5基準線
6
CENTER2
62
7
100
AcDbLine
10
3417.324000000000
20
2070.374000000000
30
0.0
11
3477.324000000000
21
2070.374000000000
31
0.0
0
LINE
5
6e8
100
AcDbEntity
8
0-6戸当り
6
CONTINUOUS
62
3
100
AcDbLine
10
3447.324000000000
20
2519.974000000000
30
0.0
11
3430.350000000000
21
2510.174000000000
31
0.0
0
LINE
5
6e9
100
AcDbEntity
8
0-6戸当り
6
CONTINUOUS
62
3
100
AcDbLine
10
3447.324000000000
20
2480.774000000000
30
0.0
11
3430.350000000000
21
2490.574000000000
31
0.0
0
LINE
5
6ea
100
AcDbEntity
8
0-6戸当り
6
CONTINUOUS
62
3
100
AcDbLine
10
3430.350000000000
20
2510.174000000000
30
0.0
11
3430.350000000000
21
2490.574000000000
31
0.0
0
LINE
5
6eb
100
AcDbEntity
8
0-6戸当り
6
CONTINUOUS
62
3
100
AcDbLine
10
3447.324000000000
20
2480.774000000000
30
0.0
11
3464.298000000000
21
2490.574000000000
31
0.0
0
LINE
5
6ec
100
AcDbEntity
8
0-6戸当り
6
CONTINUOUS
62
3
100
AcDbLine
10
3447.324000000000
20
2519.974000000000
30
0.0
11
3464.298000000000
21
2510.174000000000
31
0.0
0
LINE
5
6ed
100
AcDbEntity
8
0-6戸当り
6
CONTINUOUS
62
3
100
AcDbLine
10
3464.298000000000
20
2490.574000000000
30
0.0
11
3464.298000000000
21
2510.174000000000
31
0.0
0
LINE
5
6ee
100
AcDbEntity
8
0-5基準線
6
CENTER2
62
7
100
AcDbLine
10
3447.324000000000
20
2470.374000000000
30
0.0
11
3447.324000000000
21
2530.374000000000
31
0.0
0
LINE
5
6ef
100
AcDbEntity
8
0-5基準線
6
CENTER2
62
7
100
AcDbLine
10
3417.324000000000
20
2500.374000000000
30
0.0
11
3477.324000000000
21
2500.374000000000
31
0.0
0
LINE
5
6f0
100
AcDbEntity
8
0-6戸当り
6
CONTINUOUS
62
3
100
AcDbLine
10
3447.324000000000
20
2949.974000000000
30
0.0
11
3430.350000000000
21
2940.174000000000
31
0.0
0
LINE
5
6f1
100
AcDbEntity
8
0-6戸当り
6
CONTINUOUS
62
3
100
AcDbLine
10
3447.324000000000
20
2910.774000000000
30
0.0
11
3430.350000000000
21
2920.574000000000
31
0.0
0
LINE
5
6f2
100
AcDbEntity
8
0-6戸当り
6
CONTINUOUS
62
3
100
AcDbLine
10
3430.350000000000
20
2940.174000000000
30
0.0
11
3430.350000000000
21
2920.574000000000
31
0.0
0
LINE
5
6f3
100
AcDbEntity
8
0-6戸当り
6
CONTINUOUS
62
3
100
AcDbLine
10
3447.324000000000
20
2910.774000000000
30
0.0
11
3464.298000000000
21
2920.574000000000
31
0.0
0
LINE
5
6f4
100
AcDbEntity
8
0-6戸当り
6
CONTINUOUS
62
3
100
AcDbLine
10
3447.324000000000
20
2949.974000000000
30
0.0
11
3464.298000000000
21
2940.174000000000
31
0.0
0
LINE
5
6f5
100
AcDbEntity
8
0-6戸当り
6
CONTINUOUS
62
3
100
AcDbLine
10
3464.298000000000
20
2920.574000000000
30
0.0
11
3464.298000000000
21
2940.174000000000
31
0.0
0
LINE
5
6f6
100
AcDbEntity
8
0-5基準線
6
CENTER2
62
7
100
AcDbLine
10
3447.324000000000
20
2900.374000000000
30
0.0
11
3447.324000000000
21
2960.374000000000
31
0.0
0
LINE
5
6f7
100
AcDbEntity
8
0-5基準線
6
CENTER2
62
7
100
AcDbLine
10
3417.324000000000
20
2930.374000000000
30
0.0
11
3477.324000000000
21
2930.374000000000
31
0.0
0
LINE
5
6f8
100
AcDbEntity
8
0-8寸法
6
CONTINUOUS
62
4
100
AcDbLine
10
1187.324000000000
20
1210.374000000000
30
0.0
11
1187.324000000000
21
2930.374000000000
31
0.0
0
LINE
5
6f9
100
AcDbEntity
8
0-8寸法
6
CONTINUOUS
62
4
100
AcDbLine
10
1668.284000000000
20
1210.374000000000
30
0.0
11
1167.324000000000
21
1210.374000000000
31
0.0
0
LINE
5
6fa
100
AcDbEntity
8
0-8寸法
6
CONTINUOUS
62
4
100
AcDbLine
10
1668.284000000000
20
2930.374000000000
30
0.0
11
1167.324000000000
21
2930.374000000000
31
0.0
0
LINE
5
6fb
100
AcDbEntity
8
0-8寸法
6
CONTINUOUS
62
4
100
AcDbLine
10
1187.324000000000
20
1210.374000000000
30
0.0
11
1176.972000000000
21
1249.012000000000
31
0.0
0
LINE
5
6fc
100
AcDbEntity
8
0-8寸法
6
CONTINUOUS
62
4
100
AcDbLine
10
1187.324000000000
20
1210.374000000000
30
0.0
11
1197.676000000000
21
1249.012000000000
31
0.0
0
LINE
5
6fd
100
AcDbEntity
8
0-8寸法
6
CONTINUOUS
62
4
100
AcDbLine
10
1187.324000000000
20
2930.374000000000
30
0.0
11
1176.972000000000
21
2891.738000000000
31
0.0
0
LINE
5
6fe
100
AcDbEntity
8
0-8寸法
6
CONTINUOUS
62
4
100
AcDbLine
10
1187.324000000000
20
2930.374000000000
30
0.0
11
1197.676000000000
21
2891.738000000000
31
0.0
0
LINE
5
6ff
100
AcDbEntity
8
0-8寸法
6
CONTINUOUS
62
4
100
AcDbLine
10
1187.324000000000
20
2930.374000000000
30
0.0
11
1187.324000000000
21
3070.376000000000
31
0.0
0
LINE
5
700
100
AcDbEntity
8
0-8寸法
6
CONTINUOUS
62
4
100
AcDbLine
10
1187.324000000000
20
2930.374000000000
30
0.0
11
1176.972000000000
21
2969.012000000000
31
0.0
0
LINE
5
701
100
AcDbEntity
8
0-8寸法
6
CONTINUOUS
62
4
100
AcDbLine
10
1187.324000000000
20
2930.374000000000
30
0.0
11
1197.676000000000
21
2969.012000000000
31
0.0
0
LINE
5
702
100
AcDbEntity
8
0-8寸法
6
CONTINUOUS
62
4
100
AcDbLine
10
1187.324000000000
20
3070.376000000000
30
0.0
11
1176.972000000000
21
3031.738000000000
31
0.0
0
LINE
5
703
100
AcDbEntity
8
0-8寸法
6
CONTINUOUS
62
4
100
AcDbLine
10
1187.324000000000
20
3070.376000000000
30
0.0
11
1197.676000000000
21
3031.738000000000
31
0.0
0
LINE
5
704
100
AcDbEntity
8
0-6戸当り
6
CONTINUOUS
62
3
100
AcDbLine
10
1927.324000000000
20
2949.974000000000
30
0.0
11
1944.298000000000
21
2940.174000000000
31
0.0
0
LINE
5
705
100
AcDbEntity
8
0-6戸当り
6
CONTINUOUS
62
3
100
AcDbLine
10
1927.324000000000
20
2910.774000000000
30
0.0
11
1944.298000000000
21
2920.574000000000
31
0.0
0
LINE
5
706
100
AcDbEntity
8
0-6戸当り
6
CONTINUOUS
62
3
100
AcDbLine
10
1944.298000000000
20
2940.174000000000
30
0.0
11
1944.298000000000
21
2920.574000000000
31
0.0
0
LINE
5
707
100
AcDbEntity
8
0-6戸当り
6
CONTINUOUS
62
3
100
AcDbLine
10
1927.324000000000
20
2910.774000000000
30
0.0
11
1910.350000000000
21
2920.574000000000
31
0.0
0
LINE
5
708
100
AcDbEntity
8
0-6戸当り
6
CONTINUOUS
62
3
100
AcDbLine
10
1927.324000000000
20
2949.974000000000
30
0.0
11
1910.350000000000
21
2940.174000000000
31
0.0
0
LINE
5
709
100
AcDbEntity
8
0-6戸当り
6
CONTINUOUS
62
3
100
AcDbLine
10
1910.350000000000
20
2920.574000000000
30
0.0
11
1910.350000000000
21
2940.174000000000
31
0.0
0
LINE
5
70a
100
AcDbEntity
8
0-5基準線
6
CENTER2
62
7
100
AcDbLine
10
1927.324000000000
20
2900.374000000000
30
0.0
11
1927.324000000000
21
2960.374000000000
31
0.0
0
LINE
5
70b
100
AcDbEntity
8
0-5基準線
6
CENTER2
62
7
100
AcDbLine
10
1957.324000000000
20
2930.374000000000
30
0.0
11
1897.324000000000
21
2930.374000000000
31
0.0
0
LINE
5
70c
100
AcDbEntity
8
0-6戸当り
6
CONTINUOUS
62
3
100
AcDbLine
10
2367.324000000000
20
2949.974000000000
30
0.0
11
2384.298000000000
21
2940.174000000000
31
0.0
0
LINE
5
70d
100
AcDbEntity
8
0-6戸当り
6
CONTINUOUS
62
3
100
AcDbLine
10
2367.324000000000
20
2910.774000000000
30
0.0
11
2384.298000000000
21
2920.574000000000
31
0.0
0
LINE
5
70e
100
AcDbEntity
8
0-6戸当り
6
CONTINUOUS
62
3
100
AcDbLine
10
2384.298000000000
20
2940.174000000000
30
0.0
11
2384.298000000000
21
2920.574000000000
31
0.0
0
LINE
5
70f
100
AcDbEntity
8
0-6戸当り
6
CONTINUOUS
62
3
100
AcDbLine
10
2367.324000000000
20
2910.774000000000
30
0.0
11
2350.350000000000
21
2920.574000000000
31
0.0
0
LINE
5
710
100
AcDbEntity
8
0-6戸当り
6
CONTINUOUS
62
3
100
AcDbLine
10
2367.324000000000
20
2949.974000000000
30
0.0
11
2350.350000000000
21
2940.174000000000
31
0.0
0
LINE
5
711
100
AcDbEntity
8
0-6戸当り
6
CONTINUOUS
62
3
100
AcDbLine
10
2350.350000000000
20
2920.574000000000
30
0.0
11
2350.350000000000
21
2940.174000000000
31
0.0
0
LINE
5
712
100
AcDbEntity
8
0-5基準線
6
CENTER2
62
7
100
AcDbLine
10
2367.324000000000
20
2900.374000000000
30
0.0
11
2367.324000000000
21
2960.374000000000
31
0.0
0
LINE
5
713
100
AcDbEntity
8
0-5基準線
6
CENTER2
62
7
100
AcDbLine
10
2397.324000000000
20
2930.374000000000
30
0.0
11
2337.324000000000
21
2930.374000000000
31
0.0
0
LINE
5
714
100
AcDbEntity
8
0-6戸当り
6
CONTINUOUS
62
3
100
AcDbLine
10
2807.324000000000
20
2949.974000000000
30
0.0
11
2824.298000000000
21
2940.174000000000
31
0.0
0
LINE
5
715
100
AcDbEntity
8
0-6戸当り
6
CONTINUOUS
62
3
100
AcDbLine
10
2807.324000000000
20
2910.774000000000
30
0.0
11
2824.298000000000
21
2920.574000000000
31
0.0
0
LINE
5
716
100
AcDbEntity
8
0-6戸当り
6
CONTINUOUS
62
3
100
AcDbLine
10
2824.298000000000
20
2940.174000000000
30
0.0
11
2824.298000000000
21
2920.574000000000
31
0.0
0
LINE
5
717
100
AcDbEntity
8
0-6戸当り
6
CONTINUOUS
62
3
100
AcDbLine
10
2807.324000000000
20
2910.774000000000
30
0.0
11
2790.350000000000
21
2920.574000000000
31
0.0
0
LINE
5
718
100
AcDbEntity
8
0-6戸当り
6
CONTINUOUS
62
3
100
AcDbLine
10
2807.324000000000
20
2949.974000000000
30
0.0
11
2790.350000000000
21
2940.174000000000
31
0.0
0
LINE
5
719
100
AcDbEntity
8
0-6戸当り
6
CONTINUOUS
62
3
100
AcDbLine
10
2790.350000000000
20
2920.574000000000
30
0.0
11
2790.350000000000
21
2940.174000000000
31
0.0
0
LINE
5
71a
100
AcDbEntity
8
0-5基準線
6
CENTER2
62
7
100
AcDbLine
10
2807.324000000000
20
2900.374000000000
30
0.0
11
2807.324000000000
21
2960.374000000000
31
0.0
0
LINE
5
71b
100
AcDbEntity
8
0-5基準線
6
CENTER2
62
7
100
AcDbLine
10
2837.324000000000
20
2930.374000000000
30
0.0
11
2777.324000000000
21
2930.374000000000
31
0.0
0
LINE
5
71c
100
AcDbEntity
8
0-6戸当り
6
CONTINUOUS
62
3
100
AcDbLine
10
3247.324000000000
20
2949.974000000000
30
0.0
11
3264.298000000000
21
2940.174000000000
31
0.0
0
LINE
5
71d
100
AcDbEntity
8
0-6戸当り
6
CONTINUOUS
62
3
100
AcDbLine
10
3247.324000000000
20
2910.774000000000
30
0.0
11
3264.298000000000
21
2920.574000000000
31
0.0
0
LINE
5
71e
100
AcDbEntity
8
0-6戸当り
6
CONTINUOUS
62
3
100
AcDbLine
10
3264.298000000000
20
2940.174000000000
30
0.0
11
3264.298000000000
21
2920.574000000000
31
0.0
0
LINE
5
71f
100
AcDbEntity
8
0-6戸当り
6
CONTINUOUS
62
3
100
AcDbLine
10
3247.324000000000
20
2910.774000000000
30
0.0
11
3230.350000000000
21
2920.574000000000
31
0.0
0
LINE
5
720
100
AcDbEntity
8
0-6戸当り
6
CONTINUOUS
62
3
100
AcDbLine
10
3247.324000000000
20
2949.974000000000
30
0.0
11
3230.350000000000
21
2940.174000000000
31
0.0
0
LINE
5
721
100
AcDbEntity
8
0-6戸当り
6
CONTINUOUS
62
3
100
AcDbLine
10
3230.350000000000
20
2920.574000000000
30
0.0
11
3230.350000000000
21
2940.174000000000
31
0.0
0
LINE
5
722
100
AcDbEntity
8
0-5基準線
6
CENTER2
62
7
100
AcDbLine
10
3247.324000000000
20
2900.374000000000
30
0.0
11
3247.324000000000
21
2960.374000000000
31
0.0
0
LINE
5
723
100
AcDbEntity
8
0-5基準線
6
CENTER2
62
7
100
AcDbLine
10
3277.324000000000
20
2930.374000000000
30
0.0
11
3217.324000000000
21
2930.374000000000
31
0.0
0
LINE
5
724
100
AcDbEntity
8
0-8寸法
6
CONTINUOUS
62
4
100
AcDbLine
10
1927.324000000000
20
3720.376000000000
30
0.0
11
3247.324000000000
21
3720.376000000000
31
0.0
0
LINE
5
725
100
AcDbEntity
8
0-8寸法
6
CONTINUOUS
62
4
100
AcDbLine
10
1927.324000000000
20
3088.914000000000
30
0.0
11
1927.324000000000
21
3740.376000000000
31
0.0
0
LINE
5
726
100
AcDbEntity
8
0-8寸法
6
CONTINUOUS
62
4
100
AcDbLine
10
3247.324000000000
20
3088.914000000000
30
0.0
11
3247.324000000000
21
3740.376000000000
31
0.0
0
LINE
5
727
100
AcDbEntity
8
0-8寸法
6
CONTINUOUS
62
4
100
AcDbLine
10
1927.324000000000
20
3720.376000000000
30
0.0
11
1965.962000000000
21
3730.728000000000
31
0.0
0
LINE
5
728
100
AcDbEntity
8
0-8寸法
6
CONTINUOUS
62
4
100
AcDbLine
10
1927.324000000000
20
3720.376000000000
30
0.0
11
1965.962000000000
21
3710.022000000000
31
0.0
0
LINE
5
729
100
AcDbEntity
8
0-8寸法
6
CONTINUOUS
62
4
100
AcDbLine
10
3247.324000000000
20
3720.376000000000
30
0.0
11
3208.688000000000
21
3730.728000000000
31
0.0
0
LINE
5
72a
100
AcDbEntity
8
0-8寸法
6
CONTINUOUS
62
4
100
AcDbLine
10
3247.324000000000
20
3720.376000000000
30
0.0
11
3208.688000000000
21
3710.022000000000
31
0.0
0
LINE
5
72b
100
AcDbEntity
8
0-9扉体
6
CONTINUOUS
62
6
100
AcDbLine
10
1914.992000000000
20
4645.294000000000
30
0.0
11
1938.324000000000
21
4668.628000000000
31
0.0
0
LINE
5
72c
100
AcDbEntity
8
0-9扉体
6
CONTINUOUS
62
6
100
AcDbLine
10
1912.164000000000
20
4645.294000000000
30
0.0
11
1938.324000000000
21
4671.456000000000
31
0.0
0
LINE
5
72d
100
AcDbEntity
8
0-9扉体
6
CONTINUOUS
62
6
100
AcDbLine
10
1997.016000000000
20
4645.294000000000
30
0.0
11
2037.016000000000
21
4685.294000000000
31
0.0
0
LINE
5
72e
100
AcDbEntity
8
0-9扉体
6
CONTINUOUS
62
6
100
AcDbLine
10
1999.844000000000
20
4645.294000000000
30
0.0
11
2039.844000000000
21
4685.294000000000
31
0.0
0
LINE
5
72f
100
AcDbEntity
8
0-9扉体
6
CONTINUOUS
62
6
100
AcDbLine
10
2276.324000000000
20
4667.214000000000
30
0.0
11
2294.404000000000
21
4685.294000000000
31
0.0
0
LINE
5
730
100
AcDbEntity
8
0-9扉体
6
CONTINUOUS
62
6
100
AcDbLine
10
2276.324000000000
20
4670.042000000000
30
0.0
11
2291.576000000000
21
4685.294000000000
31
0.0
0
LINE
5
731
100
AcDbEntity
8
0-9扉体
6
CONTINUOUS
62
6
100
AcDbLine
10
2226.120000000000
20
4645.294000000000
30
0.0
11
2238.324000000000
21
4657.498000000000
31
0.0
0
LINE
5
732
100
AcDbEntity
8
0-9扉体
6
CONTINUOUS
62
6
100
AcDbLine
10
2223.290000000000
20
4645.294000000000
30
0.0
11
2238.324000000000
21
4660.328000000000
31
0.0
0
LINE
5
733
100
AcDbEntity
8
0-9扉体
6
CONTINUOUS
62
6
100
AcDbLine
10
2195.006000000000
20
4645.294000000000
30
0.0
11
2231.324000000000
21
4681.610000000001
31
0.0
0
LINE
5
734
100
AcDbEntity
8
0-9扉体
6
CONTINUOUS
62
6
100
AcDbLine
10
2197.836000000000
20
4645.294000000000
30
0.0
11
2233.036000000000
21
4680.494000000000
31
0.0
0
LINE
5
735
100
AcDbEntity
8
0-9扉体
6
CONTINUOUS
62
6
100
AcDbLine
10
4995.188000000000
20
1394.376000000000
30
0.0
11
4995.188000000000
21
1294.374000000000
31
0.0
0
LINE
5
736
100
AcDbEntity
8
0-9扉体
6
CONTINUOUS
62
6
100
AcDbLine
10
5098.188000000000
20
1282.376000000000
30
0.0
11
5007.188000000000
21
1282.376000000000
31
0.0
0
LINE
5
737
100
AcDbEntity
8
0-9扉体
6
CONTINUOUS
62
6
100
AcDbLine
10
4977.188000000000
20
1270.376000000000
30
0.0
11
5098.188000000000
21
1270.376000000000
31
0.0
0
LINE
5
738
100
AcDbEntity
8
0-9扉体
6
CONTINUOUS
62
4
100
AcDbLine
10
5110.188000000000
20
2880.376000000000
30
0.0
11
5110.188000000000
21
1260.376000000000
31
0.0
0
LINE
5
739
100
AcDbEntity
8
0-9扉体
6
CONTINUOUS
62
4
100
AcDbLine
10
5098.188000000000
20
2152.230000000000
30
0.0
11
5098.188000000000
21
1260.376000000000
31
0.0
0
LINE
5
73a
100
AcDbEntity
8
0-9扉体
6
CONTINUOUS
62
4
100
AcDbLine
10
5110.188000000000
20
1260.376000000000
30
0.0
11
5098.188000000000
21
1260.376000000000
31
0.0
0
LINE
5
73b
100
AcDbEntity
8
0-9扉体
6
CONTINUOUS
62
6
100
AcDbLine
10
4989.188000000000
20
1400.376000000000
30
0.0
11
4977.188000000000
21
1400.376000000000
31
0.0
0
LINE
5
73c
100
AcDbEntity
8
0-9扉体
6
DOT
62
6
100
AcDbLine
10
3375.324000000000
20
1282.376000000000
30
0.0
11
1799.324000000000
21
1282.376000000000
31
0.0
0
LINE
5
73d
100
AcDbEntity
8
0-9扉体
6
CONTINUOUS
62
4
100
AcDbLine
10
1777.324000000000
20
1260.376000000000
30
0.0
11
1777.324000000000
21
2880.376000000000
31
0.0
0
LINE
5
73e
100
AcDbEntity
8
0-9扉体
6
CONTINUOUS
62
4
100
AcDbLine
10
1787.324000000000
20
1270.376000000000
30
0.0
11
1787.324000000000
21
2870.376000000000
31
0.0
0
LINE
5
73f
100
AcDbEntity
8
0-9扉体
6
CONTINUOUS
62
4
100
AcDbLine
10
3397.324000000000
20
1260.376000000000
30
0.0
11
1777.324000000000
21
1260.376000000000
31
0.0
0
LINE
5
740
100
AcDbEntity
8
0-9扉体
6
CONTINUOUS
62
4
100
AcDbLine
10
3397.324000000000
20
2880.376000000000
30
0.0
11
3397.324000000000
21
1260.376000000000
31
0.0
0
POLYLINE
5
741
100
AcDbEntity
8
0-9扉体
6
CONTINUOUS
62
  4
100
AcDb2dPolyline
66
1
10
0.0
20
0.0
30
0.0
70
0
0
VERTEX
5
742
100
AcDbEntity
8
0-9扉体
6
CONTINUOUS
62
  4
100
AcDbVertex
100
AcDb2dVertex
10
3387.324000000000
20
2870.376000000000
30
0.0
0
VERTEX
5
743
100
AcDbEntity
8
0-9扉体
6
CONTINUOUS
62
  4
100
AcDbVertex
100
AcDb2dVertex
10
3387.324000000000
20
1270.376000000000
30
0.0
0
VERTEX
5
744
100
AcDbEntity
8
0-9扉体
6
CONTINUOUS
62
  4
100
AcDbVertex
100
AcDb2dVertex
10
1787.324000000000
20
1270.376000000000
30
0.0
0
SEQEND
5
745
100
AcDbEntity
8
0-9扉体
0
LINE
5
746
100
AcDbEntity
8
0-9扉体
6
CONTINUOUS
62
3
100
AcDbLine
10
2257.324000000000
20
2888.376000000000
30
0.0
11
2257.324000000000
21
2870.376000000000
31
0.0
0
LINE
5
747
100
AcDbEntity
8
0-9扉体
6
CONTINUOUS
62
4
100
AcDbLine
10
2257.324000000000
20
2880.376000000000
30
0.0
11
2522.324000000000
21
2880.376000000000
31
0.0
0
LINE
5
748
100
AcDbEntity
8
0-9扉体
6
CONTINUOUS
62
7
100
AcDbLine
10
2236.324000000000
20
2918.976000000000
30
0.0
11
2236.324000000000
21
2898.974000000000
31
0.0
0
LINE
5
749
100
AcDbEntity
8
0-9扉体
6
CONTINUOUS
62
7
100
AcDbLine
10
2198.324000000000
20
2918.976000000000
30
0.0
11
2198.324000000000
21
2898.974000000000
31
0.0
0
LINE
5
74a
100
AcDbEntity
8
0-9扉体
6
CONTINUOUS
62
7
100
AcDbLine
10
2198.324000000000
20
2918.976000000000
30
0.0
11
2236.324000000000
21
2918.976000000000
31
0.0
0
LINE
5
74b
100
AcDbEntity
8
0-9扉体
6
CONTINUOUS
62
7
100
AcDbLine
10
2217.324000000000
20
2917.278000000000
30
0.0
11
2217.324000000000
21
2898.974000000000
31
0.0
0
LINE
5
74c
100
AcDbEntity
8
0-9扉体
6
CONTINUOUS
62
4
100
AcDbLine
10
2243.324000000000
20
2892.976000000000
30
0.0
11
2191.324000000000
21
2892.976000000000
31
0.0
0
LINE
5
74d
100
AcDbEntity
8
0-9扉体
6
CONTINUOUS
62
4
100
AcDbLine
10
2243.324000000000
20
2892.976000000000
30
0.0
11
2243.324000000000
21
2888.376000000000
31
0.0
0
LINE
5
74e
100
AcDbEntity
8
0-9扉体
6
CONTINUOUS
62
4
100
AcDbLine
10
2191.324000000000
20
2892.976000000000
30
0.0
11
2191.324000000000
21
2888.376000000000
31
0.0
0
LINE
5
74f
100
AcDbEntity
8
0-9扉体
6
CONTINUOUS
62
4
100
AcDbLine
10
2229.324000000000
20
2938.376000000000
30
0.0
11
2205.324000000000
21
2938.376000000000
31
0.0
0
LINE
5
750
100
AcDbEntity
8
0-9扉体
6
CONTINUOUS
62
4
100
AcDbLine
10
2229.324000000000
20
2938.376000000000
30
0.0
11
2229.324000000000
21
2918.976000000000
31
0.0
0
LINE
5
751
100
AcDbEntity
8
0-9扉体
6
CONTINUOUS
62
4
100
AcDbLine
10
2205.324000000000
20
2938.376000000000
30
0.0
11
2205.324000000000
21
2918.976000000000
31
0.0
0
LINE
5
752
100
AcDbEntity
8
0-9扉体
6
CONTINUOUS
62
4
100
AcDbLine
10
2227.324000000000
20
2938.376000000000
30
0.0
11
2227.324000000000
21
2918.976000000000
31
0.0
0
LINE
5
753
100
AcDbEntity
8
0-9扉体
6
CONTINUOUS
62
4
100
AcDbLine
10
2207.324000000000
20
2938.376000000000
30
0.0
11
2207.324000000000
21
2918.976000000000
31
0.0
0
LINE
5
754
100
AcDbEntity
8
0-9扉体
6
CONTINUOUS
62
4
100
AcDbLine
10
2217.324000000000
20
2898.974000000000
30
0.0
11
2223.324000000000
21
2892.976000000000
31
0.0
0
LINE
5
755
100
AcDbEntity
8
0-9扉体
6
CONTINUOUS
62
4
100
AcDbLine
10
2217.324000000000
20
2892.976000000000
30
0.0
11
2211.324000000000
21
2898.974000000000
31
0.0
0
LINE
5
756
100
AcDbEntity
8
0-9扉体
6
CONTINUOUS
62
4
100
AcDbLine
10
2238.824000000000
20
2898.974000000000
30
0.0
11
2238.824000000000
21
2892.976000000000
31
0.0
0
POLYLINE
5
757
100
AcDbEntity
8
0-9扉体
6
CONTINUOUS
62
  4
100
AcDb2dPolyline
66
1
10
0.0
20
0.0
30
0.0
70
0
0
VERTEX
5
758
100
AcDbEntity
8
0-9扉体
6
CONTINUOUS
62
  4
100
AcDbVertex
100
AcDb2dVertex
10
2238.824000000000
20
2898.974000000000
30
0.0
0
VERTEX
5
759
100
AcDbEntity
8
0-9扉体
6
CONTINUOUS
62
  4
100
AcDbVertex
100
AcDb2dVertex
10
2195.824000000000
20
2898.974000000000
30
0.0
0
VERTEX
5
75a
100
AcDbEntity
8
0-9扉体
6
CONTINUOUS
62
  4
100
AcDbVertex
100
AcDb2dVertex
10
2195.824000000000
20
2892.976000000000
30
0.0
0
SEQEND
5
75b
100
AcDbEntity
8
0-9扉体
0
LINE
5
75c
100
AcDbEntity
8
0-5基準線
6
CENTER2
62
7
100
AcDbLine
10
2217.324000000000
20
2898.974000000000
30
0.0
11
2217.324000000000
21
2867.448000000000
31
0.0
0
LINE
5
75d
100
AcDbEntity
8
0-5基準線
6
CENTER2
62
7
100
AcDbLine
10
2217.324000000000
20
2944.284000000000
30
0.0
11
2217.324000000000
21
2917.278000000000
31
0.0
0
LINE
5
75e
100
AcDbEntity
8
0-9扉体
6
CONTINUOUS
62
7
100
AcDbLine
10
1978.324000000000
20
2918.976000000000
30
0.0
11
1978.324000000000
21
2898.974000000000
31
0.0
0
LINE
5
75f
100
AcDbEntity
8
0-9扉体
6
CONTINUOUS
62
7
100
AcDbLine
10
2016.324000000000
20
2918.976000000000
30
0.0
11
2016.324000000000
21
2898.974000000000
31
0.0
0
LINE
5
760
100
AcDbEntity
8
0-9扉体
6
CONTINUOUS
62
7
100
AcDbLine
10
2016.324000000000
20
2918.976000000000
30
0.0
11
1978.324000000000
21
2918.976000000000
31
0.0
0
LINE
5
761
100
AcDbEntity
8
0-9扉体
6
CONTINUOUS
62
7
100
AcDbLine
10
1997.324000000000
20
2917.278000000000
30
0.0
11
1997.324000000000
21
2898.974000000000
31
0.0
0
LINE
5
762
100
AcDbEntity
8
0-9扉体
6
CONTINUOUS
62
3
100
AcDbLine
10
1957.324000000000
20
2888.376000000000
30
0.0
11
1957.324000000000
21
2870.376000000000
31
0.0
0
LINE
5
763
100
AcDbEntity
8
0-9扉体
6
CONTINUOUS
62
4
100
AcDbLine
10
1777.324000000000
20
2880.376000000000
30
0.0
11
1957.324000000000
21
2880.376000000000
31
0.0
0
LINE
5
764
100
AcDbEntity
8
0-9扉体
6
CONTINUOUS
62
4
100
AcDbLine
10
1971.324000000000
20
2892.976000000000
30
0.0
11
2023.324000000000
21
2892.976000000000
31
0.0
0
LINE
5
765
100
AcDbEntity
8
0-9扉体
6
CONTINUOUS
62
4
100
AcDbLine
10
1971.324000000000
20
2892.976000000000
30
0.0
11
1971.324000000000
21
2888.376000000000
31
0.0
0
LINE
5
766
100
AcDbEntity
8
0-9扉体
6
CONTINUOUS
62
4
100
AcDbLine
10
2023.324000000000
20
2892.976000000000
30
0.0
11
2023.324000000000
21
2888.376000000000
31
0.0
0
LINE
5
767
100
AcDbEntity
8
0-9扉体
6
CONTINUOUS
62
4
100
AcDbLine
10
1985.324000000000
20
2938.376000000000
30
0.0
11
2009.324000000000
21
2938.376000000000
31
0.0
0
LINE
5
768
100
AcDbEntity
8
0-9扉体
6
CONTINUOUS
62
4
100
AcDbLine
10
1985.324000000000
20
2938.376000000000
30
0.0
11
1985.324000000000
21
2918.976000000000
31
0.0
0
LINE
5
769
100
AcDbEntity
8
0-9扉体
6
CONTINUOUS
62
4
100
AcDbLine
10
2009.324000000000
20
2938.376000000000
30
0.0
11
2009.324000000000
21
2918.976000000000
31
0.0
0
LINE
5
76a
100
AcDbEntity
8
0-9扉体
6
CONTINUOUS
62
4
100
AcDbLine
10
1987.324000000000
20
2938.376000000000
30
0.0
11
1987.324000000000
21
2918.976000000000
31
0.0
0
LINE
5
76b
100
AcDbEntity
8
0-9扉体
6
CONTINUOUS
62
4
100
AcDbLine
10
2007.324000000000
20
2938.376000000000
30
0.0
11
2007.324000000000
21
2918.976000000000
31
0.0
0
LINE
5
76c
100
AcDbEntity
8
0-9扉体
6
CONTINUOUS
62
4
100
AcDbLine
10
1997.324000000000
20
2898.974000000000
30
0.0
11
1991.324000000000
21
2892.976000000000
31
0.0
0
LINE
5
76d
100
AcDbEntity
8
0-9扉体
6
CONTINUOUS
62
4
100
AcDbLine
10
1997.324000000000
20
2892.976000000000
30
0.0
11
2003.324000000000
21
2898.974000000000
31
0.0
0
LINE
5
76e
100
AcDbEntity
8
0-9扉体
6
CONTINUOUS
62
4
100
AcDbLine
10
1975.824000000000
20
2898.974000000000
30
0.0
11
1975.824000000000
21
2892.976000000000
31
0.0
0
LINE
5
76f
100
AcDbEntity
8
0-9扉体
6
CONTINUOUS
62
4
100
AcDbLine
10
2018.824000000000
20
2898.974000000000
30
0.0
11
2018.824000000000
21
2892.976000000000
31
0.0
0
LINE
5
770
100
AcDbEntity
8
0-5基準線
6
CENTER2
62
7
100
AcDbLine
10
1997.324000000000
20
2944.284000000000
30
0.0
11
1997.324000000000
21
2917.278000000000
31
0.0
0
LINE
5
771
100
AcDbEntity
8
0-9扉体
6
CONTINUOUS
62
4
100
AcDbLine
10
1975.824000000000
20
2898.974000000000
30
0.0
11
2018.824000000000
21
2898.974000000000
31
0.0
0
LINE
5
772
100
AcDbEntity
8
0-5基準線
6
CENTER2
62
7
100
AcDbLine
10
1997.324000000000
20
2898.974000000000
30
0.0
11
1997.324000000000
21
2870.376000000000
31
0.0
0
LINE
5
773
100
AcDbEntity
8
0-9扉体
6
CONTINUOUS
62
3
100
AcDbLine
10
2257.324000000000
20
2888.376000000000
30
0.0
11
1957.324000000000
21
2888.376000000000
31
0.0
0
POLYLINE
5
774
100
AcDbEntity
8
0-9扉体
6
CONTINUOUS
62
  3
100
AcDb2dPolyline
66
1
10
0.0
20
0.0
30
0.0
70
0
0
VERTEX
5
775
100
AcDbEntity
8
0-9扉体
6
CONTINUOUS
62
  3
100
AcDbVertex
100
AcDb2dVertex
10
2037.324000000000
20
3018.376000000000
30
0.0
0
VERTEX
5
776
100
AcDbEntity
8
0-9扉体
6
CONTINUOUS
62
  3
100
AcDbVertex
100
AcDb2dVertex
10
2055.324000000000
20
3018.376000000000
30
0.0
0
VERTEX
5
777
100
AcDbEntity
8
0-9扉体
6
CONTINUOUS
62
  3
100
AcDbVertex
100
AcDb2dVertex
10
2055.324000000000
20
2888.376000000000
30
0.0
0
SEQEND
5
778
100
AcDbEntity
8
0-9扉体
0
LINE
5
779
100
AcDbEntity
8
0-9扉体
6
CONTINUOUS
62
3
100
AcDbLine
10
2037.324000000000
20
3018.376000000000
30
0.0
11
2037.324000000000
21
2888.376000000000
31
0.0
0
LINE
5
77a
100
AcDbEntity
8
0-9扉体
6
CONTINUOUS
62
6
100
AcDbLine
10
2032.124000000000
20
3002.376000000000
30
0.0
11
2032.124000000000
21
2938.376000000000
31
0.0
0
LINE
5
77b
100
AcDbEntity
8
0-9扉体
6
CONTINUOUS
62
6
100
AcDbLine
10
2032.124000000000
20
3002.376000000000
30
0.0
11
2037.324000000000
21
3002.376000000000
31
0.0
0
LINE
5
77c
100
AcDbEntity
8
0-9扉体
6
CONTINUOUS
62
6
100
AcDbLine
10
2032.124000000000
20
2938.376000000000
30
0.0
11
2037.324000000000
21
2938.376000000000
31
0.0
0
LINE
5
77d
100
AcDbEntity
8
0-9扉体
6
CONTINUOUS
62
6
100
AcDbLine
10
2010.324000000000
20
2990.376000000000
30
0.0
11
2032.124000000000
21
2990.376000000000
31
0.0
0
LINE
5
77e
100
AcDbEntity
8
0-9扉体
6
CONTINUOUS
62
6
100
AcDbLine
10
2055.324000000000
20
2990.376000000000
30
0.0
11
2059.324000000000
21
2990.376000000000
31
0.0
0
LINE
5
77f
100
AcDbEntity
8
0-9扉体
6
CONTINUOUS
62
6
100
AcDbLine
10
2010.324000000000
20
2950.376000000000
30
0.0
11
2032.124000000000
21
2950.376000000000
31
0.0
0
LINE
5
780
100
AcDbEntity
8
0-9扉体
6
CONTINUOUS
62
6
100
AcDbLine
10
2055.324000000000
20
2950.376000000000
30
0.0
11
2059.324000000000
21
2950.376000000000
31
0.0
0
LINE
5
781
100
AcDbEntity
8
0-9扉体
6
CONTINUOUS
62
6
100
AcDbLine
10
2010.324000000000
20
2990.376000000000
30
0.0
11
2010.324000000000
21
2950.376000000000
31
0.0
0
LINE
5
782
100
AcDbEntity
8
0-9扉体
6
CONTINUOUS
62
6
100
AcDbLine
10
2182.524000000000
20
3002.376000000000
30
0.0
11
2182.524000000000
21
2938.376000000000
31
0.0
0
LINE
5
783
100
AcDbEntity
8
0-9扉体
6
CONTINUOUS
62
6
100
AcDbLine
10
2182.524000000000
20
3002.376000000000
30
0.0
11
2177.324000000000
21
3002.376000000000
31
0.0
0
LINE
5
784
100
AcDbEntity
8
0-9扉体
6
CONTINUOUS
62
6
100
AcDbLine
10
2182.524000000000
20
2938.376000000000
30
0.0
11
2177.324000000000
21
2938.376000000000
31
0.0
0
POLYLINE
5
785
100
AcDbEntity
8
0-9扉体
6
CONTINUOUS
62
  3
100
AcDb2dPolyline
66
1
10
0.0
20
0.0
30
0.0
70
0
0
VERTEX
5
786
100
AcDbEntity
8
0-9扉体
6
CONTINUOUS
62
  3
100
AcDbVertex
100
AcDb2dVertex
10
2177.324000000000
20
3018.376000000000
30
0.0
0
VERTEX
5
787
100
AcDbEntity
8
0-9扉体
6
CONTINUOUS
62
  3
100
AcDbVertex
100
AcDb2dVertex
10
2159.324000000000
20
3018.376000000000
30
0.0
0
VERTEX
5
788
100
AcDbEntity
8
0-9扉体
6
CONTINUOUS
62
  3
100
AcDbVertex
100
AcDb2dVertex
10
2159.324000000000
20
2888.376000000000
30
0.0
0
SEQEND
5
789
100
AcDbEntity
8
0-9扉体
0
LINE
5
78a
100
AcDbEntity
8
0-9扉体
6
CONTINUOUS
62
3
100
AcDbLine
10
2177.324000000000
20
3018.376000000000
30
0.0
11
2177.324000000000
21
2888.376000000000
31
0.0
0
LINE
5
78b
100
AcDbEntity
8
0-9扉体
6
CONTINUOUS
62
6
100
AcDbLine
10
2204.324000000000
20
2990.376000000000
30
0.0
11
2182.524000000000
21
2990.376000000000
31
0.0
0
LINE
5
78c
100
AcDbEntity
8
0-9扉体
6
CONTINUOUS
62
6
100
AcDbLine
10
2159.324000000000
20
2990.376000000000
30
0.0
11
2155.324000000000
21
2990.376000000000
31
0.0
0
LINE
5
78d
100
AcDbEntity
8
0-9扉体
6
CONTINUOUS
62
6
100
AcDbLine
10
2204.324000000000
20
2950.376000000000
30
0.0
11
2182.524000000000
21
2950.376000000000
31
0.0
0
LINE
5
78e
100
AcDbEntity
8
0-9扉体
6
CONTINUOUS
62
6
100
AcDbLine
10
2159.324000000000
20
2950.376000000000
30
0.0
11
2155.324000000000
21
2950.376000000000
31
0.0
0
LINE
5
78f
100
AcDbEntity
8
0-9扉体
6
CONTINUOUS
62
6
100
AcDbLine
10
2204.324000000000
20
2990.376000000000
30
0.0
11
2204.324000000000
21
2950.376000000000
31
0.0
0
LINE
5
790
100
AcDbEntity
8
0-5基準線
6
CENTER2
62
7
100
AcDbLine
10
1997.324000000000
20
2970.376000000000
30
0.0
11
2217.324000000000
21
2970.376000000000
31
0.0
0
LINE
5
791
100
AcDbEntity
8
0-6戸当り
6
DOT
62
6
100
AcDbLine
10
2059.324000000000
20
2993.376000000000
30
0.0
11
2155.324000000000
21
2993.376000000000
31
0.0
0
LINE
5
792
100
AcDbEntity
8
0-6戸当り
6
DOT
62
6
100
AcDbLine
10
2059.324000000000
20
2947.376000000000
30
0.0
11
2155.324000000000
21
2947.376000000000
31
0.0
0
LINE
5
793
100
AcDbEntity
8
0-5基準線
6
CENTER2
62
7
100
AcDbLine
10
3067.324000000000
20
3056.274000000000
30
0.0
11
3067.324000000000
21
2847.448000000000
31
0.0
0
LINE
5
794
100
AcDbEntity
8
0-9扉体
6
CONTINUOUS
62
3
100
AcDbLine
10
3217.324000000000
20
2888.376000000000
30
0.0
11
3217.324000000000
21
2870.376000000000
31
0.0
0
LINE
5
795
100
AcDbEntity
8
0-9扉体
6
CONTINUOUS
62
7
100
AcDbLine
10
3196.324000000000
20
2918.976000000000
30
0.0
11
3196.324000000000
21
2898.974000000000
31
0.0
0
LINE
5
796
100
AcDbEntity
8
0-9扉体
6
CONTINUOUS
62
7
100
AcDbLine
10
3158.324000000000
20
2918.976000000000
30
0.0
11
3158.324000000000
21
2898.974000000000
31
0.0
0
LINE
5
797
100
AcDbEntity
8
0-9扉体
6
CONTINUOUS
62
7
100
AcDbLine
10
3158.324000000000
20
2918.976000000000
30
0.0
11
3196.324000000000
21
2918.976000000000
31
0.0
0
LINE
5
798
100
AcDbEntity
8
0-9扉体
6
CONTINUOUS
62
7
100
AcDbLine
10
3177.324000000000
20
2917.278000000000
30
0.0
11
3177.324000000000
21
2898.974000000000
31
0.0
0
LINE
5
799
100
AcDbEntity
8
0-9扉体
6
CONTINUOUS
62
4
100
AcDbLine
10
3203.324000000000
20
2892.976000000000
30
0.0
11
3151.324000000000
21
2892.976000000000
31
0.0
0
LINE
5
79a
100
AcDbEntity
8
0-9扉体
6
CONTINUOUS
62
4
100
AcDbLine
10
3203.324000000000
20
2892.976000000000
30
0.0
11
3203.324000000000
21
2888.376000000000
31
0.0
0
LINE
5
79b
100
AcDbEntity
8
0-9扉体
6
CONTINUOUS
62
4
100
AcDbLine
10
3151.324000000000
20
2892.976000000000
30
0.0
11
3151.324000000000
21
2888.376000000000
31
0.0
0
LINE
5
79c
100
AcDbEntity
8
0-9扉体
6
CONTINUOUS
62
4
100
AcDbLine
10
3189.324000000000
20
2938.376000000000
30
0.0
11
3165.324000000000
21
2938.376000000000
31
0.0
0
LINE
5
79d
100
AcDbEntity
8
0-9扉体
6
CONTINUOUS
62
4
100
AcDbLine
10
3189.324000000000
20
2938.376000000000
30
0.0
11
3189.324000000000
21
2918.976000000000
31
0.0
0
LINE
5
79e
100
AcDbEntity
8
0-9扉体
6
CONTINUOUS
62
4
100
AcDbLine
10
3165.324000000000
20
2938.376000000000
30
0.0
11
3165.324000000000
21
2918.976000000000
31
0.0
0
LINE
5
79f
100
AcDbEntity
8
0-9扉体
6
CONTINUOUS
62
4
100
AcDbLine
10
3187.324000000000
20
2938.376000000000
30
0.0
11
3187.324000000000
21
2918.976000000000
31
0.0
0
LINE
5
7a0
100
AcDbEntity
8
0-9扉体
6
CONTINUOUS
62
4
100
AcDbLine
10
3167.324000000000
20
2938.376000000000
30
0.0
11
3167.324000000000
21
2918.976000000000
31
0.0
0
LINE
5
7a1
100
AcDbEntity
8
0-9扉体
6
CONTINUOUS
62
4
100
AcDbLine
10
3177.324000000000
20
2898.974000000000
30
0.0
11
3183.324000000000
21
2892.976000000000
31
0.0
0
LINE
5
7a2
100
AcDbEntity
8
0-9扉体
6
CONTINUOUS
62
4
100
AcDbLine
10
3177.324000000000
20
2892.976000000000
30
0.0
11
3171.324000000000
21
2898.974000000000
31
0.0
0
LINE
5
7a3
100
AcDbEntity
8
0-9扉体
6
CONTINUOUS
62
4
100
AcDbLine
10
3198.824000000000
20
2898.974000000000
30
0.0
11
3198.824000000000
21
2892.976000000000
31
0.0
0
POLYLINE
5
7a4
100
AcDbEntity
8
0-9扉体
6
CONTINUOUS
62
  4
100
AcDb2dPolyline
66
1
10
0.0
20
0.0
30
0.0
70
0
0
VERTEX
5
7a5
100
AcDbEntity
8
0-9扉体
6
CONTINUOUS
62
  4
100
AcDbVertex
100
AcDb2dVertex
10
3198.824000000000
20
2898.974000000000
30
0.0
0
VERTEX
5
7a6
100
AcDbEntity
8
0-9扉体
6
CONTINUOUS
62
  4
100
AcDbVertex
100
AcDb2dVertex
10
3155.824000000000
20
2898.974000000000
30
0.0
0
VERTEX
5
7a7
100
AcDbEntity
8
0-9扉体
6
CONTINUOUS
62
  4
100
AcDbVertex
100
AcDb2dVertex
10
3155.824000000000
20
2892.976000000000
30
0.0
0
SEQEND
5
7a8
100
AcDbEntity
8
0-9扉体
0
LINE
5
7a9
100
AcDbEntity
8
0-5基準線
6
CENTER2
62
7
100
AcDbLine
10
3177.324000000000
20
2898.974000000000
30
0.0
11
3177.324000000000
21
2867.448000000000
31
0.0
0
LINE
5
7aa
100
AcDbEntity
8
0-5基準線
6
CENTER2
62
7
100
AcDbLine
10
3177.324000000000
20
2944.284000000000
30
0.0
11
3177.324000000000
21
2917.278000000000
31
0.0
0
LINE
5
7ab
100
AcDbEntity
8
0-9扉体
6
CONTINUOUS
62
7
100
AcDbLine
10
2938.324000000000
20
2918.976000000000
30
0.0
11
2938.324000000000
21
2898.974000000000
31
0.0
0
LINE
5
7ac
100
AcDbEntity
8
0-9扉体
6
CONTINUOUS
62
7
100
AcDbLine
10
2976.324000000000
20
2918.976000000000
30
0.0
11
2976.324000000000
21
2898.974000000000
31
0.0
0
LINE
5
7ad
100
AcDbEntity
8
0-9扉体
6
CONTINUOUS
62
7
100
AcDbLine
10
2976.324000000000
20
2918.976000000000
30
0.0
11
2938.324000000000
21
2918.976000000000
31
0.0
0
LINE
5
7ae
100
AcDbEntity
8
0-9扉体
6
CONTINUOUS
62
7
100
AcDbLine
10
2957.324000000000
20
2917.278000000000
30
0.0
11
2957.324000000000
21
2898.974000000000
31
0.0
0
LINE
5
7af
100
AcDbEntity
8
0-9扉体
6
CONTINUOUS
62
3
100
AcDbLine
10
2917.324000000000
20
2888.376000000000
30
0.0
11
2917.324000000000
21
2870.376000000000
31
0.0
0
LINE
5
7b0
100
AcDbEntity
8
0-9扉体
6
CONTINUOUS
62
4
100
AcDbLine
10
2931.324000000000
20
2892.976000000000
30
0.0
11
2983.324000000000
21
2892.976000000000
31
0.0
0
LINE
5
7b1
100
AcDbEntity
8
0-9扉体
6
CONTINUOUS
62
4
100
AcDbLine
10
2931.324000000000
20
2892.976000000000
30
0.0
11
2931.324000000000
21
2888.376000000000
31
0.0
0
LINE
5
7b2
100
AcDbEntity
8
0-9扉体
6
CONTINUOUS
62
4
100
AcDbLine
10
2983.324000000000
20
2892.976000000000
30
0.0
11
2983.324000000000
21
2888.376000000000
31
0.0
0
LINE
5
7b3
100
AcDbEntity
8
0-9扉体
6
CONTINUOUS
62
4
100
AcDbLine
10
2945.326000000000
20
2938.376000000000
30
0.0
11
2969.324000000000
21
2938.376000000000
31
0.0
0
LINE
5
7b4
100
AcDbEntity
8
0-9扉体
6
CONTINUOUS
62
4
100
AcDbLine
10
2945.326000000000
20
2938.376000000000
30
0.0
11
2945.326000000000
21
2918.976000000000
31
0.0
0
LINE
5
7b5
100
AcDbEntity
8
0-9扉体
6
CONTINUOUS
62
4
100
AcDbLine
10
2969.324000000000
20
2938.376000000000
30
0.0
11
2969.324000000000
21
2918.976000000000
31
0.0
0
LINE
5
7b6
100
AcDbEntity
8
0-9扉体
6
CONTINUOUS
62
4
100
AcDbLine
10
2947.324000000000
20
2938.376000000000
30
0.0
11
2947.324000000000
21
2918.976000000000
31
0.0
0
LINE
5
7b7
100
AcDbEntity
8
0-9扉体
6
CONTINUOUS
62
4
100
AcDbLine
10
2967.324000000000
20
2938.376000000000
30
0.0
11
2967.324000000000
21
2918.976000000000
31
0.0
0
LINE
5
7b8
100
AcDbEntity
8
0-9扉体
6
CONTINUOUS
62
4
100
AcDbLine
10
2957.324000000000
20
2898.974000000000
30
0.0
11
2951.324000000000
21
2892.976000000000
31
0.0
0
LINE
5
7b9
100
AcDbEntity
8
0-9扉体
6
CONTINUOUS
62
4
100
AcDbLine
10
2957.324000000000
20
2892.976000000000
30
0.0
11
2963.324000000000
21
2898.974000000000
31
0.0
0
LINE
5
7ba
100
AcDbEntity
8
0-9扉体
6
CONTINUOUS
62
4
100
AcDbLine
10
2935.824000000000
20
2898.974000000000
30
0.0
11
2935.824000000000
21
2892.976000000000
31
0.0
0
LINE
5
7bb
100
AcDbEntity
8
0-9扉体
6
CONTINUOUS
62
4
100
AcDbLine
10
2978.824000000000
20
2898.974000000000
30
0.0
11
2978.824000000000
21
2892.976000000000
31
0.0
0
LINE
5
7bc
100
AcDbEntity
8
0-5基準線
6
CENTER2
62
7
100
AcDbLine
10
2957.324000000000
20
2944.284000000000
30
0.0
11
2957.324000000000
21
2917.278000000000
31
0.0
0
LINE
5
7bd
100
AcDbEntity
8
0-9扉体
6
CONTINUOUS
62
4
100
AcDbLine
10
2935.824000000000
20
2898.974000000000
30
0.0
11
2978.824000000000
21
2898.974000000000
31
0.0
0
LINE
5
7be
100
AcDbEntity
8
0-5基準線
6
CENTER2
62
7
100
AcDbLine
10
2957.324000000000
20
2898.974000000000
30
0.0
11
2957.324000000000
21
2870.376000000000
31
0.0
0
LINE
5
7bf
100
AcDbEntity
8
0-9扉体
6
CONTINUOUS
62
3
100
AcDbLine
10
3217.324000000000
20
2888.376000000000
30
0.0
11
2917.324000000000
21
2888.376000000000
31
0.0
0
POLYLINE
5
7c0
100
AcDbEntity
8
0-9扉体
6
CONTINUOUS
62
  3
100
AcDb2dPolyline
66
1
10
0.0
20
0.0
30
0.0
70
0
0
VERTEX
5
7c1
100
AcDbEntity
8
0-9扉体
6
CONTINUOUS
62
  3
100
AcDbVertex
100
AcDb2dVertex
10
2997.326000000000
20
3018.376000000000
30
0.0
0
VERTEX
5
7c2
100
AcDbEntity
8
0-9扉体
6
CONTINUOUS
62
  3
100
AcDbVertex
100
AcDb2dVertex
10
3015.324000000000
20
3018.376000000000
30
0.0
0
VERTEX
5
7c3
100
AcDbEntity
8
0-9扉体
6
CONTINUOUS
62
  3
100
AcDbVertex
100
AcDb2dVertex
10
3015.324000000000
20
2888.376000000000
30
0.0
0
SEQEND
5
7c4
100
AcDbEntity
8
0-9扉体
0
LINE
5
7c5
100
AcDbEntity
8
0-9扉体
6
CONTINUOUS
62
3
100
AcDbLine
10
2997.326000000000
20
3018.376000000000
30
0.0
11
2997.326000000000
21
2888.376000000000
31
0.0
0
LINE
5
7c6
100
AcDbEntity
8
0-9扉体
6
CONTINUOUS
62
6
100
AcDbLine
10
2992.126000000000
20
3002.376000000000
30
0.0
11
2992.126000000000
21
2938.376000000000
31
0.0
0
LINE
5
7c7
100
AcDbEntity
8
0-9扉体
6
CONTINUOUS
62
6
100
AcDbLine
10
2992.126000000000
20
3002.376000000000
30
0.0
11
2997.326000000000
21
3002.376000000000
31
0.0
0
LINE
5
7c8
100
AcDbEntity
8
0-9扉体
6
CONTINUOUS
62
6
100
AcDbLine
10
2992.126000000000
20
2938.376000000000
30
0.0
11
2997.326000000000
21
2938.376000000000
31
0.0
0
LINE
5
7c9
100
AcDbEntity
8
0-9扉体
6
CONTINUOUS
62
6
100
AcDbLine
10
2970.324000000000
20
2990.376000000000
30
0.0
11
2992.126000000000
21
2990.376000000000
31
0.0
0
LINE
5
7ca
100
AcDbEntity
8
0-9扉体
6
CONTINUOUS
62
6
100
AcDbLine
10
3015.324000000000
20
2990.376000000000
30
0.0
11
3019.324000000000
21
2990.376000000000
31
0.0
0
LINE
5
7cb
100
AcDbEntity
8
0-9扉体
6
CONTINUOUS
62
6
100
AcDbLine
10
2970.324000000000
20
2950.376000000000
30
0.0
11
2992.126000000000
21
2950.376000000000
31
0.0
0
LINE
5
7cc
100
AcDbEntity
8
0-9扉体
6
CONTINUOUS
62
6
100
AcDbLine
10
3015.324000000000
20
2950.376000000000
30
0.0
11
3019.324000000000
21
2950.376000000000
31
0.0
0
LINE
5
7cd
100
AcDbEntity
8
0-9扉体
6
CONTINUOUS
62
6
100
AcDbLine
10
2970.324000000000
20
2990.376000000000
30
0.0
11
2970.324000000000
21
2950.376000000000
31
0.0
0
LINE
5
7ce
100
AcDbEntity
8
0-9扉体
6
CONTINUOUS
62
6
100
AcDbLine
10
3142.524000000000
20
3002.376000000000
30
0.0
11
3142.524000000000
21
2938.376000000000
31
0.0
0
LINE
5
7cf
100
AcDbEntity
8
0-9扉体
6
CONTINUOUS
62
6
100
AcDbLine
10
3142.524000000000
20
3002.376000000000
30
0.0
11
3137.324000000000
21
3002.376000000000
31
0.0
0
LINE
5
7d0
100
AcDbEntity
8
0-9扉体
6
CONTINUOUS
62
6
100
AcDbLine
10
3142.524000000000
20
2938.376000000000
30
0.0
11
3137.324000000000
21
2938.376000000000
31
0.0
0
POLYLINE
5
7d1
100
AcDbEntity
8
0-9扉体
6
CONTINUOUS
62
  3
100
AcDb2dPolyline
66
1
10
0.0
20
0.0
30
0.0
70
0
0
VERTEX
5
7d2
100
AcDbEntity
8
0-9扉体
6
CONTINUOUS
62
  3
100
AcDbVertex
100
AcDb2dVertex
10
3137.324000000000
20
3018.376000000000
30
0.0
0
VERTEX
5
7d3
100
AcDbEntity
8
0-9扉体
6
CONTINUOUS
62
  3
100
AcDbVertex
100
AcDb2dVertex
10
3119.324000000000
20
3018.376000000000
30
0.0
0
VERTEX
5
7d4
100
AcDbEntity
8
0-9扉体
6
CONTINUOUS
62
  3
100
AcDbVertex
100
AcDb2dVertex
10
3119.324000000000
20
2888.376000000000
30
0.0
0
SEQEND
5
7d5
100
AcDbEntity
8
0-9扉体
0
LINE
5
7d6
100
AcDbEntity
8
0-9扉体
6
CONTINUOUS
62
3
100
AcDbLine
10
3137.324000000000
20
3018.376000000000
30
0.0
11
3137.324000000000
21
2888.376000000000
31
0.0
0
LINE
5
7d7
100
AcDbEntity
8
0-9扉体
6
CONTINUOUS
62
6
100
AcDbLine
10
3164.324000000000
20
2990.376000000000
30
0.0
11
3142.524000000000
21
2990.376000000000
31
0.0
0
LINE
5
7d8
100
AcDbEntity
8
0-9扉体
6
CONTINUOUS
62
6
100
AcDbLine
10
3119.324000000000
20
2990.376000000000
30
0.0
11
3115.324000000000
21
2990.376000000000
31
0.0
0
LINE
5
7d9
100
AcDbEntity
8
0-9扉体
6
CONTINUOUS
62
6
100
AcDbLine
10
3164.324000000000
20
2950.376000000000
30
0.0
11
3142.524000000000
21
2950.376000000000
31
0.0
0
LINE
5
7da
100
AcDbEntity
8
0-9扉体
6
CONTINUOUS
62
6
100
AcDbLine
10
3119.324000000000
20
2950.376000000000
30
0.0
11
3115.324000000000
21
2950.376000000000
31
0.0
0
LINE
5
7db
100
AcDbEntity
8
0-9扉体
6
CONTINUOUS
62
6
100
AcDbLine
10
3164.324000000000
20
2990.376000000000
30
0.0
11
3164.324000000000
21
2950.376000000000
31
0.0
0
LINE
5
7dc
100
AcDbEntity
8
0-5基準線
6
CENTER2
62
7
100
AcDbLine
10
2957.324000000000
20
2970.376000000000
30
0.0
11
3177.324000000000
21
2970.376000000000
31
0.0
0
LINE
5
7dd
100
AcDbEntity
8
0-6戸当り
6
DOT
62
6
100
AcDbLine
10
3019.324000000000
20
2993.376000000000
30
0.0
11
3115.324000000000
21
2993.376000000000
31
0.0
0
LINE
5
7de
100
AcDbEntity
8
0-6戸当り
6
DOT
62
6
100
AcDbLine
10
3019.324000000000
20
2947.376000000000
30
0.0
11
3115.324000000000
21
2947.376000000000
31
0.0
0
LINE
5
7df
100
AcDbEntity
8
0-6戸当り
6
CONTINUOUS
62
6
100
AcDbLine
10
2059.324000000000
20
3013.376000000000
30
0.0
11
2155.324000000000
21
3013.376000000000
31
0.0
0
LINE
5
7e0
100
AcDbEntity
8
0-6戸当り
6
CONTINUOUS
62
6
100
AcDbLine
10
2059.324000000000
20
2927.376000000000
30
0.0
11
2155.324000000000
21
2927.376000000000
31
0.0
0
LINE
5
7e1
100
AcDbEntity
8
0-6戸当り
6
CONTINUOUS
62
6
100
AcDbLine
10
2059.324000000000
20
3013.376000000000
30
0.0
11
2059.324000000000
21
2927.376000000000
31
0.0
0
LINE
5
7e2
100
AcDbEntity
8
0-6戸当り
6
CONTINUOUS
62
6
100
AcDbLine
10
2155.324000000000
20
3013.376000000000
30
0.0
11
2155.324000000000
21
2927.376000000000
31
0.0
0
LINE
5
7e3
100
AcDbEntity
8
0-6戸当り
6
CONTINUOUS
62
6
100
AcDbLine
10
3019.324000000000
20
3013.376000000000
30
0.0
11
3115.324000000000
21
3013.376000000000
31
0.0
0
LINE
5
7e4
100
AcDbEntity
8
0-6戸当り
6
CONTINUOUS
62
6
100
AcDbLine
10
3019.324000000000
20
2927.376000000000
30
0.0
11
3115.324000000000
21
2927.376000000000
31
0.0
0
LINE
5
7e5
100
AcDbEntity
8
0-6戸当り
6
CONTINUOUS
62
6
100
AcDbLine
10
3019.324000000000
20
3013.376000000000
30
0.0
11
3019.324000000000
21
2927.376000000000
31
0.0
0
LINE
5
7e6
100
AcDbEntity
8
0-6戸当り
6
CONTINUOUS
62
6
100
AcDbLine
10
3115.324000000000
20
3013.376000000000
30
0.0
11
3115.324000000000
21
2927.376000000000
31
0.0
0
LINE
5
7e7
100
AcDbEntity
8
0-9扉体
6
CONTINUOUS
62
7
100
AcDbLine
10
2198.324000000000
20
4584.264000000000
30
0.0
11
2217.324000000000
21
4595.234000000000
31
0.0
0
LINE
5
7e8
100
AcDbEntity
8
0-9扉体
6
CONTINUOUS
62
7
100
AcDbLine
10
2198.324000000000
20
4584.264000000000
30
0.0
11
2198.324000000000
21
4562.324000000001
31
0.0
0
LINE
5
7e9
100
AcDbEntity
8
0-9扉体
6
CONTINUOUS
62
7
100
AcDbLine
10
2217.324000000000
20
4551.356000000000
30
0.0
11
2198.324000000000
21
4562.324000000001
31
0.0
0
POLYLINE
5
7ea
100
AcDbEntity
8
0-9扉体
6
CONTINUOUS
62
  7
100
AcDb2dPolyline
66
1
10
0.0
20
0.0
30
0.0
70
0
0
VERTEX
5
7eb
100
AcDbEntity
8
0-9扉体
6
CONTINUOUS
62
  7
100
AcDbVertex
100
AcDb2dVertex
10
2217.324000000000
20
4551.356000000000
30
0.0
0
VERTEX
5
7ec
100
AcDbEntity
8
0-9扉体
6
CONTINUOUS
62
  7
100
AcDbVertex
100
AcDb2dVertex
10
2236.324000000000
20
4562.324000000001
30
0.0
0
VERTEX
5
7ed
100
AcDbEntity
8
0-9扉体
6
CONTINUOUS
62
  7
100
AcDbVertex
100
AcDb2dVertex
10
2236.324000000000
20
4584.264000000000
30
0.0
0
VERTEX
5
7ee
100
AcDbEntity
8
0-9扉体
6
CONTINUOUS
62
  7
100
AcDbVertex
100
AcDb2dVertex
10
2217.324000000000
20
4595.234000000000
30
0.0
0
SEQEND
5
7ef
100
AcDbEntity
8
0-9扉体
0
LINE
5
7f0
100
AcDbEntity
8
0-5基準線
6
CENTER2
62
7
100
AcDbLine
10
2217.324000000000
20
4601.294000000000
30
0.0
11
2217.324000000000
21
4545.294000000000
31
0.0
0
LINE
5
7f1
100
AcDbEntity
8
0-5基準線
6
CENTER2
62
7
100
AcDbLine
10
2189.324000000000
20
4573.294000000000
30
0.0
11
2245.324000000000
21
4573.294000000000
31
0.0
0
POLYLINE
5
7f2
100
AcDbEntity
8
0-9扉体
6
CONTINUOUS
62
  6
100
AcDb2dPolyline
66
1
10
0.0
20
0.0
30
0.0
70
0
0
VERTEX
5
7f3
100
AcDbEntity
8
0-9扉体
6
CONTINUOUS
62
  6
100
AcDbVertex
100
AcDb2dVertex
10
2257.324000000000
20
4523.294000000000
30
0.0
0
VERTEX
5
7f4
100
AcDbEntity
8
0-9扉体
6
CONTINUOUS
62
  6
100
AcDbVertex
100
AcDb2dVertex
10
2257.324000000000
20
4623.294000000000
30
0.0
0
VERTEX
5
7f5
100
AcDbEntity
8
0-9扉体
6
CONTINUOUS
62
  6
100
AcDbVertex
100
AcDb2dVertex
10
2204.324000000000
20
4623.294000000000
30
0.0
0
SEQEND
5
7f6
100
AcDbEntity
8
0-9扉体
0
LINE
5
7f7
100
AcDbEntity
8
0-9扉体
6
CONTINUOUS
62
6
100
AcDbLine
10
1957.324000000000
20
4523.294000000000
30
0.0
11
1957.324000000000
21
4623.294000000000
31
0.0
0
LINE
5
7f8
100
AcDbEntity
8
0-9扉体
6
CONTINUOUS
62
7
100
AcDbLine
10
2016.324000000000
20
4584.264000000000
30
0.0
11
1997.324000000000
21
4595.234000000000
31
0.0
0
LINE
5
7f9
100
AcDbEntity
8
0-9扉体
6
CONTINUOUS
62
7
100
AcDbLine
10
2016.324000000000
20
4584.264000000000
30
0.0
11
2016.324000000000
21
4562.324000000001
31
0.0
0
LINE
5
7fa
100
AcDbEntity
8
0-9扉体
6
CONTINUOUS
62
7
100
AcDbLine
10
1997.324000000000
20
4551.356000000000
30
0.0
11
2016.324000000000
21
4562.324000000001
31
0.0
0
POLYLINE
5
7fb
100
AcDbEntity
8
0-9扉体
6
CONTINUOUS
62
  7
100
AcDb2dPolyline
66
1
10
0.0
20
0.0
30
0.0
70
0
0
VERTEX
5
7fc
100
AcDbEntity
8
0-9扉体
6
CONTINUOUS
62
  7
100
AcDbVertex
100
AcDb2dVertex
10
1997.324000000000
20
4551.356000000000
30
0.0
0
VERTEX
5
7fd
100
AcDbEntity
8
0-9扉体
6
CONTINUOUS
62
  7
100
AcDbVertex
100
AcDb2dVertex
10
1978.324000000000
20
4562.324000000001
30
0.0
0
VERTEX
5
7fe
100
AcDbEntity
8
0-9扉体
6
CONTINUOUS
62
  7
100
AcDbVertex
100
AcDb2dVertex
10
1978.324000000000
20
4584.264000000000
30
0.0
0
VERTEX
5
7ff
100
AcDbEntity
8
0-9扉体
6
CONTINUOUS
62
  7
100
AcDbVertex
100
AcDb2dVertex
10
1997.324000000000
20
4595.234000000000
30
0.0
0
SEQEND
5
800
100
AcDbEntity
8
0-9扉体
0
LINE
5
801
100
AcDbEntity
8
0-5基準線
6
CENTER2
62
7
100
AcDbLine
10
1997.324000000000
20
4601.294000000000
30
0.0
11
1997.324000000000
21
4545.294000000000
31
0.0
0
LINE
5
802
100
AcDbEntity
8
0-5基準線
6
CENTER2
62
7
100
AcDbLine
10
2025.324000000000
20
4573.294000000000
30
0.0
11
1969.324000000000
21
4573.294000000000
31
0.0
0
LINE
5
803
100
AcDbEntity
8
0-9扉体
6
CONTINUOUS
62
6
100
AcDbLine
10
1957.324000000000
20
4623.294000000000
30
0.0
11
2010.324000000000
21
4623.294000000000
31
0.0
0
LINE
5
804
100
AcDbEntity
8
0-9扉体
6
CONTINUOUS
62
6
100
AcDbLine
10
1957.324000000000
20
4523.294000000000
30
0.0
11
2257.324000000000
21
4523.294000000000
31
0.0
0
LINE
5
805
100
AcDbEntity
8
0-9扉体
6
CONTINUOUS
62
6
100
AcDbLine
10
2037.324000000000
20
4652.294000000000
30
0.0
11
2055.324000000000
21
4652.294000000000
31
0.0
0
LINE
5
806
100
AcDbEntity
8
0-9扉体
6
CONTINUOUS
62
6
100
AcDbLine
10
2037.324000000000
20
4582.294000000000
30
0.0
11
2055.324000000000
21
4582.294000000000
31
0.0
0
LINE
5
807
100
AcDbEntity
8
0-9扉体
6
CONTINUOUS
62
6
100
AcDbLine
10
2032.124000000000
20
4649.294000000000
30
0.0
11
2032.124000000000
21
4585.294000000000
31
0.0
0
LINE
5
808
100
AcDbEntity
8
0-9扉体
6
CONTINUOUS
62
6
100
AcDbLine
10
2010.324000000000
20
4601.294000000000
30
0.0
11
2032.124000000000
21
4601.294000000000
31
0.0
0
LINE
5
809
100
AcDbEntity
8
0-9扉体
6
CONTINUOUS
62
6
100
AcDbLine
10
2055.324000000000
20
4601.294000000000
30
0.0
11
2059.324000000000
21
4601.294000000000
31
0.0
0
LINE
5
80a
100
AcDbEntity
8
0-9扉体
6
CONTINUOUS
62
6
100
AcDbLine
10
2055.324000000000
20
4633.294000000000
30
0.0
11
2059.324000000000
21
4633.294000000000
31
0.0
0
LINE
5
80b
100
AcDbEntity
8
0-9扉体
6
CONTINUOUS
62
6
100
AcDbLine
10
2032.124000000000
20
4649.294000000000
30
0.0
11
2037.324000000000
21
4649.294000000000
31
0.0
0
LINE
5
80c
100
AcDbEntity
8
0-9扉体
6
CONTINUOUS
62
6
100
AcDbLine
10
2032.124000000000
20
4585.294000000000
30
0.0
11
2037.324000000000
21
4585.294000000000
31
0.0
0
LINE
5
80d
100
AcDbEntity
8
0-9扉体
6
CONTINUOUS
62
6
100
AcDbLine
10
2037.324000000000
20
4523.294000000000
30
0.0
11
2037.324000000000
21
4652.294000000000
31
0.0
0
LINE
5
80e
100
AcDbEntity
8
0-9扉体
6
CONTINUOUS
62
6
100
AcDbLine
10
2055.324000000000
20
4523.294000000000
30
0.0
11
2055.324000000000
21
4652.294000000000
31
0.0
0
LINE
5
80f
100
AcDbEntity
8
0-9扉体
6
CONTINUOUS
62
6
100
AcDbLine
10
2010.324000000000
20
4633.294000000000
30
0.0
11
2010.324000000000
21
4601.294000000000
31
0.0
0
LINE
5
810
100
AcDbEntity
8
0-9扉体
6
CONTINUOUS
62
6
100
AcDbLine
10
2010.324000000000
20
4633.294000000000
30
0.0
11
2032.124000000000
21
4633.294000000000
31
0.0
0
LINE
5
811
100
AcDbEntity
8
0-9扉体
6
CONTINUOUS
62
6
100
AcDbLine
10
2050.584000000000
20
4652.294000000000
30
0.0
11
2059.324000000000
21
4661.032000000000
31
0.0
0
LINE
5
812
100
AcDbEntity
8
0-9扉体
6
CONTINUOUS
62
6
100
AcDbLine
10
2053.412000000000
20
4652.294000000000
30
0.0
11
2059.324000000000
21
4658.206000000000
31
0.0
0
LINE
5
813
100
AcDbEntity
8
0-6戸当り
6
CONTINUOUS
62
2
100
AcDbLine
10
2059.324000000000
20
4525.294000000000
30
0.0
11
2059.324000000000
21
4685.294000000000
31
0.0
0
LINE
5
814
100
AcDbEntity
8
0-9扉体
6
CONTINUOUS
62
6
100
AcDbLine
10
2182.524000000000
20
4649.294000000000
30
0.0
11
2182.524000000000
21
4585.294000000000
31
0.0
0
LINE
5
815
100
AcDbEntity
8
0-9扉体
6
CONTINUOUS
62
6
100
AcDbLine
10
2182.524000000000
20
4649.294000000000
30
0.0
11
2177.324000000000
21
4649.294000000000
31
0.0
0
LINE
5
816
100
AcDbEntity
8
0-9扉体
6
CONTINUOUS
62
6
100
AcDbLine
10
2182.524000000000
20
4585.294000000000
30
0.0
11
2177.324000000000
21
4585.294000000000
31
0.0
0
LINE
5
817
100
AcDbEntity
8
0-9扉体
6
CONTINUOUS
62
6
100
AcDbLine
10
2204.324000000000
20
4601.294000000000
30
0.0
11
2182.524000000000
21
4601.294000000000
31
0.0
0
LINE
5
818
100
AcDbEntity
8
0-9扉体
6
CONTINUOUS
62
6
100
AcDbLine
10
2159.324000000000
20
4601.294000000000
30
0.0
11
2155.324000000000
21
4601.294000000000
31
0.0
0
LINE
5
819
100
AcDbEntity
8
0-9扉体
6
CONTINUOUS
62
6
100
AcDbLine
10
2159.324000000000
20
4633.294000000000
30
0.0
11
2155.324000000000
21
4633.294000000000
31
0.0
0
LINE
5
81a
100
AcDbEntity
8
0-9扉体
6
CONTINUOUS
62
6
100
AcDbLine
10
2177.324000000000
20
4652.294000000000
30
0.0
11
2159.324000000000
21
4652.294000000000
31
0.0
0
LINE
5
81b
100
AcDbEntity
8
0-9扉体
6
CONTINUOUS
62
6
100
AcDbLine
10
2177.324000000000
20
4582.294000000000
30
0.0
11
2159.324000000000
21
4582.294000000000
31
0.0
0
LINE
5
81c
100
AcDbEntity
8
0-9扉体
6
CONTINUOUS
62
6
100
AcDbLine
10
2159.324000000000
20
4523.294000000000
30
0.0
11
2159.324000000000
21
4652.294000000000
31
0.0
0
LINE
5
81d
100
AcDbEntity
8
0-9扉体
6
CONTINUOUS
62
6
100
AcDbLine
10
2177.324000000000
20
4523.294000000000
30
0.0
11
2177.324000000000
21
4652.294000000000
31
0.0
0
LINE
5
81e
100
AcDbEntity
8
0-9扉体
6
CONTINUOUS
62
6
100
AcDbLine
10
2204.324000000000
20
4633.294000000000
30
0.0
11
2182.524000000000
21
4633.294000000000
31
0.0
0
LINE
5
81f
100
AcDbEntity
8
0-9扉体
6
CONTINUOUS
62
6
100
AcDbLine
10
2204.324000000000
20
4633.294000000000
30
0.0
11
2204.324000000000
21
4601.294000000000
31
0.0
0
LINE
5
820
100
AcDbEntity
8
0-9扉体
6
CONTINUOUS
62
6
100
AcDbLine
10
2155.324000000000
20
4680.464000000000
30
0.0
11
2160.154000000000
21
4685.294000000000
31
0.0
0
LINE
5
821
100
AcDbEntity
8
0-9扉体
6
CONTINUOUS
62
6
100
AcDbLine
10
2155.324000000000
20
4677.636000000000
30
0.0
11
2162.982000000000
21
4685.294000000000
31
0.0
0
LINE
5
822
100
AcDbEntity
8
0-6戸当り
6
CONTINUOUS
62
2
100
AcDbLine
10
2155.324000000000
20
4525.294000000000
30
0.0
11
2155.324000000000
21
4685.294000000000
31
0.0
0
LINE
5
823
100
AcDbEntity
8
0-6戸当り
6
DOT
62
2
100
AcDbLine
10
2059.324000000000
20
4545.294000000000
30
0.0
11
2155.324000000000
21
4545.294000000000
31
0.0
0
LINE
5
824
100
AcDbEntity
8
0-6戸当り
6
CONTINUOUS
62
2
100
AcDbLine
10
2059.324000000000
20
4525.294000000000
30
0.0
11
2155.324000000000
21
4525.294000000000
31
0.0
0
LINE
5
825
100
AcDbEntity
8
0-9扉体
6
CONTINUOUS
62
6
100
AcDbLine
10
2155.324000000000
20
4659.352000000000
30
0.0
11
2181.266000000000
21
4685.294000000000
31
0.0
0
LINE
5
826
100
AcDbEntity
8
0-9扉体
6
CONTINUOUS
62
6
100
AcDbLine
10
2155.324000000000
20
4662.180000000000
30
0.0
11
2178.438000000000
21
4685.294000000000
31
0.0
0
LINE
5
827
100
AcDbEntity
8
0-9扉体
6
CONTINUOUS
62
6
100
AcDbLine
10
2028.130000000000
20
4645.294000000000
30
0.0
11
2059.324000000000
21
4676.490000000000
31
0.0
0
LINE
5
828
100
AcDbEntity
8
0-9扉体
6
CONTINUOUS
62
6
100
AcDbLine
10
2025.300000000000
20
4645.294000000000
30
0.0
11
2059.324000000000
21
4679.318000000000
31
0.0
0
LINE
5
829
100
AcDbEntity
8
0-5基準線
6
CENTER2
62
7
100
AcDbLine
10
1996.682000000000
20
4617.294000000000
30
0.0
11
2210.304000000000
21
4617.294000000000
31
0.0
0
LINE
5
82a
100
AcDbEntity
8
0-9扉体
6
CONTINUOUS
62
6
100
AcDbLine
10
2176.550000000000
20
4652.294000000000
30
0.0
11
2209.550000000000
21
4685.294000000000
31
0.0
0
LINE
5
82b
100
AcDbEntity
8
0-9扉体
6
CONTINUOUS
62
6
100
AcDbLine
10
2173.722000000000
20
4652.294000000000
30
0.0
11
2206.722000000000
21
4685.294000000000
31
0.0
0
LINE
5
82c
100
AcDbEntity
8
0-6戸当り
6
CONTINUOUS
62
6
100
AcDbLine
10
5117.188000000000
20
2949.376000000000
30
0.0
11
5150.188000000000
21
2949.376000000000
31
0.0
0
LINE
5
82d
100
AcDbEntity
8
0-6戸当り
6
CONTINUOUS
62
6
100
AcDbLine
10
5117.188000000000
20
2995.376000000000
30
0.0
11
5150.188000000000
21
2995.376000000000
31
0.0
0
LINE
5
82e
100
AcDbEntity
8
0-6戸当り
6
CONTINUOUS
62
6
100
AcDbLine
10
5117.188000000000
20
2929.376000000000
30
0.0
11
5150.188000000000
21
2929.376000000000
31
0.0
0
LINE
5
82f
100
AcDbEntity
8
0-9扉体
6
DOT
62
6
100
AcDbLine
10
2595.324000000000
20
1400.376000000000
30
0.0
11
2595.324000000000
21
1282.376000000000
31
0.0
0
LINE
5
830
100
AcDbEntity
8
0-9扉体
6
DOT
62
6
100
AcDbLine
10
2579.324000000000
20
1400.376000000000
30
0.0
11
2579.324000000000
21
1282.376000000000
31
0.0
0
LINE
5
831
100
AcDbEntity
8
0-6戸当り
6
CONTINUOUS
62
7
100
AcDbLine
10
5174.188000000000
20
3018.376000000000
30
0.0
11
5364.188000000000
21
3018.376000000000
31
0.0
0
LINE
5
832
100
AcDbEntity
8
0-6戸当り
6
CONTINUOUS
62
7
100
AcDbLine
10
5174.188000000000
20
3042.374000000000
30
0.0
11
5340.219999999999
21
3042.374000000000
31
0.0
0
LINE
5
833
100
AcDbEntity
8
0-6戸当り
6
CONTINUOUS
62
7
100
AcDbLine
10
5174.188000000000
20
3042.374000000000
30
0.0
11
5340.219999999999
21
3042.374000000000
31
0.0
0
LINE
5
834
100
AcDbEntity
8
0-6戸当り
6
CONTINUOUS
62
7
100
AcDbLine
10
5174.188000000000
20
3040.374000000000
30
0.0
11
5340.219999999999
21
3040.374000000000
31
0.0
0
LINE
5
835
100
AcDbEntity
8
0-6戸当り
6
CONTINUOUS
62
7
100
AcDbLine
10
5174.188000000000
20
3020.376000000000
30
0.0
11
5362.282000000000
21
3020.376000000000
31
0.0
0
LINE
5
836
100
AcDbEntity
8
0-6戸当り
6
CONTINUOUS
62
7
100
AcDbLine
10
5340.219999999999
20
3040.374000000000
30
0.0
11
5342.306000000001
21
3040.374000000000
31
0.0
0
LINE
5
837
100
AcDbEntity
8
0-6戸当り
6
CONTINUOUS
62
7
100
AcDbLine
10
5364.084000000000
20
3018.574000000000
30
0.0
11
5340.246000000000
21
3042.410000000000
31
0.0
0
LINE
5
838
100
AcDbEntity
8
0-9扉体
6
CONTINUOUS
62
7
100
AcDbLine
10
2522.324000000000
20
2870.376000000000
30
0.0
11
2522.324000000000
21
2970.376000000000
31
0.0
0
LINE
5
839
100
AcDbEntity
8
0-9扉体
6
CONTINUOUS
62
7
100
AcDbLine
10
2652.324000000000
20
2970.376000000000
30
0.0
11
2652.324000000000
21
2870.376000000000
31
0.0
0
LINE
5
83a
100
AcDbEntity
8
F-F_J_ADD
6
HIDDEN
62
7
100
AcDbLine
10
2522.324000000000
20
2870.376000000000
30
0.0
11
2652.324000000000
21
2870.376000000000
31
0.0
0
LINE
5
83b
100
AcDbEntity
8
0-5基準線
6
CENTER2
62
7
100
AcDbLine
10
2486.422000000000
20
2935.376000000000
30
0.0
11
2688.228000000000
21
2935.376000000000
31
0.0
0
LINE
5
83c
100
AcDbEntity
8
0-9扉体
6
CONTINUOUS
62
4
100
AcDbLine
10
2652.324000000000
20
2880.376000000000
30
0.0
11
2927.324000000000
21
2880.376000000000
31
0.0
0
LINE
5
83d
100
AcDbEntity
8
0-6戸当り
6
CONTINUOUS
62
7
100
AcDbLine
10
2269.324000000000
20
4709.294000000000
30
0.0
11
2269.324000000000
21
4899.294000000000
31
0.0
0
LINE
5
83e
100
AcDbEntity
8
0-6戸当り
6
CONTINUOUS
62
7
100
AcDbLine
10
2245.324000000000
20
4709.294000000000
30
0.0
11
2245.324000000000
21
4875.326000000000
31
0.0
0
LINE
5
83f
100
AcDbEntity
8
0-6戸当り
6
CONTINUOUS
62
7
100
AcDbLine
10
2245.324000000000
20
4709.294000000000
30
0.0
11
2245.324000000000
21
4875.326000000000
31
0.0
0
LINE
5
840
100
AcDbEntity
8
0-6戸当り
6
CONTINUOUS
62
7
100
AcDbLine
10
2247.324000000000
20
4709.294000000000
30
0.0
11
2247.324000000000
21
4875.326000000000
31
0.0
0
LINE
5
841
100
AcDbEntity
8
0-6戸当り
6
CONTINUOUS
62
7
100
AcDbLine
10
2267.324000000000
20
4709.294000000000
30
0.0
11
2267.324000000000
21
4897.388000000000
31
0.0
0
LINE
5
842
100
AcDbEntity
8
0-6戸当り
6
CONTINUOUS
62
7
100
AcDbLine
10
2247.324000000000
20
4875.326000000000
30
0.0
11
2247.324000000000
21
4877.412000000000
31
0.0
0
LINE
5
843
100
AcDbEntity
8
0-6戸当り
6
CONTINUOUS
62
7
100
AcDbLine
10
2269.126000000000
20
4899.190000000001
30
0.0
11
2245.288000000000
21
4875.354000000000
31
0.0
0
LINE
5
844
100
AcDbEntity
8
0-6戸当り
6
CONTINUOUS
62
7
100
AcDbLine
10
1969.324000000000
20
4709.294000000000
30
0.0
11
1969.324000000000
21
4899.294000000000
31
0.0
0
LINE
5
845
100
AcDbEntity
8
0-6戸当り
6
CONTINUOUS
62
7
100
AcDbLine
10
1945.326000000000
20
4709.294000000000
30
0.0
11
1945.326000000000
21
4875.326000000000
31
0.0
0
LINE
5
846
100
AcDbEntity
8
0-6戸当り
6
CONTINUOUS
62
7
100
AcDbLine
10
1945.326000000000
20
4709.294000000000
30
0.0
11
1945.326000000000
21
4875.326000000000
31
0.0
0
LINE
5
847
100
AcDbEntity
8
0-6戸当り
6
CONTINUOUS
62
7
100
AcDbLine
10
1947.326000000000
20
4709.294000000000
30
0.0
11
1947.326000000000
21
4875.326000000000
31
0.0
0
LINE
5
848
100
AcDbEntity
8
0-6戸当り
6
CONTINUOUS
62
7
100
AcDbLine
10
1967.324000000000
20
4709.294000000000
30
0.0
11
1967.324000000000
21
4897.388000000000
31
0.0
0
LINE
5
849
100
AcDbEntity
8
0-6戸当り
6
CONTINUOUS
62
7
100
AcDbLine
10
1947.326000000000
20
4875.326000000000
30
0.0
11
1947.326000000000
21
4877.412000000000
31
0.0
0
LINE
5
84a
100
AcDbEntity
8
0-6戸当り
6
CONTINUOUS
62
7
100
AcDbLine
10
1969.126000000000
20
4899.190000000001
30
0.0
11
1945.288000000000
21
4875.354000000000
31
0.0
0
LINE
5
84b
100
AcDbEntity
8
F-F_J_ADD
6
HIDDEN
62
6
100
AcDbLine
10
5174.188000000000
20
2770.376000000000
30
0.0
11
5150.188000000000
21
2770.376000000000
31
0.0
0
LINE
5
84c
100
AcDbEntity
8
F-F_J_ADD
6
HIDDEN
62
6
100
AcDbLine
10
5174.188000000000
20
1370.376000000000
30
0.0
11
5150.188000000000
21
1370.376000000000
31
0.0
0
CIRCLE
5
84d
100
AcDbEntity
8
0-9扉体
6
CONTINUOUS
62
3
100
AcDbCircle
10
5130.188000000000
20
2850.376000000000
30
0.0
40
8.000000000000
0
ARC
5
84e
100
AcDbEntity
8
0-9扉体
6
CONTINUOUS
62
7
100
AcDbCircle
10
5106.826000000000
20
2790.376000000000
30
0.0
40
24.838000000000
100
AcDbArc
50
162.412000000000
51
197.588000000000
0
ARC
5
84f
100
AcDbEntity
8
0-9扉体
6
CONTINUOUS
62
7
100
AcDbCircle
10
5088.632000000000
20
2779.118000000000
30
0.0
40
6.646000000000
100
AcDbArc
50
145.615000000000
51
205.614000000000
0
ARC
5
850
100
AcDbEntity
8
0-9扉体
6
CONTINUOUS
62
7
100
AcDbCircle
10
5088.632000000000
20
2801.634000000000
30
0.0
40
6.646000000000
100
AcDbArc
50
154.386000000000
51
214.385000000000
0
ARC
5
851
100
AcDbEntity
8
0-9扉体
6
CONTINUOUS
62
3
100
AcDbCircle
10
5130.188000000000
20
1290.376000000000
30
0.0
40
20.000000000000
100
AcDbArc
50
180.000000000000
51
450.000000000000
0
CIRCLE
5
852
100
AcDbEntity
8
0-9扉体
6
CONTINUOUS
62
3
100
AcDbCircle
10
5130.188000000000
20
1290.376000000000
30
0.0
40
8.000000000000
0
ARC
5
853
100
AcDbEntity
8
0-9扉体
6
CONTINUOUS
62
7
100
AcDbCircle
10
5106.826000000000
20
1350.376000000000
30
0.0
40
24.838000000000
100
AcDbArc
50
162.412000000000
51
197.588000000000
0
ARC
5
854
100
AcDbEntity
8
0-9扉体
6
CONTINUOUS
62
7
100
AcDbCircle
10
5088.632000000000
20
1361.634000000000
30
0.0
40
6.646000000000
100
AcDbArc
50
154.386000000000
51
214.385000000000
0
ARC
5
855
100
AcDbEntity
8
0-9扉体
6
CONTINUOUS
62
7
100
AcDbCircle
10
5088.632000000000
20
1339.118000000000
30
0.0
40
6.646000000000
100
AcDbArc
50
145.615000000000
51
205.614000000000
0
CIRCLE
5
856
100
AcDbEntity
8
0-9扉体
6
CONTINUOUS
62
4
100
AcDbCircle
10
5082.188000000000
20
2970.376000000000
30
0.0
40
16.000000000000
0
ARC
5
857
100
AcDbEntity
8
0-9扉体
6
CONTINUOUS
62
7
100
AcDbCircle
10
5038.188000000000
20
2882.672000000000
30
0.0
40
36.304000000000
100
AcDbArc
50
72.412000000000
51
107.588000000000
0
ARC
5
858
100
AcDbEntity
8
0-9扉体
6
CONTINUOUS
62
7
100
AcDbCircle
10
5054.642000000000
20
2909.262000000000
30
0.0
40
9.712000000000
100
AcDbArc
50
64.384000000000
51
124.384000000000
0
ARC
5
859
100
AcDbEntity
8
0-9扉体
6
CONTINUOUS
62
7
100
AcDbCircle
10
5021.732000000000
20
2909.262000000000
30
0.0
40
9.712000000000
100
AcDbArc
50
55.616000000000
51
115.616000000000
0
ARC
5
85a
100
AcDbEntity
8
0-9扉体
6
CONTINUOUS
62
7
100
AcDbCircle
10
5038.188000000000
20
2878.678000000000
30
0.0
40
36.304000000000
100
AcDbArc
50
252.412000000000
51
287.588000000000
0
ARC
5
85b
100
AcDbEntity
8
0-9扉体
6
CONTINUOUS
62
7
100
AcDbCircle
10
5021.732000000000
20
2852.088000000000
30
0.0
40
9.712000000000
100
AcDbArc
50
244.384000000000
51
304.384000000000
0
ARC
5
85c
100
AcDbEntity
8
0-9扉体
6
CONTINUOUS
62
7
100
AcDbCircle
10
5054.642000000000
20
2852.088000000000
30
0.0
40
9.712000000000
100
AcDbArc
50
235.616000000000
51
295.616000000000
0
CIRCLE
5
85d
100
AcDbEntity
8
0-6戸当り
6
CONTINUOUS
62
7
100
AcDbCircle
10
1957.324000000000
20
3030.376000000000
30
0.0
40
19.000000000000
0
CIRCLE
5
85e
100
AcDbEntity
8
0-6戸当り
6
CONTINUOUS
62
6
100
AcDbCircle
10
1957.324000000000
20
3030.376000000000
30
0.0
40
12.000000000000
0
CIRCLE
5
85f
100
AcDbEntity
8
0-6戸当り
6
CONTINUOUS
62
6
100
AcDbCircle
10
1957.324000000000
20
3030.376000000000
30
0.0
40
10.000000000000
0
CIRCLE
5
860
100
AcDbEntity
8
0-9扉体
6
CONTINUOUS
62
4
100
AcDbCircle
10
5082.188000000000
20
2970.376000000000
30
0.0
40
32.000000000000
0
ARC
5
861
100
AcDbEntity
8
0-9扉体
6
CONTINUOUS
62
3
100
AcDbCircle
10
3367.324000000000
20
4665.294000000000
30
0.0
40
20.000000000000
100
AcDbArc
50
270.000000000000
51
540.000000000000
0
CIRCLE
5
862
100
AcDbEntity
8
0-9扉体
6
CONTINUOUS
62
3
100
AcDbCircle
10
3367.324000000000
20
4665.294000000000
30
0.0
40
8.000000000000
0
ARC
5
863
100
AcDbEntity
8
0-9扉体
6
CONTINUOUS
62
7
100
AcDbCircle
10
3307.324000000000
20
4641.932000000000
30
0.0
40
24.838000000000
100
AcDbArc
50
252.412000000000
51
287.588000000000
0
ARC
5
864
100
AcDbEntity
8
0-9扉体
6
CONTINUOUS
62
7
100
AcDbCircle
10
3296.066000000000
20
4623.740000000000
30
0.0
40
6.646000000000
100
AcDbArc
50
244.386000000000
51
304.385000000000
0
ARC
5
865
100
AcDbEntity
8
0-9扉体
6
CONTINUOUS
62
7
100
AcDbCircle
10
3318.582000000000
20
4623.740000000000
30
0.0
40
6.646000000000
100
AcDbArc
50
235.615000000000
51
295.614000000000
0
ARC
5
866
100
AcDbEntity
8
0-6戸当り
6
CONTINUOUS
62
7
100
AcDbCircle
10
5163.470000000000
20
1210.376000000000
30
0.0
40
32.482000000000
100
AcDbArc
50
162.412000000000
51
197.588000000000
0
ARC
5
867
100
AcDbEntity
8
0-6戸当り
6
CONTINUOUS
62
7
100
AcDbCircle
10
5139.678000000000
20
1225.096000000000
30
0.0
40
8.690000000000
100
AcDbArc
50
154.383000000000
51
214.383000000000
0
ARC
5
868
100
AcDbEntity
8
0-6戸当り
6
CONTINUOUS
62
7
100
AcDbCircle
10
5139.678000000000
20
1195.652000000000
30
0.0
40
8.690000000000
100
AcDbArc
50
145.616000000000
51
205.616000000000
0
ARC
5
869
100
AcDbEntity
8
0-6戸当り
6
CONTINUOUS
62
2
100
AcDbCircle
10
5160.344000000000
20
1210.376000000000
30
0.0
40
40.000000000000
100
AcDbArc
50
165.522000000000
51
194.478000000000
0
CIRCLE
5
86a
100
AcDbEntity
8
0-6戸当り
6
CONTINUOUS
62
3
100
AcDbCircle
10
3447.324000000000
20
1210.374000000000
30
0.0
40
22.000000000000
0
CIRCLE
5
86b
100
AcDbEntity
8
0-6戸当り
6
CONTINUOUS
62
3
100
AcDbCircle
10
3447.324000000000
20
1210.374000000000
30
0.0
40
10.000000000000
0
CIRCLE
5
86c
100
AcDbEntity
8
0-6戸当り
6
CONTINUOUS
62
3
100
AcDbCircle
10
3447.324000000000
20
1210.374000000000
30
0.0
40
8.000000000000
0
CIRCLE
5
86d
100
AcDbEntity
8
0-6戸当り
6
CONTINUOUS
62
3
100
AcDbCircle
10
3447.324000000000
20
1210.374000000000
30
0.0
40
16.974000000000
0
CIRCLE
5
86e
100
AcDbEntity
8
0-6戸当り
6
CONTINUOUS
62
3
100
AcDbCircle
10
1727.324000000000
20
1210.374000000000
30
0.0
40
22.000000000000
0
CIRCLE
5
86f
100
AcDbEntity
8
0-6戸当り
6
CONTINUOUS
62
3
100
AcDbCircle
10
1727.324000000000
20
1210.374000000000
30
0.0
40
10.000000000000
0
CIRCLE
5
870
100
AcDbEntity
8
0-6戸当り
6
CONTINUOUS
62
3
100
AcDbCircle
10
1727.324000000000
20
1210.374000000000
30
0.0
40
8.000000000000
0
CIRCLE
5
871
100
AcDbEntity
8
0-6戸当り
6
CONTINUOUS
62
3
100
AcDbCircle
10
1727.324000000000
20
1210.374000000000
30
0.0
40
16.974000000000
0
CIRCLE
5
872
100
AcDbEntity
8
0-6戸当り
6
CONTINUOUS
62
6
100
AcDbCircle
10
1957.324000000000
20
3030.376000000000
30
0.0
40
26.000000000000
0
CIRCLE
5
873
100
AcDbEntity
8
0-6戸当り
6
CONTINUOUS
62
7
100
AcDbCircle
10
2257.324000000000
20
3030.376000000000
30
0.0
40
19.000000000000
0
CIRCLE
5
874
100
AcDbEntity
8
0-6戸当り
6
CONTINUOUS
62
6
100
AcDbCircle
10
2257.324000000000
20
3030.376000000000
30
0.0
40
12.000000000000
0
CIRCLE
5
875
100
AcDbEntity
8
0-6戸当り
6
CONTINUOUS
62
6
100
AcDbCircle
10
2257.324000000000
20
3030.376000000000
30
0.0
40
10.000000000000
0
CIRCLE
5
876
100
AcDbEntity
8
0-6戸当り
6
CONTINUOUS
62
6
100
AcDbCircle
10
2257.324000000000
20
3030.376000000000
30
0.0
40
26.000000000000
0
CIRCLE
5
877
100
AcDbEntity
8
0-6戸当り
6
CONTINUOUS
62
7
100
AcDbCircle
10
3217.324000000000
20
3030.376000000000
30
0.0
40
19.000000000000
0
CIRCLE
5
878
100
AcDbEntity
8
0-6戸当り
6
CONTINUOUS
62
6
100
AcDbCircle
10
3217.324000000000
20
3030.376000000000
30
0.0
40
12.000000000000
0
CIRCLE
5
879
100
AcDbEntity
8
0-6戸当り
6
CONTINUOUS
62
6
100
AcDbCircle
10
3217.324000000000
20
3030.376000000000
30
0.0
40
10.000000000000
0
CIRCLE
5
87a
100
AcDbEntity
8
0-6戸当り
6
CONTINUOUS
62
6
100
AcDbCircle
10
3217.324000000000
20
3030.376000000000
30
0.0
40
26.000000000000
0
CIRCLE
5
87b
100
AcDbEntity
8
0-6戸当り
6
CONTINUOUS
62
7
100
AcDbCircle
10
2917.324000000000
20
3030.376000000000
30
0.0
40
19.000000000000
0
CIRCLE
5
87c
100
AcDbEntity
8
0-6戸当り
6
CONTINUOUS
62
6
100
AcDbCircle
10
2917.324000000000
20
3030.376000000000
30
0.0
40
12.000000000000
0
CIRCLE
5
87d
100
AcDbEntity
8
0-6戸当り
6
CONTINUOUS
62
6
100
AcDbCircle
10
2917.324000000000
20
3030.376000000000
30
0.0
40
10.000000000000
0
CIRCLE
5
87e
100
AcDbEntity
8
0-6戸当り
6
CONTINUOUS
62
6
100
AcDbCircle
10
2917.324000000000
20
3030.376000000000
30
0.0
40
26.000000000000
0
ARC
5
87f
100
AcDbEntity
8
0-9扉体
6
CONTINUOUS
62
3
100
AcDbCircle
10
1807.324000000000
20
4665.294000000000
30
0.0
40
20.000000000000
100
AcDbArc
50
90.000000000000
51
270.000000000000
0
ARC
5
880
100
AcDbEntity
8
0-6戸当り
6
CONTINUOUS
62
7
100
AcDbCircle
10
3447.324000000000
20
4698.576000000000
30
0.0
40
32.482000000000
100
AcDbArc
50
252.412000000000
51
287.588000000000
0
ARC
5
881
100
AcDbEntity
8
0-6戸当り
6
CONTINUOUS
62
7
100
AcDbCircle
10
3432.604000000000
20
4674.784000000000
30
0.0
40
8.690000000000
100
AcDbArc
50
244.383000000000
51
304.383000000000
0
ARC
5
882
100
AcDbEntity
8
0-6戸当り
6
CONTINUOUS
62
7
100
AcDbCircle
10
3462.046000000000
20
4674.784000000000
30
0.0
40
8.690000000000
100
AcDbArc
50
235.616000000000
51
295.616000000000
0
ARC
5
883
100
AcDbEntity
8
0-6戸当り
6
CONTINUOUS
62
2
100
AcDbCircle
10
3447.324000000000
20
4695.452000000000
30
0.0
40
40.000000000000
100
AcDbArc
50
255.522000000000
51
284.478000000000
0
ARC
5
884
100
AcDbEntity
8
0-6戸当り
6
CONTINUOUS
62
7
100
AcDbCircle
10
1727.324000000000
20
4698.576000000000
30
0.0
40
32.482000000000
100
AcDbArc
50
252.412000000000
51
287.588000000000
0
ARC
5
885
100
AcDbEntity
8
0-6戸当り
6
CONTINUOUS
62
7
100
AcDbCircle
10
1742.046000000000
20
4674.784000000000
30
0.0
40
8.690000000000
100
AcDbArc
50
235.617000000000
51
295.617000000000
0
ARC
5
886
100
AcDbEntity
8
0-6戸当り
6
CONTINUOUS
62
7
100
AcDbCircle
10
1712.602000000000
20
4674.784000000000
30
0.0
40
8.690000000000
100
AcDbArc
50
244.384000000000
51
304.384000000000
0
ARC
5
887
100
AcDbEntity
8
0-6戸当り
6
CONTINUOUS
62
2
100
AcDbCircle
10
1727.324000000000
20
4695.452000000000
30
0.0
40
40.000000000000
100
AcDbArc
50
255.522000000000
51
284.478000000000
0
ARC
5
888
100
AcDbEntity
8
0-9扉体
6
CONTINUOUS
62
6
100
AcDbCircle
10
5007.188000000000
20
2846.376000000000
30
0.0
40
12.000000000000
100
AcDbArc
50
90.000000000000
51
180.000000000000
0
ARC
5
889
100
AcDbEntity
8
0-9扉体
6
CONTINUOUS
62
6
100
AcDbCircle
10
4989.188000000000
20
2746.376000000000
30
0.0
40
6.000000000000
100
AcDbArc
50
270.000000000000
51
360.000000000000
0
ARC
5
88a
100
AcDbEntity
8
0-9扉体
6
CONTINUOUS
62
6
100
AcDbCircle
10
5007.188000000000
20
2016.376000000000
30
0.0
40
12.000000000000
100
AcDbArc
50
90.000000000000
51
180.000000000000
0
ARC
5
88b
100
AcDbEntity
8
0-9扉体
6
CONTINUOUS
62
6
100
AcDbCircle
10
4989.188000000000
20
1916.376000000000
30
0.0
40
6.000000000000
100
AcDbArc
50
270.000000000000
51
360.000000000000
0
CIRCLE
5
88c
100
AcDbEntity
8
0-6戸当り
6
CONTINUOUS
62
3
100
AcDbCircle
10
2157.324000000000
20
1210.374000000000
30
0.0
40
22.000000000000
0
CIRCLE
5
88d
100
AcDbEntity
8
0-6戸当り
6
CONTINUOUS
62
3
100
AcDbCircle
10
2157.324000000000
20
1210.374000000000
30
0.0
40
10.000000000000
0
CIRCLE
5
88e
100
AcDbEntity
8
0-6戸当り
6
CONTINUOUS
62
3
100
AcDbCircle
10
2157.324000000000
20
1210.374000000000
30
0.0
40
8.000000000000
0
CIRCLE
5
88f
100
AcDbEntity
8
0-6戸当り
6
CONTINUOUS
62
3
100
AcDbCircle
10
2157.324000000000
20
1210.374000000000
30
0.0
40
16.974000000000
0
CIRCLE
5
890
100
AcDbEntity
8
0-6戸当り
6
CONTINUOUS
62
3
100
AcDbCircle
10
2587.324000000000
20
1210.374000000000
30
0.0
40
22.000000000000
0
CIRCLE
5
891
100
AcDbEntity
8
0-6戸当り
6
CONTINUOUS
62
3
100
AcDbCircle
10
2587.324000000000
20
1210.374000000000
30
0.0
40
10.000000000000
0
CIRCLE
5
892
100
AcDbEntity
8
0-6戸当り
6
CONTINUOUS
62
3
100
AcDbCircle
10
2587.324000000000
20
1210.374000000000
30
0.0
40
8.000000000000
0
CIRCLE
5
893
100
AcDbEntity
8
0-6戸当り
6
CONTINUOUS
62
3
100
AcDbCircle
10
2587.324000000000
20
1210.374000000000
30
0.0
40
16.974000000000
0
CIRCLE
5
894
100
AcDbEntity
8
0-6戸当り
6
CONTINUOUS
62
3
100
AcDbCircle
10
3017.324000000000
20
1210.374000000000
30
0.0
40
22.000000000000
0
CIRCLE
5
895
100
AcDbEntity
8
0-6戸当り
6
CONTINUOUS
62
3
100
AcDbCircle
10
3017.324000000000
20
1210.374000000000
30
0.0
40
10.000000000000
0
CIRCLE
5
896
100
AcDbEntity
8
0-6戸当り
6
CONTINUOUS
62
3
100
AcDbCircle
10
3017.324000000000
20
1210.374000000000
30
0.0
40
8.000000000000
0
CIRCLE
5
897
100
AcDbEntity
8
0-6戸当り
6
CONTINUOUS
62
3
100
AcDbCircle
10
3017.324000000000
20
1210.374000000000
30
0.0
40
16.974000000000
0
ARC
5
898
100
AcDbEntity
8
0-9扉体
6
CONTINUOUS
62
6
100
AcDbCircle
10
3363.324000000000
20
4542.294000000000
30
0.0
40
12.000000000000
100
AcDbArc
50
270.000000000000
51
360.000000000000
0
ARC
5
899
100
AcDbEntity
8
0-9扉体
6
CONTINUOUS
62
6
100
AcDbCircle
10
3263.324000000000
20
4524.294000000000
30
0.0
40
6.000000000000
100
AcDbArc
50
90.000000000000
51
180.000000000000
0
CIRCLE
5
89a
100
AcDbEntity
8
0-6戸当り
6
CONTINUOUS
62
3
100
AcDbCircle
10
1727.324000000000
20
1640.374000000000
30
0.0
40
22.000000000000
0
CIRCLE
5
89b
100
AcDbEntity
8
0-6戸当り
6
CONTINUOUS
62
3
100
AcDbCircle
10
1727.324000000000
20
1640.374000000000
30
0.0
40
10.000000000000
0
CIRCLE
5
89c
100
AcDbEntity
8
0-6戸当り
6
CONTINUOUS
62
3
100
AcDbCircle
10
1727.324000000000
20
1640.374000000000
30
0.0
40
8.000000000000
0
CIRCLE
5
89d
100
AcDbEntity
8
0-6戸当り
6
CONTINUOUS
62
3
100
AcDbCircle
10
1727.324000000000
20
1640.374000000000
30
0.0
40
16.974000000000
0
CIRCLE
5
89e
100
AcDbEntity
8
0-6戸当り
6
CONTINUOUS
62
3
100
AcDbCircle
10
1727.324000000000
20
2070.374000000000
30
0.0
40
22.000000000000
0
CIRCLE
5
89f
100
AcDbEntity
8
0-6戸当り
6
CONTINUOUS
62
3
100
AcDbCircle
10
1727.324000000000
20
2070.374000000000
30
0.0
40
10.000000000000
0
CIRCLE
5
8a0
100
AcDbEntity
8
0-6戸当り
6
CONTINUOUS
62
3
100
AcDbCircle
10
1727.324000000000
20
2070.374000000000
30
0.0
40
8.000000000000
0
CIRCLE
5
8a1
100
AcDbEntity
8
0-6戸当り
6
CONTINUOUS
62
3
100
AcDbCircle
10
1727.324000000000
20
2070.374000000000
30
0.0
40
16.974000000000
0
CIRCLE
5
8a2
100
AcDbEntity
8
0-6戸当り
6
CONTINUOUS
62
3
100
AcDbCircle
10
1727.324000000000
20
2500.374000000000
30
0.0
40
22.000000000000
0
CIRCLE
5
8a3
100
AcDbEntity
8
0-6戸当り
6
CONTINUOUS
62
3
100
AcDbCircle
10
1727.324000000000
20
2500.374000000000
30
0.0
40
10.000000000000
0
CIRCLE
5
8a4
100
AcDbEntity
8
0-6戸当り
6
CONTINUOUS
62
3
100
AcDbCircle
10
1727.324000000000
20
2500.374000000000
30
0.0
40
8.000000000000
0
CIRCLE
5
8a5
100
AcDbEntity
8
0-6戸当り
6
CONTINUOUS
62
3
100
AcDbCircle
10
1727.324000000000
20
2500.374000000000
30
0.0
40
16.974000000000
0
CIRCLE
5
8a6
100
AcDbEntity
8
0-6戸当り
6
CONTINUOUS
62
3
100
AcDbCircle
10
1727.324000000000
20
2930.374000000000
30
0.0
40
22.000000000000
0
CIRCLE
5
8a7
100
AcDbEntity
8
0-6戸当り
6
CONTINUOUS
62
3
100
AcDbCircle
10
1727.324000000000
20
2930.374000000000
30
0.0
40
10.000000000000
0
CIRCLE
5
8a8
100
AcDbEntity
8
0-6戸当り
6
CONTINUOUS
62
3
100
AcDbCircle
10
1727.324000000000
20
2930.374000000000
30
0.0
40
8.000000000000
0
CIRCLE
5
8a9
100
AcDbEntity
8
0-6戸当り
6
CONTINUOUS
62
3
100
AcDbCircle
10
1727.324000000000
20
2930.374000000000
30
0.0
40
16.974000000000
0
CIRCLE
5
8aa
100
AcDbEntity
8
0-6戸当り
6
CONTINUOUS
62
3
100
AcDbCircle
10
3447.324000000000
20
1640.374000000000
30
0.0
40
22.000000000000
0
CIRCLE
5
8ab
100
AcDbEntity
8
0-6戸当り
6
CONTINUOUS
62
3
100
AcDbCircle
10
3447.324000000000
20
1640.374000000000
30
0.0
40
10.000000000000
0
CIRCLE
5
8ac
100
AcDbEntity
8
0-6戸当り
6
CONTINUOUS
62
3
100
AcDbCircle
10
3447.324000000000
20
1640.374000000000
30
0.0
40
8.000000000000
0
CIRCLE
5
8ad
100
AcDbEntity
8
0-6戸当り
6
CONTINUOUS
62
3
100
AcDbCircle
10
3447.324000000000
20
1640.374000000000
30
0.0
40
16.974000000000
0
CIRCLE
5
8ae
100
AcDbEntity
8
0-6戸当り
6
CONTINUOUS
62
3
100
AcDbCircle
10
3447.324000000000
20
2070.374000000000
30
0.0
40
22.000000000000
0
CIRCLE
5
8af
100
AcDbEntity
8
0-6戸当り
6
CONTINUOUS
62
3
100
AcDbCircle
10
3447.324000000000
20
2070.374000000000
30
0.0
40
10.000000000000
0
CIRCLE
5
8b0
100
AcDbEntity
8
0-6戸当り
6
CONTINUOUS
62
3
100
AcDbCircle
10
3447.324000000000
20
2070.374000000000
30
0.0
40
8.000000000000
0
CIRCLE
5
8b1
100
AcDbEntity
8
0-6戸当り
6
CONTINUOUS
62
3
100
AcDbCircle
10
3447.324000000000
20
2070.374000000000
30
0.0
40
16.974000000000
0
CIRCLE
5
8b2
100
AcDbEntity
8
0-6戸当り
6
CONTINUOUS
62
3
100
AcDbCircle
10
3447.324000000000
20
2500.374000000000
30
0.0
40
22.000000000000
0
CIRCLE
5
8b3
100
AcDbEntity
8
0-6戸当り
6
CONTINUOUS
62
3
100
AcDbCircle
10
3447.324000000000
20
2500.374000000000
30
0.0
40
10.000000000000
0
CIRCLE
5
8b4
100
AcDbEntity
8
0-6戸当り
6
CONTINUOUS
62
3
100
AcDbCircle
10
3447.324000000000
20
2500.374000000000
30
0.0
40
8.000000000000
0
CIRCLE
5
8b5
100
AcDbEntity
8
0-6戸当り
6
CONTINUOUS
62
3
100
AcDbCircle
10
3447.324000000000
20
2500.374000000000
30
0.0
40
16.974000000000
0
CIRCLE
5
8b6
100
AcDbEntity
8
0-6戸当り
6
CONTINUOUS
62
3
100
AcDbCircle
10
3447.324000000000
20
2930.374000000000
30
0.0
40
22.000000000000
0
CIRCLE
5
8b7
100
AcDbEntity
8
0-6戸当り
6
CONTINUOUS
62
3
100
AcDbCircle
10
3447.324000000000
20
2930.374000000000
30
0.0
40
10.000000000000
0
CIRCLE
5
8b8
100
AcDbEntity
8
0-6戸当り
6
CONTINUOUS
62
3
100
AcDbCircle
10
3447.324000000000
20
2930.374000000000
30
0.0
40
8.000000000000
0
CIRCLE
5
8b9
100
AcDbEntity
8
0-6戸当り
6
CONTINUOUS
62
3
100
AcDbCircle
10
3447.324000000000
20
2930.374000000000
30
0.0
40
16.974000000000
0
CIRCLE
5
8ba
100
AcDbEntity
8
0-6戸当り
6
CONTINUOUS
62
3
100
AcDbCircle
10
1927.324000000000
20
2930.374000000000
30
0.0
40
22.000000000000
0
CIRCLE
5
8bb
100
AcDbEntity
8
0-6戸当り
6
CONTINUOUS
62
3
100
AcDbCircle
10
1927.324000000000
20
2930.374000000000
30
0.0
40
10.000000000000
0
CIRCLE
5
8bc
100
AcDbEntity
8
0-6戸当り
6
CONTINUOUS
62
3
100
AcDbCircle
10
1927.324000000000
20
2930.374000000000
30
0.0
40
8.000000000000
0
CIRCLE
5
8bd
100
AcDbEntity
8
0-6戸当り
6
CONTINUOUS
62
3
100
AcDbCircle
10
1927.324000000000
20
2930.374000000000
30
0.0
40
16.974000000000
0
CIRCLE
5
8be
100
AcDbEntity
8
0-6戸当り
6
CONTINUOUS
62
3
100
AcDbCircle
10
2367.324000000000
20
2930.374000000000
30
0.0
40
22.000000000000
0
CIRCLE
5
8bf
100
AcDbEntity
8
0-6戸当り
6
CONTINUOUS
62
3
100
AcDbCircle
10
2367.324000000000
20
2930.374000000000
30
0.0
40
10.000000000000
0
CIRCLE
5
8c0
100
AcDbEntity
8
0-6戸当り
6
CONTINUOUS
62
3
100
AcDbCircle
10
2367.324000000000
20
2930.374000000000
30
0.0
40
8.000000000000
0
CIRCLE
5
8c1
100
AcDbEntity
8
0-6戸当り
6
CONTINUOUS
62
3
100
AcDbCircle
10
2367.324000000000
20
2930.374000000000
30
0.0
40
16.974000000000
0
CIRCLE
5
8c2
100
AcDbEntity
8
0-6戸当り
6
CONTINUOUS
62
3
100
AcDbCircle
10
2807.324000000000
20
2930.374000000000
30
0.0
40
22.000000000000
0
CIRCLE
5
8c3
100
AcDbEntity
8
0-6戸当り
6
CONTINUOUS
62
3
100
AcDbCircle
10
2807.324000000000
20
2930.374000000000
30
0.0
40
10.000000000000
0
CIRCLE
5
8c4
100
AcDbEntity
8
0-6戸当り
6
CONTINUOUS
62
3
100
AcDbCircle
10
2807.324000000000
20
2930.374000000000
30
0.0
40
8.000000000000
0
CIRCLE
5
8c5
100
AcDbEntity
8
0-6戸当り
6
CONTINUOUS
62
3
100
AcDbCircle
10
2807.324000000000
20
2930.374000000000
30
0.0
40
16.974000000000
0
CIRCLE
5
8c6
100
AcDbEntity
8
0-6戸当り
6
CONTINUOUS
62
3
100
AcDbCircle
10
3247.324000000000
20
2930.374000000000
30
0.0
40
22.000000000000
0
CIRCLE
5
8c7
100
AcDbEntity
8
0-6戸当り
6
CONTINUOUS
62
3
100
AcDbCircle
10
3247.324000000000
20
2930.374000000000
30
0.0
40
10.000000000000
0
CIRCLE
5
8c8
100
AcDbEntity
8
0-6戸当り
6
CONTINUOUS
62
3
100
AcDbCircle
10
3247.324000000000
20
2930.374000000000
30
0.0
40
8.000000000000
0
CIRCLE
5
8c9
100
AcDbEntity
8
0-6戸当り
6
CONTINUOUS
62
3
100
AcDbCircle
10
3247.324000000000
20
2930.374000000000
30
0.0
40
16.974000000000
0
ARC
5
8ca
100
AcDbEntity
8
0-9扉体
6
CONTINUOUS
62
6
100
AcDbCircle
10
5007.188000000000
20
1294.374000000000
30
0.0
40
12.000000000000
100
AcDbArc
50
180.000000000000
51
270.000000000000
0
ARC
5
8cb
100
AcDbEntity
8
0-9扉体
6
CONTINUOUS
62
6
100
AcDbCircle
10
4989.188000000000
20
1394.376000000000
30
0.0
40
6.000000000000
100
AcDbArc
50
0.000000000000
51
90.000000000000
0
ARC
5
8cc
100
AcDbEntity
8
0-9扉体
6
CONTINUOUS
62
7
100
AcDbCircle
10
2226.824000000000
20
2891.536000000000
30
0.0
40
27.440000000000
100
AcDbArc
50
69.744000000000
51
110.256000000000
0
ARC
5
8cd
100
AcDbEntity
8
0-9扉体
6
CONTINUOUS
62
7
100
AcDbCircle
10
2207.824000000000
20
2891.536000000000
30
0.0
40
27.440000000000
100
AcDbArc
50
69.744000000000
51
110.256000000000
0
ARC
5
8ce
100
AcDbEntity
8
0-9扉体
6
CONTINUOUS
62
7
100
AcDbCircle
10
1987.824000000000
20
2891.536000000000
30
0.0
40
27.440000000000
100
AcDbArc
50
69.744000000000
51
110.256000000000
0
ARC
5
8cf
100
AcDbEntity
8
0-9扉体
6
CONTINUOUS
62
7
100
AcDbCircle
10
2006.824000000000
20
2891.536000000000
30
0.0
40
27.440000000000
100
AcDbArc
50
69.744000000000
51
110.256000000000
0
ARC
5
8d0
100
AcDbEntity
8
0-9扉体
6
CONTINUOUS
62
7
100
AcDbCircle
10
3186.824000000000
20
2891.536000000000
30
0.0
40
27.440000000000
100
AcDbArc
50
69.744000000000
51
110.256000000000
0
ARC
5
8d1
100
AcDbEntity
8
0-9扉体
6
CONTINUOUS
62
7
100
AcDbCircle
10
3167.824000000000
20
2891.536000000000
30
0.0
40
27.440000000000
100
AcDbArc
50
69.744000000000
51
110.256000000000
0
ARC
5
8d2
100
AcDbEntity
8
0-9扉体
6
CONTINUOUS
62
7
100
AcDbCircle
10
2947.824000000000
20
2891.536000000000
30
0.0
40
27.440000000000
100
AcDbArc
50
69.744000000000
51
110.256000000000
0
ARC
5
8d3
100
AcDbEntity
8
0-9扉体
6
CONTINUOUS
62
7
100
AcDbCircle
10
2966.826000000000
20
2891.536000000000
30
0.0
40
27.440000000000
100
AcDbArc
50
69.744000000000
51
110.256000000000
0
CIRCLE
5
8d4
100
AcDbEntity
8
0-9扉体
6
CONTINUOUS
62
7
100
AcDbCircle
10
2217.324000000000
20
4573.294000000000
30
0.0
40
19.000000000000
0
CIRCLE
5
8d5
100
AcDbEntity
8
0-9扉体
6
CONTINUOUS
62
6
100
AcDbCircle
10
2217.324000000000
20
4573.294000000000
30
0.0
40
12.000000000000
0
CIRCLE
5
8d6
100
AcDbEntity
8
0-9扉体
6
CONTINUOUS
62
6
100
AcDbCircle
10
2217.324000000000
20
4573.294000000000
30
0.0
40
10.000000000000
0
CIRCLE
5
8d7
100
AcDbEntity
8
0-9扉体
6
CONTINUOUS
62
2
100
AcDbCircle
10
2217.324000000000
20
4573.294000000000
30
0.0
40
26.000000000000
0
CIRCLE
5
8d8
100
AcDbEntity
8
0-9扉体
6
CONTINUOUS
62
7
100
AcDbCircle
10
1997.324000000000
20
4573.294000000000
30
0.0
40
19.000000000000
0
CIRCLE
5
8d9
100
AcDbEntity
8
0-9扉体
6
CONTINUOUS
62
6
100
AcDbCircle
10
1997.324000000000
20
4573.294000000000
30
0.0
40
12.000000000000
0
CIRCLE
5
8da
100
AcDbEntity
8
0-9扉体
6
CONTINUOUS
62
6
100
AcDbCircle
10
1997.324000000000
20
4573.294000000000
30
0.0
40
10.000000000000
0
CIRCLE
5
8db
100
AcDbEntity
8
0-9扉体
6
CONTINUOUS
62
2
100
AcDbCircle
10
1997.324000000000
20
4573.294000000000
30
0.0
40
26.000000000000
0
ARC
5
8dc
100
AcDbEntity
8
0-6戸当り
6
CONTINUOUS
62
6
100
AcDbCircle
10
5044.188000000000
20
2972.376000000000
30
0.0
40
34.000000000000
100
AcDbArc
50
94.195000000000
51
216.983000000000
0
CIRCLE
5
8dd
100
AcDbEntity
8
0-9扉体
6
CONTINUOUS
62
7
100
AcDbCircle
10
2587.324000000000
20
2935.376000000000
30
0.0
40
30.000000000000
0
POLYLINE
5
8de
100
AcDbEntity
  8
0-8寸法
6
CONTINUOUS
62
4
100
AcDb2dPolyline
66
1
10
0
20
0
70
1
40
8.000
41
8.000
0
VERTEX
5
8df
100
AcDbEntity
  8
0-8寸法
6
CONTINUOUS
62
4
100
AcDbVertex
100
AcDb2dVertex
10
3351.398
20
4655.376
30
0.0
42
1.000
0
VERTEX
5
8e0
100
AcDbEntity
  8
0-8寸法
6
CONTINUOUS
62
4
100
AcDbVertex
100
AcDb2dVertex
10
3359.398
20
4655.376
30
0.0
42
1.000
0
SEQEND
5
8e1
100
AcDbEntity
  8
0-8寸法
0
POLYLINE
5
8e2
100
AcDbEntity
  8
0-8寸法
6
CONTINUOUS
62
4
100
AcDb2dPolyline
66
1
10
0
20
0
70
1
40
8.000
41
8.000
0
VERTEX
5
8e3
100
AcDbEntity
  8
0-8寸法
6
CONTINUOUS
62
4
100
AcDbVertex
100
AcDb2dVertex
10
4798.188
20
2870.374
30
0.0
42
1.000
0
VERTEX
5
8e4
100
AcDbEntity
  8
0-8寸法
6
CONTINUOUS
62
4
100
AcDbVertex
100
AcDb2dVertex
10
4806.188
20
2870.374
30
0.0
42
1.000
0
SEQEND
5
8e5
100
AcDbEntity
  8
0-8寸法
0
POLYLINE
5
8e6
100
AcDbEntity
  8
0-8寸法
6
CONTINUOUS
62
4
100
AcDb2dPolyline
66
1
10
0
20
0
70
1
40
8.000
41
8.000
0
VERTEX
5
8e7
100
AcDbEntity
  8
0-8寸法
6
CONTINUOUS
62
4
100
AcDbVertex
100
AcDb2dVertex
10
5146.188
20
3470.374
30
0.0
42
1.000
0
VERTEX
5
8e8
100
AcDbEntity
  8
0-8寸法
6
CONTINUOUS
62
4
100
AcDbVertex
100
AcDb2dVertex
10
5154.188
20
3470.374
30
0.0
42
1.000
0
SEQEND
5
8e9
100
AcDbEntity
  8
0-8寸法
0
POLYLINE
5
8ea
100
AcDbEntity
  8
0-8寸法
6
CONTINUOUS
62
4
100
AcDb2dPolyline
66
1
10
0
20
0
70
1
40
8.000
41
8.000
0
VERTEX
5
8eb
100
AcDbEntity
  8
0-8寸法
6
CONTINUOUS
62
4
100
AcDbVertex
100
AcDb2dVertex
10
5161.860
20
1244.582
30
0.0
42
1.000
0
VERTEX
5
8ec
100
AcDbEntity
  8
0-8寸法
6
CONTINUOUS
62
4
100
AcDbVertex
100
AcDb2dVertex
10
5169.860
20
1244.582
30
0.0
42
1.000
0
SEQEND
5
8ed
100
AcDbEntity
  8
0-8寸法
0
POLYLINE
5
8ee
100
AcDbEntity
  8
0-8寸法
6
CONTINUOUS
62
4
100
AcDb2dPolyline
66
1
10
0
20
0
70
1
40
8.000
41
8.000
0
VERTEX
5
8ef
100
AcDbEntity
  8
0-8寸法
6
CONTINUOUS
62
4
100
AcDbVertex
100
AcDb2dVertex
10
5078.188
20
2970.374
30
0.0
42
1.000
0
VERTEX
5
8f0
100
AcDbEntity
  8
0-8寸法
6
CONTINUOUS
62
4
100
AcDbVertex
100
AcDb2dVertex
10
5086.188
20
2970.374
30
0.0
42
1.000
0
SEQEND
5
8f1
100
AcDbEntity
  8
0-8寸法
0
POLYLINE
5
8f2
100
AcDbEntity
  8
0-8寸法
6
CONTINUOUS
62
4
100
AcDb2dPolyline
66
1
10
0
20
0
70
1
40
8.000
41
8.000
0
VERTEX
5
8f3
100
AcDbEntity
  8
0-8寸法
6
CONTINUOUS
62
4
100
AcDbVertex
100
AcDb2dVertex
10
2056.888
20
3046.712
30
0.0
42
1.000
0
VERTEX
5
8f4
100
AcDbEntity
  8
0-8寸法
6
CONTINUOUS
62
4
100
AcDbVertex
100
AcDb2dVertex
10
2064.888
20
3046.712
30
0.0
42
1.000
0
SEQEND
5
8f5
100
AcDbEntity
  8
0-8寸法
0
POLYLINE
5
8f6
100
AcDbEntity
  8
0-8寸法
6
CONTINUOUS
62
4
100
AcDb2dPolyline
66
1
10
0
20
0
70
1
40
8.000
41
8.000
0
VERTEX
5
8f7
100
AcDbEntity
  8
0-8寸法
6
CONTINUOUS
62
4
100
AcDbVertex
100
AcDb2dVertex
10
3124.648
20
3007.914
30
0.0
42
1.000
0
VERTEX
5
8f8
100
AcDbEntity
  8
0-8寸法
6
CONTINUOUS
62
4
100
AcDbVertex
100
AcDb2dVertex
10
3132.648
20
3007.914
30
0.0
42
1.000
0
SEQEND
5
8f9
100
AcDbEntity
  8
0-8寸法
0
TEXT
5
8fa
100
AcDbEntity
8
0-A文字
62
7
370
-3
100
AcDbText
10
4335.782
20
2144.236
30
0.0
40
67.320
1
水圧方向
41
0.963
50
0.000
100
AcDbText
0
MTEXT
5
8fb
100
AcDbEntity
8
0-8寸法
62
7
370
-3
100
AcDbMText
10
4319.650
20
3090.990
30
0.0
40
63.580
41
0.000
71
7
72
1
1
\W1.093;▽{\W0.787;H.W.L.}
7
STANDARD
11
1.00000
21
0.00000
31
0.0
0
TEXT
5
8fc
100
AcDbEntity
8
0-8寸法
62
7
370
-3
100
AcDbText
10
5236.582
20
2398.470
30
0.0
40
67.320
1
6t
41
0.574
50
0.000
100
AcDbText
0
TEXT
5
8fd
100
AcDbEntity
8
0-8寸法
62
7
370
-3
100
AcDbText
10
4774.094
20
3023.574
30
0.0
40
67.320
1
50
41
0.626
50
90.000
100
AcDbText
0
TEXT
5
8fe
100
AcDbEntity
8
0-8寸法
62
7
370
-3
100
AcDbText
10
4774.094
20
2643.574
30
0.0
40
67.320
1
50
41
0.626
50
90.000
100
AcDbText
0
TEXT
5
8ff
100
AcDbEntity
8
0-8寸法
62
7
370
-3
100
AcDbText
10
3550.524
20
698.470
30
0.0
40
67.320
1
20
41
0.597
50
0.000
100
AcDbText
0
TEXT
5
900
100
AcDbEntity
8
0-8寸法
62
7
370
-3
100
AcDbText
10
1550.524
20
698.470
30
0.0
40
67.320
1
20
41
0.597
50
0.000
100
AcDbText
0
TEXT
5
901
100
AcDbEntity
8
0-8寸法
62
7
370
-3
100
AcDbText
10
1159.230
20
1033.574
30
0.0
40
67.320
1
20
41
0.597
50
90.000
100
AcDbText
0
TEXT
5
902
100
AcDbEntity
8
0-8寸法
62
7
370
-3
100
AcDbText
10
5746.094
20
1211.074
30
0.0
40
67.320
1
100
41
0.775
50
90.000
100
AcDbText
0
TEXT
5
903
100
AcDbEntity
8
0-8寸法
62
7
370
-3
100
AcDbText
10
5746.094
20
2861.074
30
0.0
40
67.320
1
150
41
0.710
50
90.000
100
AcDbText
0
TEXT
5
904
100
AcDbEntity
8
0-8寸法
62
7
370
-3
100
AcDbText
10
3855.924
20
498.470
30
0.0
40
67.320
1
シ－リング剤充填とする。
41
0.963
50
0.000
100
AcDbText
0
TEXT
5
905
100
AcDbEntity
8
0-8寸法
62
7
370
-3
100
AcDbText
10
1728.024
20
5337.390
30
0.0
40
67.320
1
100
41
0.775
50
0.000
100
AcDbText
0
TEXT
5
906
100
AcDbEntity
8
0-8寸法
62
7
370
-3
100
AcDbText
10
3328.024
20
5337.390
30
0.0
40
67.320
1
100
41
0.775
50
0.000
100
AcDbText
0
MTEXT
5
907
100
AcDbEntity
8
0-8寸法
62
7
370
-3
100
AcDbMText
10
2370.526
20
890.990
30
0.0
40
63.580
41
0.000
71
7
72
1
1
\W1.093;扉体幅{\W0.787; 800}
7
STANDARD
11
1.00000
21
0.00000
31
0.0
0
TEXT
5
908
100
AcDbEntity
8
0-8寸法
62
7
370
-3
100
AcDbText
10
4861.386
20
3498.470
30
0.0
40
67.320
1
33.5
41
0.688
50
0.000
100
AcDbText
0
TEXT
5
909
100
AcDbEntity
8
0-8寸法
62
7
370
-3
100
AcDbText
10
4748.388
20
2398.470
30
0.0
40
67.320
1
60.5
41
0.721
50
0.000
100
AcDbText
0
MTEXT
5
90a
100
AcDbEntity
8
0-8寸法
62
7
370
-3
100
AcDbMText
10
2370.524
20
490.990
30
0.0
40
63.580
41
0.000
71
7
72
1
1
\W1.093;戸当幅{\W0.787; 900}
7
STANDARD
11
1.00000
21
0.00000
31
0.0
0
MTEXT
5
90b
100
AcDbEntity
8
0-8寸法
62
7
370
-3
100
AcDbMText
10
1366.710
20
1853.574
30
0.0
40
63.580
41
0.000
71
7
72
1
1
\W1.093;扉体高{\W0.787; 800}
7
STANDARD
11
0.00000
21
1.00000
31
0.0
0
MTEXT
5
90c
100
AcDbEntity
8
0-8寸法
62
7
370
-3
100
AcDbMText
10
966.710
20
1903.574
30
0.0
40
63.580
41
0.000
71
7
72
1
1
\W1.093;戸当高{\W0.787; 950}
7
STANDARD
11
0.00000
21
1.00000
31
0.0
0
MTEXT
5
90d
100
AcDbEntity
8
0-8寸法
62
7
370
-3
100
AcDbMText
10
2370.526
20
5329.910
30
0.0
40
63.580
41
0.000
71
7
72
1
1
\W1.093;有効幅{\W0.787; 700}
7
STANDARD
11
1.00000
21
0.00000
31
0.0
0
MTEXT
5
90e
100
AcDbEntity
8
0-8寸法
62
7
370
-3
100
AcDbMText
10
2370.526
20
4140.990
30
0.0
40
63.580
41
0.000
71
7
72
1
1
\W1.093;扉体幅{\W0.787; 800}
7
STANDARD
11
1.00000
21
0.00000
31
0.0
0
TEXT
5
90f
100
AcDbEntity
8
0-8寸法
62
7
370
-3
100
AcDbText
10
2528.024
20
3548.470
30
0.0
40
67.320
1
480
41
0.619
50
0.000
100
AcDbText
0
TEXT
5
910
100
AcDbEntity
8
0-A文字
62
7
370
-3
100
AcDbText
10
2099.230
20
2306.256
30
0.0
40
67.320
1
(A5083)
41
0.659
50
90.000
100
AcDbText
0
TEXT
5
911
100
AcDbEntity
8
0-A文字
62
7
370
-3
100
AcDbText
10
2561.230
20
2306.256
30
0.0
40
67.320
1
(A5083)
41
0.659
50
90.000
100
AcDbText
0
TEXT
5
912
100
AcDbEntity
8
0-A文字
62
7
370
-3
100
AcDbText
10
3239.230
20
2306.256
30
0.0
40
67.320
1
(A5083)
41
0.659
50
90.000
100
AcDbText
0
TEXT
5
913
100
AcDbEntity
8
0-A文字
62
7
370
-3
100
AcDbText
10
1999.230
20
2238.756
30
0.0
40
67.320
1
L60.5x65x6
41
0.622
50
90.000
100
AcDbText
0
TEXT
5
914
100
AcDbEntity
8
0-A文字
62
7
370
-3
100
AcDbText
10
3139.230
20
2238.756
30
0.0
40
67.320
1
L60.5x65x6
41
0.622
50
90.000
100
AcDbText
0
TEXT
5
915
100
AcDbEntity
8
0-A文字
62
7
370
-3
100
AcDbText
10
2110.524
20
1418.470
30
0.0
40
67.320
1
L60.5x65x6 (A5083)
41
0.649
50
0.000
100
AcDbText
0
TEXT
5
916
100
AcDbEntity
8
0-A文字
62
7
370
-3
100
AcDbText
10
2110.524
20
2058.470
30
0.0
40
67.320
1
L60.5x65x6 (A5083)
41
0.649
50
0.000
100
AcDbText
0
TEXT
5
917
100
AcDbEntity
8
0-8寸法
62
7
370
-3
100
AcDbText
10
5236.582
20
2198.470
30
0.0
40
67.320
1
20
41
0.597
50
0.000
100
AcDbText
0
MTEXT
5
918
100
AcDbEntity
8
0-8寸法
62
7
370
-3
100
AcDbMText
10
3853.424
20
890.990
30
0.0
40
63.580
41
0.000
71
7
72
1
1
\W1.093;戸当り{\W0.787;  PL-12t (SUS304)}
7
STANDARD
11
1.00000
21
0.00000
31
0.0
0
TEXT
5
919
100
AcDbEntity
8
0-8寸法
62
7
370
-3
100
AcDbText
10
2048.024
20
3348.470
30
0.0
40
67.320
1
150
41
0.710
50
0.000
100
AcDbText
0
TEXT
5
91a
100
AcDbEntity
8
0-8寸法
62
7
370
-3
100
AcDbText
10
3008.024
20
3348.470
30
0.0
40
67.320
1
150
41
0.710
50
0.000
100
AcDbText
0
TEXT
5
91b
100
AcDbEntity
8
0-8寸法
62
7
370
-3
100
AcDbText
10
1159.230
20
2963.574
30
0.0
40
67.320
1
70
41
0.654
50
90.000
100
AcDbText
0
TEXT
5
91c
100
AcDbEntity
8
0-8寸法
62
7
370
-3
100
AcDbText
10
2370.524
20
698.470
30
0.0
40
67.320
1
4x215P=860
41
0.606
50
0.000
100
AcDbText
0
TEXT
5
91d
100
AcDbEntity
8
0-8寸法
62
7
370
-3
100
AcDbText
10
1159.230
20
1853.574
30
0.0
40
67.320
1
4x215P=860
41
0.606
50
90.000
100
AcDbText
0
TEXT
5
91e
100
AcDbEntity
8
0-8寸法
62
7
370
-3
100
AcDbText
10
2370.524
20
3748.470
30
0.0
40
67.320
1
3x220P=660
41
0.585
50
0.000
100
AcDbText
0
MTEXT
5
91f
100
AcDbEntity
8
0-8寸法
62
7
370
-3
100
AcDbMText
10
5753.574
20
1853.574
30
0.0
40
63.580
41
0.000
71
7
72
1
1
\W1.093;有効高{\W0.787; 700}
7
STANDARD
11
0.00000
21
1.00000
31
0.0
0
MTEXT
5
920
100
AcDbEntity
8
0-8寸法
62
7
370
-3
100
AcDbMText
10
4123.574
20
1901.074
30
0.0
40
63.580
41
0.000
71
7
72
1
1
\W1.093;設計水深{\W0.787; 2.80 m}
7
STANDARD
11
0.00000
21
1.00000
31
0.0
0
MTEXT
5
921
100
AcDbEntity
8
0-8寸法
62
7
370
-3
100
AcDbMText
10
3561.736
20
4340.990
30
0.0
40
63.580
41
0.000
71
7
72
1
1
\W1.093;水密ゴム{\W0.787; }Ｐ型{\W0.787; 20x60x8(CRｺﾞﾑ)}
7
STANDARD
11
1.00000
21
0.00000
31
0.0
0
MTEXT
5
922
100
AcDbEntity
8
0-8寸法
62
7
370
-3
100
AcDbMText
10
3541.736
20
4140.990
30
0.0
40
63.580
41
0.000
71
7
72
1
1
\W1.093;ゴム押え{\W0.787; PL-6t(SUS304)}　
7
STANDARD
11
1.00000
21
0.00000
31
0.0
0
MTEXT
5
923
100
AcDbEntity
8
0-8寸法
62
7
370
-3
100
AcDbMText
10
3538.552
20
3947.230
30
0.0
40
63.580
41
0.000
71
7
72
1
1
\W1.093;皿{\W0.787;BT&NT  M8(SUS304}相当{\W0.787;)}
7
STANDARD
11
1.00000
21
0.00000
31
0.0
0
MTEXT
5
924
100
AcDbEntity
8
0-8寸法
62
7
370
-3
100
AcDbMText
10
3530.844
20
3534.083
30
0.0
40
63.580
41
0.000
71
7
72
1
1
\W1.093;吊り金具{\W0.787;   PL-9t(SUS304) }
7
STANDARD
11
1.00000
21
0.00000
31
0.0
0
MTEXT
5
925
100
AcDbEntity
8
0-8寸法
62
7
370
-3
100
AcDbMText
10
3539.236
20
3340.990
30
0.0
40
63.580
41
0.000
71
7
72
1
1
\W1.093;六角{\W0.787;BT}＆{\W0.787;NT M12(SUS304}相当{\W0.787;)}
7
STANDARD
11
1.00000
21
0.00000
31
0.0
0
MTEXT
5
926
100
AcDbEntity
8
0-8寸法
62
7
370
-3
100
AcDbMText
10
564.512
20
3740.990
30
0.0
40
63.580
41
0.000
71
7
72
1
1
\W1.093;吊り{\W0.787;ﾌﾞﾗｹｯﾄ PL-10t(SUS304)}
7
STANDARD
11
1.00000
21
0.00000
31
0.0
0
MTEXT
5
927
100
AcDbEntity
8
0-8寸法
62
7
370
-3
100
AcDbMText
10
564.512
20
3540.990
30
0.0
40
63.580
41
0.000
71
7
72
1
1
\W1.093;{\W0.787; }　　　　　{\W0.787;PL-12t(SUS304)}
7
STANDARD
11
1.00000
21
0.00000
31
0.0
0
POLYLINE
5
928
100
AcDbEntity
8
0-8寸法
6
CONTINUOUS
62
  4
100
AcDb2dPolyline
66
1
10
0.0
20
0.0
30
0.0
70
0
0
VERTEX
5
929
100
AcDbEntity
8
0-8寸法
6
CONTINUOUS
62
  4
100
AcDbVertex
100
AcDb2dVertex
10
3503.356000000000
20
3520.376000000000
30
0.0
0
VERTEX
5
92a
100
AcDbEntity
8
0-8寸法
6
CONTINUOUS
62
  4
100
AcDbVertex
100
AcDb2dVertex
10
3503.356000000000
20
3320.376000000000
30
0.0
0
VERTEX
5
92b
100
AcDbEntity
8
0-8寸法
6
CONTINUOUS
62
  4
100
AcDbVertex
100
AcDb2dVertex
10
3128.648000000000
20
3007.916000000000
30
0.0
0
SEQEND
5
92c
100
AcDbEntity
8
0-8寸法
0
LINE
5
92d
100
AcDbEntity
8
0-8寸法
6
CONTINUOUS
62
4
100
AcDbLine
10
1787.324000000000
20
3320.376000000000
30
0.0
11
2060.888000000000
21
3046.714000000000
31
0.0
0
LINE
5
92e
100
AcDbEntity
8
0-8寸法
6
CONTINUOUS
62
4
100
AcDbLine
10
4904.188000000000
20
870.376000000000
30
0.0
11
5165.860000000000
21
1244.584000000000
31
0.0
0
LINE
5
92f
100
AcDbEntity
8
0-8寸法
6
CONTINUOUS
62
4
100
AcDbLine
10
4904.188000000000
20
470.376000000000
30
0.0
11
5174.188000000000
21
1170.376000000000
31
0.0
0
LINE
5
930
100
AcDbEntity
8
0-9扉体
6
CONTINUOUS
62
7
100
AcDbLine
10
2622.324000000000
20
3000.376000000000
30
0.0
11
2552.324000000000
21
3000.376000000000
31
0.0
0
LINE
5
931
100
AcDbEntity
8
0-9扉体
6
CONTINUOUS
62
7
100
AcDbLine
10
2522.324000000000
20
2970.376000000000
30
0.0
11
2552.324000000000
21
3000.376000000000
31
0.0
0
LINE
5
932
100
AcDbEntity
8
0-9扉体
6
CONTINUOUS
62
7
100
AcDbLine
10
2652.324000000000
20
2970.376000000000
30
0.0
11
2622.324000000000
21
3000.376000000000
31
0.0
0
LINE
5
933
100
AcDbEntity
8
0-9扉体
6
CONTINUOUS
62
4
100
AcDbLine
10
5087.188000000000
20
3018.376000000000
30
0.0
11
5047.188000000000
21
3018.376000000000
31
0.0
0
LINE
5
934
100
AcDbEntity
8
0-9扉体
6
CONTINUOUS
62
4
100
AcDbLine
10
5117.188000000000
20
2988.376000000000
30
0.0
11
5117.188000000000
21
2917.376000000000
31
0.0
0
TEXT
5
935
100
AcDbEntity
8
0-A文字
62
7
370
-3
100
AcDbText
10
6143.602
20
1633.680
30
0.0
40
58.811
1
注記　塗装　ＡＬ部は下地処理後、ポリウレタン樹脂系
41
0.856
50
0.000
100
AcDbText
0
TEXT
5
936
100
AcDbEntity
8
0-A文字
62
7
370
-3
100
AcDbText
10
6143.602
20
1393.680
30
0.0
40
58.811
1
　　　と致します。
41
0.856
50
0.000
100
AcDbText
0
TEXT
5
937
100
AcDbEntity
8
0-A文字
62
7
370
-3
100
AcDbText
10
6143.602
20
1273.680
30
0.0
40
58.811
1
　　　但し、ＳＵＳ３０４部は酸洗いと致します。
41
0.856
50
0.000
100
AcDbText
0
LINE
5
938
100
AcDbEntity
8
0-A文字
6
CONTINUOUS
62
4
100
AcDbLine
10
6109.998000000000
20
1606.950533423660
30
0.0
11
7922.984848313281
21
1606.950533423660
31
0.0
0
LINE
5
939
100
AcDbEntity
8
0-A文字
6
CONTINUOUS
62
4
100
AcDbLine
10
6109.998000000000
20
1486.950533423660
30
0.0
11
7922.984848313281
21
1486.950533423660
31
0.0
0
LINE
5
93a
100
AcDbEntity
8
0-A文字
6
CONTINUOUS
62
4
100
AcDbLine
10
6109.998000000000
20
1366.950533423660
30
0.0
11
7922.984848313281
21
1366.950533423660
31
0.0
0
LINE
5
93b
100
AcDbEntity
8
0-A文字
6
CONTINUOUS
62
4
100
AcDbLine
10
6109.998000000000
20
1246.950533423660
30
0.0
11
7922.984848313281
21
1246.950533423660
31
0.0
0
ELLIPSE
  5
93c
100
AcDbEntity
8
0-7図枠
6
CONTINUOUS
62
3
100
AcDbEllipse
10
5889.986000000000
20
378.058000000000
30
0.0
11
60.000000000000
21
0.000000000000
31
0.0
210
0.0
220
0.0
230
1.0
40
0.833300000000
41
0.000000000000
42
6.283185307180
0
ELLIPSE
  5
93d
100
AcDbEntity
8
0-7図枠
6
CONTINUOUS
62
3
100
AcDbEllipse
10
5889.986000000000
20
378.058000000000
30
0.0
11
60.000000000000
21
0.000000000000
31
0.0
210
0.0
220
0.0
230
1.0
40
0.833300000000
41
0.000000000000
42
6.283185307180
0
LINE
5
93e
100
AcDbEntity
8
0-7図枠
6
CONTINUOUS
62
3
100
AcDbLine
10
5800.000000000000
20
1080.000000000000
30
0.0
11
5800.000000000000
21
300.000000000000
31
0.0
0
LINE
5
93f
100
AcDbEntity
8
0-7図枠
6
CONTINUOUS
62
3
100
AcDbLine
10
5800.000000000000
20
1080.000000000000
30
0.0
11
8100.000000000000
21
1080.000000000000
31
0.0
0
LINE
5
940
100
AcDbEntity
8
0-7図枠
6
CONTINUOUS
62
3
100
AcDbLine
10
5800.000000000000
20
480.000000000000
30
0.0
11
8100.000000000000
21
480.000000000000
31
0.0
0
LINE
5
941
100
AcDbEntity
8
0-7図枠
6
CONTINUOUS
62
3
100
AcDbLine
10
6950.000000000000
20
1080.000000000000
30
0.0
11
6950.000000000000
21
300.000000000000
31
0.0
0
LINE
5
942
100
AcDbEntity
8
0-7図枠
6
CONTINUOUS
62
3
100
AcDbLine
10
6830.000000000000
20
1080.000000000000
30
0.0
11
6830.000000000000
21
300.000000000000
31
0.0
0
LINE
5
943
100
AcDbEntity
8
0-7図枠
6
CONTINUOUS
62
3
100
AcDbLine
10
7900.000000000000
20
480.000000000000
30
0.0
11
7900.000000000000
21
300.000000000000
31
0.0
0
LINE
5
944
100
AcDbEntity
8
0-7図枠
6
CONTINUOUS
62
3
100
AcDbLine
10
7270.000000000000
20
700.000000000000
30
0.0
11
7270.000000000000
21
480.000000000000
31
0.0
0
LINE
5
945
100
AcDbEntity
8
0-7図枠
6
CONTINUOUS
62
3
100
AcDbLine
10
7370.000000000000
20
700.000000000000
30
0.0
11
7370.000000000000
21
480.000000000000
31
0.0
0
LINE
5
946
100
AcDbEntity
8
0-7図枠
6
CONTINUOUS
62
3
100
AcDbLine
10
7680.000000000000
20
700.000000000000
30
0.0
11
7680.000000000000
21
480.000000000000
31
0.0
0
LINE
5
947
100
AcDbEntity
8
0-7図枠
6
CONTINUOUS
62
3
100
AcDbLine
10
7780.000000000000
20
700.000000000000
30
0.0
11
7780.000000000000
21
480.000000000000
31
0.0
0
LINE
5
948
100
AcDbEntity
8
0-7図枠
6
CONTINUOUS
62
3
100
AcDbLine
10
6830.000000000000
20
700.000000000000
30
0.0
11
8100.000000000000
21
700.000000000000
31
0.0
0
LINE
5
949
100
AcDbEntity
8
0-7図枠
6
CONTINUOUS
62
3
100
AcDbLine
10
5800.000000000000
20
660.000000000000
30
0.0
11
6830.000000000000
21
660.000000000000
31
0.0
0
LINE
5
94a
100
AcDbEntity
8
0-7図枠
6
CONTINUOUS
62
3
100
AcDbLine
10
5800.000000000000
20
840.000000000000
30
0.0
11
6830.000000000000
21
840.000000000000
31
0.0
0
LINE
5
94b
100
AcDbEntity
8
0-7図枠
6
CONTINUOUS
62
3
100
AcDbLine
10
5909.998000000000
20
1080.000000000000
30
0.0
11
5909.998000000000
21
480.000000000000
31
0.0
0
LINE
5
94c
100
AcDbEntity
8
0-7図枠
6
CONTINUOUS
62
3
100
AcDbLine
10
6420.000000000000
20
840.000000000000
30
0.0
11
6420.000000000000
21
480.000000000000
31
0.0
0
LINE
5
94d
100
AcDbEntity
8
0-7図枠
6
CONTINUOUS
62
3
100
AcDbLine
10
6310.000000000000
20
840.000000000000
30
0.0
11
6310.000000000000
21
480.000000000000
31
0.0
0
LINE
5
94e
100
AcDbEntity
8
0-7図枠
6
CONTINUOUS
62
3
100
AcDbLine
10
7930.000000000000
20
330.000000000000
30
0.0
11
8000.000000000000
21
451.244000000000
31
0.0
0
LINE
5
94f
100
AcDbEntity
8
0-7図枠
6
CONTINUOUS
62
3
100
AcDbLine
10
8070.000000000000
20
330.000000000000
30
0.0
11
8000.000000000000
21
451.244000000000
31
0.0
0
LINE
5
950
100
AcDbEntity
8
0-7図枠
6
CONTINUOUS
62
3
100
AcDbLine
10
7930.000000000000
20
330.000000000000
30
0.0
11
8070.000000000000
21
330.000000000000
31
0.0
0
LINE
5
951
100
AcDbEntity
8
0-7図枠
6
CONTINUOUS
62
3
100
AcDbLine
10
5846.816000000000
20
379.888000000000
30
0.0
11
5912.114000000000
21
342.188000000000
31
0.0
0
LINE
5
952
100
AcDbEntity
8
0-7図枠
6
CONTINUOUS
62
3
100
AcDbLine
10
5867.306000000000
20
385.378000000000
30
0.0
11
5926.826000000000
21
351.014000000000
31
0.0
0
LINE
5
953
100
AcDbEntity
8
0-7図枠
6
CONTINUOUS
62
3
100
AcDbLine
10
5887.795999999999
20
390.868000000000
30
0.0
11
5936.252000000000
21
362.892000000000
31
0.0
0
LINE
5
954
100
AcDbEntity
8
0-7図枠
6
CONTINUOUS
62
3
100
AcDbLine
10
5852.474000000000
20
381.404000000000
30
0.0
11
5839.986000000000
21
378.058000000000
31
0.0
0
LINE
5
955
100
AcDbEntity
8
0-7図枠
6
CONTINUOUS
62
3
100
AcDbLine
10
5867.650000000000
20
379.406000000000
30
0.0
11
5922.554000000000
21
347.708000000000
31
0.0
0
LINE
5
956
100
AcDbEntity
8
0-7図枠
6
CONTINUOUS
62
3
100
AcDbLine
10
5888.142000000000
20
384.896000000000
30
0.0
11
5933.676000000000
21
358.606000000000
31
0.0
0
LINE
5
957
100
AcDbEntity
8
0-7図枠
6
CONTINUOUS
62
3
100
AcDbLine
10
5908.632000000000
20
390.386000000000
30
0.0
11
5939.510000000000
21
372.558000000000
31
0.0
0
LINE
5
958
100
AcDbEntity
8
0-7図枠
6
CONTINUOUS
62
3
100
AcDbLine
10
5872.964000000000
20
386.894000000000
30
0.0
11
5857.418000000000
21
382.728000000000
31
0.0
0
LINE
5
959
100
AcDbEntity
8
0-7図枠
6
CONTINUOUS
62
3
100
AcDbLine
10
5893.454000000000
20
392.384000000000
30
0.0
11
5878.364000000000
21
388.342000000000
31
0.0
0
ARC
5
95a
100
AcDbEntity
8
0-7図枠
6
CONTINUOUS
62
3
100
AcDbCircle
10
5857.650000000000
20
362.086000000000
30
0.0
40
20.000000000000
100
AcDbArc
50
60.000000000000
51
105.000000000000
0
ARC
5
95b
100
AcDbEntity
8
0-7図枠
6
CONTINUOUS
62
3
100
AcDbCircle
10
5878.139999999999
20
367.576000000000
30
0.0
40
20.000000000000
100
AcDbArc
50
60.000000000000
51
105.000000000000
0
ARC
5
95c
100
AcDbEntity
8
0-7図枠
6
CONTINUOUS
62
3
100
AcDbCircle
10
5898.630000000000
20
373.066000000000
30
0.0
40
20.000000000000
100
AcDbArc
50
60.000000000000
51
105.000000000000
0
ELLIPSE
  5
95d
100
AcDbEntity
8
0-7図枠
6
CONTINUOUS
62
3
100
AcDbEllipse
10
5889.986000000000
20
378.058000000000
30
0.0
11
50.000000000000
21
0.000000000000
31
0.0
210
0.0
220
0.0
230
1.0
40
0.800000000000
41
0.270792616483
42
6.145261525885
0
TEXT
5
95e
100
AcDbEntity
8
0-7図枠
62
7
370
-3
100
AcDbText
10
5853.654
20
1032.974
30
0.0
40
52.930
1
客先
41
0.856
50
0.000
  7
TATEGAKI
100
AcDbText
0
TEXT
5
95f
100
AcDbEntity
8
0-7図枠
62
7
370
-3
100
AcDbText
10
6888.655
20
997.918
30
0.0
40
52.930
1
名　称
41
0.856
50
0.000
  7
TATEGAKI
100
AcDbText
0
TEXT
5
960
100
AcDbEntity
8
0-7図枠
62
7
370
-3
100
AcDbText
10
6238.809
20
928.865
30
0.0
40
75.614
41
0.856
50
0.000
1
標準図
72
1
11
6369.999
21
960.000
31
0.0
100
AcDbText
73
2
0
TEXT
5
961
100
AcDbEntity
8
0-7図枠
62
7
370
-3
100
AcDbText
10
5853.654
20
822.974
30
0.0
40
52.930
1
材質
41
0.856
50
0.000
  7
TATEGAKI
100
AcDbText
0
TEXT
5
962
100
AcDbEntity
8
0-7図枠
62
7
370
-3
100
AcDbText
10
6363.655
20
822.974
30
0.0
40
52.930
1
数量
41
0.856
50
0.000
  7
TATEGAKI
100
AcDbText
0
MTEXT
5
963
100
AcDbEntity
8
0-7図枠
62
7
370
-3
100
AcDbMText
10
7528.379
20
813.640
30
0.0
40
67.140
41
0.000
71
5
72
1
1
\W0.972;{\W0.700;ｱﾙﾐ}合金製{\W0.700;ﾌﾗｯﾌﾟｹﾞ-ﾄ(}壁付け{\W0.700;)}
7
STANDARD
11
1.00000
21
0.00000
31
0.0
0
TEXT
5
964
100
AcDbEntity
8
0-7図枠
62
7
370
-3
100
AcDbText
10
6001.273
20
718.865
30
0.0
40
75.614
41
0.530
50
0.000
1
A5083
72
1
11
6109.999
21
750.000
31
0.0
100
AcDbText
73
2
0
TEXT
5
965
100
AcDbEntity
8
0-7図枠
62
7
370
-3
100
AcDbText
10
6888.655
20
662.974
30
0.0
40
52.930
1
承認
41
0.856
50
0.000
  7
TATEGAKI
100
AcDbText
0
TEXT
5
966
100
AcDbEntity
8
0-7図枠
62
7
370
-3
100
AcDbText
10
7318.655
20
662.974
30
0.0
40
52.930
1
検図
41
0.856
50
0.000
  7
TATEGAKI
100
AcDbText
0
TEXT
5
967
100
AcDbEntity
8
0-7図枠
62
7
370
-3
100
AcDbText
10
7728.655
20
662.974
30
0.0
40
52.930
1
担当
41
0.856
50
0.000
  7
TATEGAKI
100
AcDbText
0
TEXT
5
968
100
AcDbEntity
8
0-7図枠
62
7
370
-3
100
AcDbText
10
5853.654
20
642.974
30
0.0
40
52.930
1
尺度
41
0.856
50
0.000
  7
TATEGAKI
100
AcDbText
0
TEXT
5
969
100
AcDbEntity
8
0-7図枠
62
7
370
-3
100
AcDbText
10
6363.655
20
642.974
30
0.0
40
52.930
1
日付
41
0.856
50
0.000
  7
TATEGAKI
100
AcDbText
0
TEXT
5
96a
100
AcDbEntity
8
0-7図枠
62
7
370
-3
100
AcDbText
10
7023.738
20
558.865
30
0.0
40
75.614
41
0.856
50
0.000
1
熊崎
72
1
11
7110.000
21
590.000
31
0.0
100
AcDbText
73
2
0
TEXT
5
96b
100
AcDbEntity
8
0-7図枠
62
7
370
-3
100
AcDbText
10
7438.738
20
558.865
30
0.0
40
75.614
41
0.856
50
0.000
1
井福
72
1
11
7525.000
21
590.000
31
0.0
100
AcDbText
73
2
0
TEXT
5
96c
100
AcDbEntity
8
0-7図枠
62
7
370
-3
100
AcDbText
10
7853.738
20
558.865
30
0.0
40
75.614
41
0.856
50
0.000
1
平川
72
1
11
7940.000
21
590.000
31
0.0
100
AcDbText
73
2
0
TEXT
5
96d
100
AcDbEntity
8
0-7図枠
62
7
370
-3
100
AcDbText
10
6023.737
20
538.865
30
0.0
40
75.614
41
0.684
50
0.000
1
1/10
72
1
11
6109.999
21
570.000
31
0.0
100
AcDbText
73
2
0
LINE
5
96e
100
AcDbEntity
8
0-7図枠
6
CONTINUOUS
62
3
100
AcDbLine
10
7125.000000000000
20
980.000000000000
30
0.0
11
7925.000000000000
21
980.000000000000
31
0.0
0
TEXT
5
96f
100
AcDbEntity
8
0-7図枠
62
7
370
-3
100
AcDbText
10
6888.655
20
462.974
30
0.0
40
52.930
1
図番
41
0.856
50
0.000
  7
TATEGAKI
100
AcDbText
0
TEXT
5
970
100
AcDbEntity
8
0-7図枠
62
7
370
-3
100
AcDbText
10
5997.910
20
361.279
30
0.0
40
75.614
1
三重重工業株式会社
41
0.856
50
0.000
100
AcDbText
0
TEXT
5
971
100
AcDbEntity
8
0-7図枠
62
7
370
-3
100
AcDbText
10
7191.634
20
886.008
30
0.0
40
75.614
1
700 Bo x 700 Ho
41
0.616
50
0.000
100
AcDbText
0
MTEXT
5
972
100
AcDbEntity
8
0-7図枠
62
7
370
-3
100
AcDbMText
10
7230.772
20
994.964
30
0.0
40
55.543
41
0.000
71
7
72
1
1
\W0.972;型式　{\W0.700;MFR-A0707K}
7
STANDARD
11
1.00000
21
0.00000
31
0.0
0
TEXT
5
973
100
AcDbEntity
8
0-7図枠
62
7
370
-3
100
AcDbText
10
7159.026
20
358.865
30
0.0
40
75.614
1
Ｋ－２１５７
41
0.856
50
0.000
100
AcDbText
0
TEXT
5
974
100
AcDbEntity
8
0-7図枠
62
7
370
-3
100
AcDbText
10
7979.702
20
341.271
30
0.0
40
75.614
1
3
41
0.516
50
0.000
100
AcDbText
0
LINE
5
975
100
AcDbEntity
8
F-F_J_ADD
6
HIDDEN
62
109
100
AcDbLine
10
0.000000000000
20
5940.000000000000
30
0.0
11
8400.000000000000
21
5940.000000000000
31
0.0
0
LINE
5
976
100
AcDbEntity
8
F-F_J_ADD
6
HIDDEN
62
109
100
AcDbLine
10
8400.000000000000
20
5940.000000000000
30
0.0
11
8400.000000000000
21
0.000000000000
31
0.0
0
LINE
5
977
100
AcDbEntity
8
F-F_J_ADD
6
HIDDEN
62
109
100
AcDbLine
10
0.000000000000
20
0.000000000000
30
0.0
11
8400.000000000000
21
0.000000000000
31
0.0
0
LINE
5
978
100
AcDbEntity
8
F-F_J_ADD
6
HIDDEN
62
109
100
AcDbLine
10
0.000000000000
20
5940.000000000000
30
0.0
11
0.000000000000
21
0.000000000000
31
0.0
0
LINE
5
979
100
AcDbEntity
8
F-F_J_ADD
6
HIDDEN
62
109
100
AcDbLine
10
1887.324000000000
20
1370.376000000000
30
0.0
11
1887.324000000000
21
2770.376000000000
31
0.0
0
LINE
5
97a
100
AcDbEntity
8
F-F_J_ADD
6
HIDDEN
62
109
100
AcDbLine
10
1887.324000000000
20
2770.376000000000
30
0.0
11
3287.324000000000
21
2770.376000000000
31
0.0
0
LINE
5
97b
100
AcDbEntity
8
F-F_J_ADD
6
HIDDEN
62
109
100
AcDbLine
10
3287.324000000000
20
2770.376000000000
30
0.0
11
3287.324000000000
21
1370.376000000000
31
0.0
0
LINE
5
97c
100
AcDbEntity
8
F-F_J_ADD
6
HIDDEN
62
109
100
AcDbLine
10
3287.324000000000
20
1370.376000000000
30
0.0
11
1887.324000000000
21
1370.376000000000
31
0.0
0
LINE
5
97d
100
AcDbEntity
8
F-F_J_ADD
6
HIDDEN
62
109
100
AcDbLine
10
5854.999000000000
20
480.000000000000
30
0.0
11
5854.999000000000
21
1080.000000000000
31
0.0
0
LINE
5
97e
100
AcDbEntity
8
F-F_J_ADD
6
HIDDEN
62
109
100
AcDbLine
10
6369.999000000000
20
1080.000000000000
30
0.0
11
6369.999000000000
21
840.000000000000
31
0.0
0
LINE
5
97f
100
AcDbEntity
8
F-F_J_ADD
6
HIDDEN
62
109
100
AcDbLine
10
6109.999000000000
20
480.000000000000
30
0.0
11
6109.999000000000
21
840.000000000000
31
0.0
0
LINE
5
980
100
AcDbEntity
8
F-F_J_ADD
6
HIDDEN
62
109
100
AcDbLine
10
6365.000000000000
20
840.000000000000
30
0.0
11
6365.000000000000
21
480.000000000000
31
0.0
0
LINE
5
981
100
AcDbEntity
8
F-F_J_ADD
6
HIDDEN
62
109
100
AcDbLine
10
6625.000000000000
20
840.000000000000
30
0.0
11
6625.000000000000
21
480.000000000000
31
0.0
0
LINE
5
982
100
AcDbEntity
8
F-F_J_ADD
6
HIDDEN
62
109
100
AcDbLine
10
5800.000000000000
20
960.000000000000
30
0.0
11
6830.000000000000
21
960.000000000000
31
0.0
0
LINE
5
983
100
AcDbEntity
8
F-F_J_ADD
6
HIDDEN
62
109
100
AcDbLine
10
6830.000000000000
20
750.000000000000
30
0.0
11
5800.000000000000
21
750.000000000000
31
0.0
0
LINE
5
984
100
AcDbEntity
8
F-F_J_ADD
6
HIDDEN
62
109
100
AcDbLine
10
6830.000000000000
20
570.000000000000
30
0.0
11
5800.000000000000
21
570.000000000000
31
0.0
0
LINE
5
985
100
AcDbEntity
8
F-F_J_ADD
6
HIDDEN
62
109
100
AcDbLine
10
6890.000000000000
20
1080.000000000000
30
0.0
11
6890.000000000000
21
300.000000000000
31
0.0
0
LINE
5
986
100
AcDbEntity
8
F-F_J_ADD
6
HIDDEN
62
109
100
AcDbLine
10
7110.000000000000
20
700.000000000000
30
0.0
11
7110.000000000000
21
480.000000000000
31
0.0
0
LINE
5
987
100
AcDbEntity
8
F-F_J_ADD
6
HIDDEN
62
109
100
AcDbLine
10
7320.000000000000
20
700.000000000000
30
0.0
11
7320.000000000000
21
480.000000000000
31
0.0
0
LINE
5
988
100
AcDbEntity
8
F-F_J_ADD
6
HIDDEN
62
109
100
AcDbLine
10
7525.000000000000
20
480.000000000000
30
0.0
11
7525.000000000000
21
700.000000000000
31
0.0
0
LINE
5
989
100
AcDbEntity
8
F-F_J_ADD
6
HIDDEN
62
109
100
AcDbLine
10
8100.000000000000
20
590.000000000000
30
0.0
11
6830.000000000000
21
590.000000000000
31
0.0
0
LINE
5
98a
100
AcDbEntity
8
F-F_J_ADD
6
HIDDEN
62
109
100
AcDbLine
10
7730.000000000000
20
480.000000000000
30
0.0
11
7730.000000000000
21
700.000000000000
31
0.0
0
LINE
5
98b
100
AcDbEntity
8
F-F_J_ADD
6
HIDDEN
62
109
100
AcDbLine
10
7940.000000000000
20
700.000000000000
30
0.0
11
7940.000000000000
21
480.000000000000
31
0.0
0
LINE
5
98c
100
AcDbEntity
8
F-F_J_ADD
6
HIDDEN
62
109
100
AcDbLine
10
6950.000000000000
20
890.000000000000
30
0.0
11
6830.000000000000
21
890.000000000000
31
0.0
0
LINE
5
98d
100
AcDbEntity
8
F-F_J_ADD
6
HIDDEN
62
109
100
AcDbLine
10
5800.000000000000
20
390.000000000000
30
0.0
11
8100.000000000000
21
390.000000000000
31
0.0
0
LINE
5
98e
100
AcDbEntity
8
F-F_J_ADD
6
HIDDEN
62
109
100
AcDbLine
10
8000.000000000000
20
480.000000000000
30
0.0
11
8000.000000000000
21
300.000000000000
31
0.0
0
LINE
5
98f
100
AcDbEntity
8
F-F_J_ADD
6
HIDDEN
62
109
100
AcDbLine
10
7425.000000000000
20
300.000000000000
30
0.0
11
7425.000000000000
21
480.000000000000
31
0.0
0
LINE
5
990
100
AcDbEntity
8
F-F_J_ADD
6
HIDDEN
62
109
100
AcDbLine
10
7525.000000000000
20
700.000000000000
30
0.0
11
7525.000000000000
21
1080.000000000000
31
0.0
0
LINE
5
991
100
AcDbEntity
8
F-F_J_ADD
6
HIDDEN
62
109
100
AcDbLine
10
6950.000000000000
20
1025.714285714286
30
0.0
11
8100.000000000000
21
1025.714285714286
31
0.0
0
LINE
5
992
100
AcDbEntity
8
F-F_J_ADD
6
HIDDEN
62
109
100
AcDbLine
10
6950.000000000000
20
971.428571428572
30
0.0
11
8100.000000000000
21
971.428571428572
31
0.0
0
LINE
5
993
100
AcDbEntity
8
F-F_J_ADD
6
HIDDEN
62
109
100
AcDbLine
10
6950.000000000000
20
917.142857142857
30
0.0
11
8100.000000000000
21
917.142857142857
31
0.0
0
LINE
5
994
100
AcDbEntity
8
F-F_J_ADD
6
HIDDEN
62
109
100
AcDbLine
10
6950.000000000000
20
862.857142857143
30
0.0
11
8100.000000000000
21
862.857142857143
31
0.0
0
LINE
5
995
100
AcDbEntity
8
F-F_J_ADD
6
HIDDEN
62
109
100
AcDbLine
10
6950.000000000000
20
808.571428571429
30
0.0
11
8100.000000000000
21
808.571428571429
31
0.0
0
LINE
5
996
100
AcDbEntity
8
F-F_J_ADD
6
HIDDEN
62
109
100
AcDbLine
10
6950.000000000000
20
754.285714285715
30
0.0
11
8100.000000000000
21
754.285714285715
31
0.0
0
MTEXT
5
997
100
AcDbEntity
8
0-8寸法
62
7
370
-3
100
AcDbMText
10
515.215
20
3340.990
30
0.0
40
63.580
41
0.000
71
7
72
1
1
\W1.093;{\W0.787; }接着系{\W0.787;ｱﾝｶ- M12(SUS304}相当{\W0.787;)}
7
STANDARD
11
1.00000
21
0.00000
31
0.0
0
TEXT
5
998
100
AcDbEntity
8
0-8寸法
62
7
370
-3
100
AcDbText
10
5202.888
20
3498.470
30
0.0
40
67.320
1
12t
41
0.640
50
0.000
100
AcDbText
0
MTEXT
5
999
100
AcDbEntity
8
0-8寸法
62
7
370
-3
100
AcDbMText
10
4888.424
20
690.990
30
0.0
40
63.580
41
0.000
71
9
72
1
1
\W1.093;金属系{\W0.787;ｱﾝｶ- M10(SUS304}相当{\W0.787;)}
7
STANDARD
11
1.00000
21
0.00000
31
0.0
0
LINE
5
99a
100
AcDbEntity
8
0-8寸法
6
CONTINUOUS
62
4
100
AcDbLine
10
3703.092710544940
20
670.376000000000
30
0.0
11
4904.188000000000
21
670.376000000000
31
0.0
0
LINE
5
99b
100
AcDbEntity
8
0-8寸法
6
CONTINUOUS
62
4
100
AcDbLine
10
3703.092710544940
20
870.376000000000
30
0.0
11
4904.188000000000
21
870.376000000000
31
0.0
0
TEXT
5
99c
100
AcDbEntity
8
0-A文字
62
7
370
-3
100
AcDbText
10
2461.230
20
2238.756
30
0.0
40
67.320
41
0.625
50
90.000
1
PL-8tx60.5
72
1
11
2428.510
21
2460.556
31
0.0
100
AcDbText
73
2
0
TEXT
5
99d
100
AcDbEntity
8
0-A文字
62
7
370
-3
100
AcDbText
10
2828.493
20
1647.994
30
0.0
40
67.320
41
0.577
50
0.000
1
PL-6t
72
1
11
2937.793
21
1680.714
31
0.0
100
AcDbText
73
2
0
TEXT
5
99e
100
AcDbEntity
8
0-A文字
62
7
370
-3
100
AcDbText
10
2783.493
20
1547.994
30
0.0
40
67.320
41
0.659
50
0.000
1
(A5083)
72
1
11
2937.793
21
1580.714
31
0.0
100
AcDbText
73
2
0
TEXT
5
99f
100
AcDbEntity
8
0-A文字
62
7
370
-3
100
AcDbText
10
2760.993
20
1767.994
30
0.0
40
67.320
41
0.893
50
0.000
1
ｽｷﾝﾌﾟﾚ-ﾄ
72
1
11
2937.793
21
1800.714
31
0.0
100
AcDbText
73
2
0
POLYLINE
5
9a0
100
AcDbEntity
8
0-9扉体
6
CONTINUOUS
62
  7
100
AcDb2dPolyline
66
1
10
0.0
20
0.0
30
0.0
70
0
0
VERTEX
5
9a1
100
AcDbEntity
8
0-9扉体
6
CONTINUOUS
62
  7
100
AcDbVertex
100
AcDb2dVertex
10
2587.324000000000
20
4613.294000000000
30
0.0
0
VERTEX
5
9a2
100
AcDbEntity
8
0-9扉体
6
CONTINUOUS
62
  7
100
AcDbVertex
100
AcDb2dVertex
10
2522.324000000000
20
4613.294000000000
30
0.0
0
VERTEX
5
9a3
100
AcDbEntity
8
0-9扉体
6
CONTINUOUS
62
  7
100
AcDbVertex
100
AcDb2dVertex
10
2522.324000000000
20
4593.294000000000
30
0.0
0
VERTEX
5
9a4
100
AcDbEntity
8
0-9扉体
6
CONTINUOUS
62
  7
100
AcDbVertex
100
AcDb2dVertex
10
2587.324000000000
20
4593.294000000000
30
0.0
0
SEQEND
5
9a5
100
AcDbEntity
8
0-9扉体
0
LINE
5
9a6
100
AcDbEntity
8
0-9扉体
6
CONTINUOUS
62
7
100
AcDbLine
10
2552.324000000000
20
4593.294000000000
30
0.0
11
2552.324000000000
21
4613.294000000000
31
0.0
0
TEXT
5
9a7
100
AcDbEntity
8
0-4陰線
62
7
370
-3
100
AcDbText
10
6578.014
20
5076.386
30
0.0
40
67.320
41
0.856
50
0.000
1
設　計　条　件
72
1
11
6854.814
21
5104.106
31
0.0
100
AcDbText
73
2
0
MTEXT
5
9a8
100
AcDbEntity
8
0-4陰線
62
7
370
-3
100
AcDbMText
10
7353.013
20
4733.906
30
0.0
40
63.580
41
0.000
71
5
72
1
1
\W0.972;後水深{\W0.700;   0.00 m}
7
STANDARD
11
1.00000
21
0.00000
31
0.0
0
TEXT
5
9a9
100
AcDbEntity
8
0-4陰線
62
7
370
-3
100
AcDbText
10
6068.015
20
4701.386
30
0.0
40
67.320
41
0.856
50
0.000
1
設計水深
72
1
11
6224.815
21
4729.106
31
0.0
100
AcDbText
73
2
0
TEXT
5
9aa
100
AcDbEntity
8
0-4陰線
62
7
370
-3
100
AcDbText
10
6068.015
20
4941.386
30
0.0
40
67.320
41
0.856
50
0.000
1
通水断面
72
1
11
6224.815
21
4969.106
31
0.0
100
AcDbText
73
2
0
LINE
5
9ab
100
AcDbEntity
8
0-4陰線
6
CONTINUOUS
62
4
100
AcDbLine
10
7034.813886568272
20
5029.104529193353
30
0.0
11
7034.813886568272
21
4669.104529193353
31
0.0
0
LINE
5
9ac
100
AcDbEntity
8
0-4陰線
6
CONTINUOUS
62
4
100
AcDbLine
10
6404.813886568272
20
5029.104529193353
30
0.0
11
6404.813886568272
21
4669.104529193353
31
0.0
0
LINE
5
9ad
100
AcDbEntity
8
0-4陰線
6
CONTINUOUS
62
4
100
AcDbLine
10
7664.811886568274
20
5179.106529193354
30
0.0
11
7664.811886568274
21
4669.104529193353
31
0.0
0
POLYLINE
5
9ae
100
AcDbEntity
8
0-4陰線
6
CONTINUOUS
62
  4
100
AcDb2dPolyline
66
1
10
0.0
20
0.0
30
0.0
70
0
0
VERTEX
5
9af
100
AcDbEntity
8
0-4陰線
6
CONTINUOUS
62
  4
100
AcDbVertex
100
AcDb2dVertex
10
6044.815886568273
20
5179.106529193354
30
0.0
0
VERTEX
5
9b0
100
AcDbEntity
8
0-4陰線
6
CONTINUOUS
62
  4
100
AcDbVertex
100
AcDb2dVertex
10
6044.815886568273
20
4669.104529193353
30
0.0
0
VERTEX
5
9b1
100
AcDbEntity
8
0-4陰線
6
CONTINUOUS
62
  4
100
AcDbVertex
100
AcDb2dVertex
10
7664.811886568274
20
4669.104529193353
30
0.0
0
SEQEND
5
9b2
100
AcDbEntity
8
0-4陰線
0
LINE
5
9b3
100
AcDbEntity
8
0-4陰線
6
CONTINUOUS
62
4
100
AcDbLine
10
6044.815886568273
20
4789.106529193354
30
0.0
11
7664.811886568274
21
4789.106529193354
31
0.0
0
LINE
5
9b4
100
AcDbEntity
8
0-4陰線
6
CONTINUOUS
62
4
100
AcDbLine
10
6044.815886568273
20
4909.106529193354
30
0.0
11
7664.811886568274
21
4909.106529193354
31
0.0
0
LINE
5
9b5
100
AcDbEntity
8
0-4陰線
6
CONTINUOUS
62
4
100
AcDbLine
10
6044.815886568273
20
5029.104529193353
30
0.0
11
7664.811886568274
21
5029.104529193353
31
0.0
0
LINE
5
9b6
100
AcDbEntity
8
0-4陰線
6
CONTINUOUS
62
4
100
AcDbLine
10
6044.815886568273
20
5179.106529193354
30
0.0
11
7664.811886568274
21
5179.106529193354
31
0.0
0
TEXT
5
9b7
100
AcDbEntity
8
0-4陰線
62
7
370
-3
100
AcDbText
10
6068.015
20
4821.387
30
0.0
40
67.320
41
0.856
50
0.000
1
扉体寸法
72
1
11
6224.815
21
4849.107
31
0.0
100
AcDbText
73
2
0
MTEXT
5
9b8
100
AcDbEntity
8
0-4陰線
62
7
370
-3
100
AcDbMText
10
6423.014
20
4933.906
30
0.0
40
63.580
41
0.000
71
7
72
1
1
\W0.972;有効幅{\W0.700;   0.70 m}
7
STANDARD
11
1.00000
21
0.00000
31
0.0
0
MTEXT
5
9b9
100
AcDbEntity
8
0-4陰線
62
7
370
-3
100
AcDbMText
10
6423.014
20
4813.907
30
0.0
40
63.580
41
0.000
71
7
72
1
1
\W0.972;扉体幅{\W0.700;   0.80 m}
7
STANDARD
11
1.00000
21
0.00000
31
0.0
0
MTEXT
5
9ba
100
AcDbEntity
8
0-4陰線
62
7
370
-3
100
AcDbMText
10
6423.014
20
4693.906
30
0.0
40
63.580
41
0.000
71
7
72
1
1
\W0.972;前水深{\W0.700;   2.80 m}
7
STANDARD
11
1.00000
21
0.00000
31
0.0
0
MTEXT
5
9bb
100
AcDbEntity
8
0-4陰線
62
7
370
-3
100
AcDbMText
10
7053.013
20
4933.906
30
0.0
40
63.580
41
0.000
71
7
72
1
1
\W0.972;有効高　{\W0.700; 0.70 m}
7
STANDARD
11
1.00000
21
0.00000
31
0.0
0
MTEXT
5
9bc
100
AcDbEntity
8
0-4陰線
62
7
370
-3
100
AcDbMText
10
7053.013
20
4813.907
30
0.0
40
63.580
41
0.000
71
7
72
1
1
\W0.972;扉体高{\W0.700;   0.80 m}
7
STANDARD
11
1.00000
21
0.00000
31
0.0
0
LINE
5
9bd
100
AcDbEntity
8
0-6戸当り
6
CONTINUOUS
62
2
100
AcDbLine
10
1717.326000000000
20
4717.698000000000
30
0.0
11
1712.324000000000
21
4776.722000000000
31
0.0
0
LINE
5
9be
100
AcDbEntity
8
0-6戸当り
6
CONTINUOUS
62
2
100
AcDbLine
10
1727.324000000000
20
4717.698000000000
30
0.0
11
1722.324000000000
21
4776.722000000000
31
0.0
0
LINE
5
9bf
100
AcDbEntity
8
0-6戸当り
6
CONTINUOUS
62
2
100
AcDbLine
10
1717.326000000000
20
4717.698000000000
30
0.0
11
1737.324000000000
21
4717.698000000000
31
0.0
0
LINE
5
9c0
100
AcDbEntity
8
0-6戸当り
6
CONTINUOUS
62
2
100
AcDbLine
10
1716.610000000000
20
4726.130000000000
30
0.0
11
1726.610000000000
21
4726.130000000000
31
0.0
0
LINE
5
9c1
100
AcDbEntity
8
0-6戸当り
6
CONTINUOUS
62
2
100
AcDbLine
10
1715.896000000000
20
4734.562000000000
30
0.0
11
1725.896000000000
21
4734.562000000000
31
0.0
0
LINE
5
9c2
100
AcDbEntity
8
0-6戸当り
6
CONTINUOUS
62
2
100
AcDbLine
10
1715.182000000000
20
4742.994000000000
30
0.0
11
1725.182000000000
21
4742.994000000000
31
0.0
0
LINE
5
9c3
100
AcDbEntity
8
0-6戸当り
6
CONTINUOUS
62
2
100
AcDbLine
10
1714.466000000000
20
4751.426000000000
30
0.0
11
1724.468000000000
21
4751.426000000000
31
0.0
0
LINE
5
9c4
100
AcDbEntity
8
0-6戸当り
6
CONTINUOUS
62
2
100
AcDbLine
10
1713.754000000000
20
4759.858000000000
30
0.0
11
1723.754000000000
21
4759.858000000000
31
0.0
0
LINE
5
9c5
100
AcDbEntity
8
0-6戸当り
6
CONTINUOUS
62
2
100
AcDbLine
10
1713.040000000000
20
4768.290000000000
30
0.0
11
1723.040000000000
21
4768.290000000000
31
0.0
0
POLYLINE
5
9c6
100
AcDbEntity
8
0-6戸当り
6
CONTINUOUS
62
  2
100
AcDb2dPolyline
66
1
10
0.0
20
0.0
30
0.0
70
0
0
VERTEX
5
9c7
100
AcDbEntity
8
0-6戸当り
6
CONTINUOUS
62
  2
100
AcDbVertex
100
AcDb2dVertex
10
1737.324000000000
20
4717.698000000000
30
0.0
0
VERTEX
5
9c8
100
AcDbEntity
8
0-6戸当り
6
CONTINUOUS
62
  2
100
AcDbVertex
100
AcDb2dVertex
10
1742.324000000000
20
4776.722000000000
30
0.0
0
VERTEX
5
9c9
100
AcDbEntity
8
0-6戸当り
6
CONTINUOUS
62
  2
100
AcDbVertex
100
AcDb2dVertex
10
1732.324000000000
20
4776.722000000000
30
0.0
0
SEQEND
5
9ca
100
AcDbEntity
8
0-6戸当り
0
LINE
5
9cb
100
AcDbEntity
8
0-6戸当り
6
CONTINUOUS
62
2
100
AcDbLine
10
1727.324000000000
20
4717.698000000000
30
0.0
11
1732.324000000000
21
4776.722000000000
31
0.0
0
LINE
5
9cc
100
AcDbEntity
8
0-6戸当り
6
CONTINUOUS
62
2
100
AcDbLine
10
1738.038000000000
20
4726.130000000000
30
0.0
11
1728.040000000000
21
4726.130000000000
31
0.0
0
LINE
5
9cd
100
AcDbEntity
8
0-6戸当り
6
CONTINUOUS
62
2
100
AcDbLine
10
1738.752000000000
20
4734.562000000000
30
0.0
11
1728.752000000000
21
4734.562000000000
31
0.0
0
LINE
5
9ce
100
AcDbEntity
8
0-6戸当り
6
CONTINUOUS
62
2
100
AcDbLine
10
1739.468000000000
20
4742.994000000000
30
0.0
11
1729.468000000000
21
4742.994000000000
31
0.0
0
LINE
5
9cf
100
AcDbEntity
8
0-6戸当り
6
CONTINUOUS
62
2
100
AcDbLine
10
1740.182000000000
20
4751.426000000000
30
0.0
11
1730.182000000000
21
4751.426000000000
31
0.0
0
LINE
5
9d0
100
AcDbEntity
8
0-6戸当り
6
CONTINUOUS
62
2
100
AcDbLine
10
1740.894000000000
20
4759.858000000000
30
0.0
11
1730.896000000000
21
4759.858000000000
31
0.0
0
LINE
5
9d1
100
AcDbEntity
8
0-6戸当り
6
CONTINUOUS
62
2
100
AcDbLine
10
1741.610000000000
20
4768.290000000000
30
0.0
11
1731.610000000000
21
4768.290000000000
31
0.0
0
LINE
5
9d2
100
AcDbEntity
8
0-6戸当り
6
CONTINUOUS
62
2
100
AcDbLine
10
1712.324000000000
20
4776.722000000000
30
0.0
11
1722.324000000000
21
4776.722000000000
31
0.0
0
LINE
5
9d3
100
AcDbEntity
8
0-6戸当り
6
CONTINUOUS
62
2
100
AcDbLine
10
1717.326000000000
20
4709.294000000000
30
0.0
11
1717.326000000000
21
4717.698000000000
31
0.0
0
LINE
5
9d4
100
AcDbEntity
8
0-6戸当り
6
CONTINUOUS
62
2
100
AcDbLine
10
1737.324000000000
20
4709.294000000000
30
0.0
11
1737.324000000000
21
4717.698000000000
31
0.0
0
LINE
5
9d5
100
AcDbEntity
8
0-5基準線
6
CENTER2
62
7
100
AcDbLine
10
5078.796000000000
20
3030.376000000000
30
0.0
11
5373.602000000000
21
3030.376000000000
31
0.0
0
LINE
5
9d6
100
AcDbEntity
8
0-6戸当り
6
CONTINUOUS
62
7
100
AcDbLine
10
1938.324000000000
20
4640.494000000000
30
0.0
11
1938.324000000000
21
4660.494000000000
31
0.0
0
LINE
5
9d7
100
AcDbEntity
8
0-6戸当り
6
CONTINUOUS
62
7
100
AcDbLine
10
1976.324000000000
20
4640.494000000000
30
0.0
11
1976.324000000000
21
4660.494000000000
31
0.0
0
LINE
5
9d8
100
AcDbEntity
8
0-6戸当り
6
CONTINUOUS
62
7
100
AcDbLine
10
1976.324000000000
20
4640.494000000000
30
0.0
11
1938.324000000000
21
4640.494000000000
31
0.0
0
LINE
5
9d9
100
AcDbEntity
8
0-6戸当り
6
CONTINUOUS
62
3
100
AcDbLine
10
1969.324000000000
20
4625.294000000000
30
0.0
11
1945.324000000000
21
4625.294000000000
31
0.0
0
LINE
5
9da
100
AcDbEntity
8
0-6戸当り
6
CONTINUOUS
62
3
100
AcDbLine
10
1964.826000000000
20
4625.294000000000
30
0.0
11
1964.826000000000
21
4640.494000000000
31
0.0
0
LINE
5
9db
100
AcDbEntity
8
0-6戸当り
6
CONTINUOUS
62
3
100
AcDbLine
10
1969.324000000000
20
4625.294000000000
30
0.0
11
1969.324000000000
21
4640.494000000000
31
0.0
0
LINE
5
9dc
100
AcDbEntity
8
0-6戸当り
6
CONTINUOUS
62
3
100
AcDbLine
10
1949.824000000000
20
4625.294000000000
30
0.0
11
1949.824000000000
21
4640.494000000000
31
0.0
0
LINE
5
9dd
100
AcDbEntity
8
0-6戸当り
6
CONTINUOUS
62
3
100
AcDbLine
10
1945.324000000000
20
4625.294000000000
30
0.0
11
1945.324000000000
21
4640.494000000000
31
0.0
0
LINE
5
9de
100
AcDbEntity
8
0-6戸当り
6
CONTINUOUS
62
7
100
AcDbLine
10
1957.324000000000
20
4642.192000000000
30
0.0
11
1957.324000000000
21
4660.494000000000
31
0.0
0
LINE
5
9df
100
AcDbEntity
8
0-5基準線
6
CENTER2
62
7
100
AcDbLine
10
1957.324000000000
20
4619.402000000000
30
0.0
11
1957.324000000000
21
4640.494000000000
31
0.0
0
ARC
5
9e0
100
AcDbEntity
8
0-6戸当り
6
CONTINUOUS
62
7
100
AcDbCircle
10
1947.824000000000
20
4667.934000000000
30
0.0
40
27.440000000000
100
AcDbArc
50
249.744000000000
51
290.256000000000
0
ARC
5
9e1
100
AcDbEntity
8
0-6戸当り
6
CONTINUOUS
62
7
100
AcDbCircle
10
1966.824000000000
20
4667.934000000000
30
0.0
40
27.440000000000
100
AcDbArc
50
249.744000000000
51
290.256000000000
0
ARC
5
9e2
100
AcDbEntity
8
0-6戸当り
6
CONTINUOUS
62
2
100
AcDbCircle
10
1957.324000000000
20
4663.452000000000
30
0.0
40
40.000000000000
100
AcDbArc
50
252.543000000000
51
287.457000000000
0
LINE
5
9e3
100
AcDbEntity
8
0-6戸当り
6
CONTINUOUS
62
7
100
AcDbLine
10
1938.324000000000
20
4660.494000000000
30
0.0
11
1938.324000000000
21
4680.494000000000
31
0.0
0
LINE
5
9e4
100
AcDbEntity
8
0-6戸当り
6
CONTINUOUS
62
7
100
AcDbLine
10
1976.324000000000
20
4660.494000000000
30
0.0
11
1976.324000000000
21
4680.494000000000
31
0.0
0
LINE
5
9e5
100
AcDbEntity
8
0-6戸当り
6
CONTINUOUS
62
7
100
AcDbLine
10
1976.324000000000
20
4660.494000000000
30
0.0
11
1938.324000000000
21
4660.494000000000
31
0.0
0
LINE
5
9e6
100
AcDbEntity
8
0-6戸当り
6
CONTINUOUS
62
7
100
AcDbLine
10
1957.324000000000
20
4662.192000000000
30
0.0
11
1957.324000000000
21
4680.494000000000
31
0.0
0
ARC
5
9e7
100
AcDbEntity
8
0-6戸当り
6
CONTINUOUS
62
7
100
AcDbCircle
10
1947.824000000000
20
4687.934000000000
30
0.0
40
27.440000000000
100
AcDbArc
50
249.744000000000
51
290.256000000000
0
ARC
5
9e8
100
AcDbEntity
8
0-6戸当り
6
CONTINUOUS
62
7
100
AcDbCircle
10
1966.824000000000
20
4687.934000000000
30
0.0
40
27.440000000000
100
AcDbArc
50
249.744000000000
51
290.256000000000
0
LINE
5
9e9
100
AcDbEntity
8
0-9扉体
6
CONTINUOUS
62
4
100
AcDbLine
10
1777.324000000000
20
4645.294000000000
30
0.0
11
1938.324000000000
21
4645.294000000000
31
0.0
0
LINE
5
9ea
100
AcDbEntity
8
0-9扉体
6
CONTINUOUS
62
6
100
AcDbLine
10
1976.324000000000
20
4650.058000000000
30
0.0
11
2011.560000000000
21
4685.294000000000
31
0.0
0
LINE
5
9eb
100
AcDbEntity
8
0-9扉体
6
CONTINUOUS
62
6
100
AcDbLine
10
1976.324000000000
20
4652.886000000000
30
0.0
11
2008.732000000000
21
4685.294000000000
31
0.0
0
LINE
5
9ec
100
AcDbEntity
8
0-9扉体
6
CONTINUOUS
62
4
100
AcDbLine
10
1777.324000000000
20
4633.294000000000
30
0.0
11
1945.324000000000
21
4633.294000000000
31
0.0
0
LINE
5
9ed
100
AcDbEntity
8
0-9扉体
6
CONTINUOUS
62
4
100
AcDbLine
10
1969.324000000000
20
4633.294000000000
30
0.0
11
2010.324000000000
21
4633.294000000000
31
0.0
0
LINE
5
9ee
100
AcDbEntity
8
0-9扉体
6
CONTINUOUS
62
4
100
AcDbLine
10
1976.324000000000
20
4645.294000000000
30
0.0
11
2032.124000000000
21
4645.294000000000
31
0.0
0
LINE
5
9ef
100
AcDbEntity
8
0-6戸当り
6
CONTINUOUS
62
7
100
AcDbLine
10
2276.324000000000
20
4640.494000000000
30
0.0
11
2276.324000000000
21
4660.494000000000
31
0.0
0
LINE
5
9f0
100
AcDbEntity
8
0-6戸当り
6
CONTINUOUS
62
7
100
AcDbLine
10
2238.324000000000
20
4640.494000000000
30
0.0
11
2238.324000000000
21
4660.494000000000
31
0.0
0
LINE
5
9f1
100
AcDbEntity
8
0-6戸当り
6
CONTINUOUS
62
7
100
AcDbLine
10
2238.324000000000
20
4640.494000000000
30
0.0
11
2276.324000000000
21
4640.494000000000
31
0.0
0
LINE
5
9f2
100
AcDbEntity
8
0-6戸当り
6
CONTINUOUS
62
3
100
AcDbLine
10
2245.324000000000
20
4625.294000000000
30
0.0
11
2269.324000000000
21
4625.294000000000
31
0.0
0
LINE
5
9f3
100
AcDbEntity
8
0-6戸当り
6
CONTINUOUS
62
3
100
AcDbLine
10
2249.824000000000
20
4625.294000000000
30
0.0
11
2249.824000000000
21
4640.494000000000
31
0.0
0
LINE
5
9f4
100
AcDbEntity
8
0-6戸当り
6
CONTINUOUS
62
3
100
AcDbLine
10
2245.324000000000
20
4625.294000000000
30
0.0
11
2245.324000000000
21
4640.494000000000
31
0.0
0
LINE
5
9f5
100
AcDbEntity
8
0-6戸当り
6
CONTINUOUS
62
3
100
AcDbLine
10
2264.824000000000
20
4625.294000000000
30
0.0
11
2264.824000000000
21
4640.494000000000
31
0.0
0
LINE
5
9f6
100
AcDbEntity
8
0-6戸当り
6
CONTINUOUS
62
7
100
AcDbLine
10
2257.324000000000
20
4642.192000000000
30
0.0
11
2257.324000000000
21
4660.494000000000
31
0.0
0
LINE
5
9f7
100
AcDbEntity
8
0-5基準線
6
CENTER2
62
7
100
AcDbLine
10
2257.324000000000
20
4619.402000000000
30
0.0
11
2257.324000000000
21
4640.494000000000
31
0.0
0
LINE
5
9f8
100
AcDbEntity
8
0-6戸当り
6
CONTINUOUS
62
3
100
AcDbLine
10
2269.324000000000
20
4625.294000000000
30
0.0
11
2269.324000000000
21
4640.494000000000
31
0.0
0
ARC
5
9f9
100
AcDbEntity
8
0-6戸当り
6
CONTINUOUS
62
7
100
AcDbCircle
10
2266.824000000000
20
4667.934000000000
30
0.0
40
27.440000000000
100
AcDbArc
50
249.744000000000
51
290.256000000000
0
ARC
5
9fa
100
AcDbEntity
8
0-6戸当り
6
CONTINUOUS
62
7
100
AcDbCircle
10
2247.824000000000
20
4667.934000000000
30
0.0
40
27.440000000000
100
AcDbArc
50
249.744000000000
51
290.256000000000
0
ARC
5
9fb
100
AcDbEntity
8
0-6戸当り
6
CONTINUOUS
62
2
100
AcDbCircle
10
2257.324000000000
20
4663.452000000000
30
0.0
40
40.000000000000
100
AcDbArc
50
252.543000000000
51
287.457000000000
0
LINE
5
9fc
100
AcDbEntity
8
0-6戸当り
6
CONTINUOUS
62
7
100
AcDbLine
10
2276.324000000000
20
4660.494000000000
30
0.0
11
2276.324000000000
21
4680.494000000000
31
0.0
0
LINE
5
9fd
100
AcDbEntity
8
0-6戸当り
6
CONTINUOUS
62
7
100
AcDbLine
10
2238.324000000000
20
4660.494000000000
30
0.0
11
2238.324000000000
21
4680.494000000000
31
0.0
0
LINE
5
9fe
100
AcDbEntity
8
0-6戸当り
6
CONTINUOUS
62
7
100
AcDbLine
10
2238.324000000000
20
4660.494000000000
30
0.0
11
2276.324000000000
21
4660.494000000000
31
0.0
0
LINE
5
9ff
100
AcDbEntity
8
0-6戸当り
6
CONTINUOUS
62
7
100
AcDbLine
10
2257.324000000000
20
4662.192000000000
30
0.0
11
2257.324000000000
21
4680.494000000000
31
0.0
0
ARC
5
a00
100
AcDbEntity
8
0-6戸当り
6
CONTINUOUS
62
7
100
AcDbCircle
10
2266.824000000000
20
4687.934000000000
30
0.0
40
27.440000000000
100
AcDbArc
50
249.744000000000
51
290.256000000000
0
ARC
5
a01
100
AcDbEntity
8
0-6戸当り
6
CONTINUOUS
62
7
100
AcDbCircle
10
2247.824000000000
20
4687.934000000000
30
0.0
40
27.440000000000
100
AcDbArc
50
249.744000000000
51
290.256000000000
0
LINE
5
a02
100
AcDbEntity
8
0-9扉体
6
CONTINUOUS
62
4
100
AcDbLine
10
2276.324000000000
20
4645.294000000000
30
0.0
11
3397.324000000000
21
4645.294000000000
31
0.0
0
LINE
5
a03
100
AcDbEntity
8
0-9扉体
6
CONTINUOUS
62
4
100
AcDbLine
10
2182.524000000000
20
4645.294000000000
30
0.0
11
2238.324000000000
21
4645.294000000000
31
0.0
0
LINE
5
a04
100
AcDbEntity
8
0-9扉体
6
CONTINUOUS
62
4
100
AcDbLine
10
2204.324000000000
20
4633.294000000000
30
0.0
11
2245.324000000000
21
4633.294000000000
31
0.0
0
LINE
5
a05
100
AcDbEntity
8
0-9扉体
6
CONTINUOUS
62
4
100
AcDbLine
10
2269.324000000000
20
4633.294000000000
30
0.0
11
3397.324000000000
21
4633.294000000000
31
0.0
0
LINE
5
a06
100
AcDbEntity
8
0-6戸当り
6
CONTINUOUS
62
3
100
AcDbLine
10
5107.990000000000
20
3009.600000000000
30
0.0
11
5125.888000000000
21
3009.600000000000
31
0.0
0
LINE
5
a07
100
AcDbEntity
8
0-6戸当り
6
CONTINUOUS
62
3
100
AcDbLine
10
5107.990000000000
20
3051.150000000000
30
0.0
11
5125.888000000000
21
3051.150000000000
31
0.0
0
LINE
5
a08
100
AcDbEntity
8
0-6戸当り
6
CONTINUOUS
62
3
100
AcDbLine
10
5106.388000000000
20
3048.376000000000
30
0.0
11
5106.388000000000
21
3012.374000000000
31
0.0
0
LINE
5
a09
100
AcDbEntity
8
0-6戸当り
6
CONTINUOUS
62
3
100
AcDbLine
10
5107.990000000000
20
3040.748000000000
30
0.0
11
5125.888000000000
21
3040.748000000000
31
0.0
0
LINE
5
a0a
100
AcDbEntity
8
0-6戸当り
6
CONTINUOUS
62
3
100
AcDbLine
10
5107.990000000000
20
3020.002000000000
30
0.0
11
5125.888000000000
21
3020.002000000000
31
0.0
0
LINE
5
a0b
100
AcDbEntity
8
0-6戸当り
6
CONTINUOUS
62
3
100
AcDbLine
10
5106.388000000000
20
3048.376000000000
30
0.0
11
5107.306000000000
21
3049.966000000000
31
0.0
0
LINE
5
a0c
100
AcDbEntity
8
0-6戸当り
6
CONTINUOUS
62
3
100
AcDbLine
10
5106.388000000000
20
3012.374000000000
30
0.0
11
5107.306000000000
21
3010.784000000000
31
0.0
0
LINE
5
a0d
100
AcDbEntity
8
0-6戸当り
6
CONTINUOUS
62
3
100
AcDbLine
10
5090.688000000000
20
3042.374000000000
30
0.0
11
5090.688000000000
21
3018.374000000000
31
0.0
0
LINE
5
a0e
100
AcDbEntity
8
0-6戸当り
6
CONTINUOUS
62
3
100
AcDbLine
10
5090.688000000000
20
3042.374000000000
30
0.0
11
5106.388000000000
21
3042.374000000000
31
0.0
0
LINE
5
a0f
100
AcDbEntity
8
0-6戸当り
6
CONTINUOUS
62
3
100
AcDbLine
10
5090.688000000000
20
3037.876000000000
30
0.0
11
5106.388000000000
21
3037.876000000000
31
0.0
0
LINE
5
a10
100
AcDbEntity
8
0-6戸当り
6
CONTINUOUS
62
3
100
AcDbLine
10
5090.688000000000
20
3022.876000000000
30
0.0
11
5106.388000000000
21
3022.876000000000
31
0.0
0
LINE
5
a11
100
AcDbEntity
8
0-6戸当り
6
CONTINUOUS
62
3
100
AcDbLine
10
5090.688000000000
20
3018.374000000000
30
0.0
11
5106.388000000000
21
3018.374000000000
31
0.0
0
LINE
5
a12
100
AcDbEntity
8
0-6戸当り
6
CONTINUOUS
62
7
100
AcDbLine
10
5106.388000000000
20
3042.374000000000
30
0.0
11
5107.106000000000
21
3042.374000000000
31
0.0
0
ARC
5
a13
100
AcDbEntity
8
0-6戸当り
6
CONTINUOUS
62
3
100
AcDbCircle
10
5115.630000000000
20
3045.950000000000
30
0.0
40
9.242000000000
100
AcDbArc
50
145.757000000000
51
214.243000000000
0
ARC
5
a14
100
AcDbEntity
8
0-6戸当り
6
CONTINUOUS
62
3
100
AcDbCircle
10
5140.768000000000
20
3030.376000000000
30
0.0
40
34.380000000000
100
AcDbArc
50
162.440000000000
51
197.560000000000
0
ARC
5
a15
100
AcDbEntity
8
0-6戸当り
6
CONTINUOUS
62
3
100
AcDbCircle
10
5115.630000000000
20
3014.800000000000
30
0.0
40
9.242000000000
100
AcDbArc
50
145.757000000000
51
214.243000000000
0
ARC
5
a16
100
AcDbEntity
8
0-6戸当り
6
CONTINUOUS
62
2
100
AcDbCircle
10
5128.846000000000
20
3030.376000000000
30
0.0
40
40.000000000000
100
AcDbArc
50
162.543000000000
51
197.457000000000
0
LINE
5
a17
100
AcDbEntity
8
0-6戸当り
6
CONTINUOUS
62
3
100
AcDbLine
10
5127.490000000000
20
3009.600000000000
30
0.0
11
5145.388000000000
21
3009.600000000000
31
0.0
0
LINE
5
a18
100
AcDbEntity
8
0-6戸当り
6
CONTINUOUS
62
3
100
AcDbLine
10
5127.490000000000
20
3051.150000000000
30
0.0
11
5145.388000000000
21
3051.150000000000
31
0.0
0
LINE
5
a19
100
AcDbEntity
8
0-6戸当り
6
CONTINUOUS
62
3
100
AcDbLine
10
5125.888000000000
20
3048.376000000000
30
0.0
11
5125.888000000000
21
3012.374000000000
31
0.0
0
LINE
5
a1a
100
AcDbEntity
8
0-6戸当り
6
CONTINUOUS
62
3
100
AcDbLine
10
5127.490000000000
20
3040.748000000000
30
0.0
11
5145.388000000000
21
3040.748000000000
31
0.0
0
LINE
5
a1b
100
AcDbEntity
8
0-6戸当り
6
CONTINUOUS
62
3
100
AcDbLine
10
5127.490000000000
20
3020.002000000000
30
0.0
11
5145.388000000000
21
3020.002000000000
31
0.0
0
LINE
5
a1c
100
AcDbEntity
8
0-6戸当り
6
CONTINUOUS
62
3
100
AcDbLine
10
5125.888000000000
20
3048.376000000000
30
0.0
11
5126.806000000001
21
3049.966000000000
31
0.0
0
LINE
5
a1d
100
AcDbEntity
8
0-6戸当り
6
CONTINUOUS
62
3
100
AcDbLine
10
5125.888000000000
20
3012.374000000000
30
0.0
11
5126.806000000001
21
3010.784000000000
31
0.0
0
LINE
5
a1e
100
AcDbEntity
8
0-6戸当り
6
CONTINUOUS
62
7
100
AcDbLine
10
5125.888000000000
20
3042.374000000000
30
0.0
11
5126.606000000000
21
3042.374000000000
31
0.0
0
ARC
5
a1f
100
AcDbEntity
8
0-6戸当り
6
CONTINUOUS
62
3
100
AcDbCircle
10
5135.130000000000
20
3045.950000000000
30
0.0
40
9.242000000000
100
AcDbArc
50
145.757000000000
51
214.243000000000
0
ARC
5
a20
100
AcDbEntity
8
0-6戸当り
6
CONTINUOUS
62
3
100
AcDbCircle
10
5160.268000000000
20
3030.376000000000
30
0.0
40
34.380000000000
100
AcDbArc
50
162.440000000000
51
197.560000000000
0
ARC
5
a21
100
AcDbEntity
8
0-6戸当り
6
CONTINUOUS
62
3
100
AcDbCircle
10
5135.130000000000
20
3014.800000000000
30
0.0
40
9.242000000000
100
AcDbArc
50
145.757000000000
51
214.243000000000
0
LINE
5
a22
100
AcDbEntity
8
0-6戸当り
6
CONTINUOUS
62
3
100
AcDbLine
10
5125.888000000000
20
3051.150000000000
30
0.0
11
5125.888000000000
21
3009.600000000000
31
0.0
0
ARC
5
a23
100
AcDbEntity
8
0-9扉体
6
CONTINUOUS
62
4
100
AcDbCircle
10
5087.188000000000
20
2988.376000000000
30
0.0
40
30.000000000000
100
AcDbArc
50
0.000000000000
51
45.029168395122
0
ARC
5
a24
100
AcDbEntity
8
0-9扉体
6
CONTINUOUS
62
4
100
AcDbCircle
10
5087.188000000000
20
2988.376000000000
30
0.0
40
30.000000000000
100
AcDbArc
50
47.517304764946
51
90.000000000000
0
TEXT
5
a25
100
AcDbEntity
8
0-7図枠
62
7
370
-3
100
AcDbText
10
6471.346
20
538.865
30
0.0
40
75.614
41
0.714
50
0.000
1
R5.12.1
72
1
11
6625.000
21
570.000
31
0.0
100
AcDbText
73
2
0
TEXT
5
a26
100
AcDbEntity
8
0-A文字
62
7
370
-3
100
AcDbText
10
6143.602
20
1513.680
30
0.0
40
58.811
1
　　　塗装とし、色調はグレー（マンセル値Ｎ７）
41
0.856
50
0.000
100
AcDbText
0
POLYLINE
5
a27
100
AcDbEntity
8
1-0
6
CONTINUOUS
62
  7
100
AcDb2dPolyline
66
1
10
0.0
20
0.0
30
0.0
70
0
0
VERTEX
5
a28
100
AcDbEntity
8
1-0
6
CONTINUOUS
62
  7
100
AcDbVertex
100
AcDb2dVertex
10
7700.000000000000
20
5400.000000000000
30
0.0
0
VERTEX
5
a29
100
AcDbEntity
8
1-0
6
CONTINUOUS
62
  7
100
AcDbVertex
100
AcDb2dVertex
10
8100.000000000000
20
5400.000000000000
30
0.0
0
VERTEX
5
a2a
100
AcDbEntity
8
1-0
6
CONTINUOUS
62
  7
100
AcDbVertex
100
AcDb2dVertex
10
8100.000000000000
20
5540.000000000000
30
0.0
0
VERTEX
5
a2b
100
AcDbEntity
8
1-0
6
CONTINUOUS
62
  7
100
AcDbVertex
100
AcDb2dVertex
10
7700.000000000000
20
5540.000000000000
30
0.0
0
VERTEX
5
a2c
100
AcDbEntity
8
1-0
6
CONTINUOUS
62
  7
100
AcDbVertex
100
AcDb2dVertex
10
7700.000000000000
20
5400.000000000000
30
0.0
0
SEQEND
5
a2d
100
AcDbEntity
8
1-0
0
POLYLINE
5
a2e
100
AcDbEntity
8
1-0
6
CONTINUOUS
62
  7
100
AcDb2dPolyline
66
1
10
0.0
20
0.0
30
0.0
70
0
0
VERTEX
5
a2f
100
AcDbEntity
8
1-0
6
CONTINUOUS
62
  7
100
AcDbVertex
100
AcDb2dVertex
10
6180.000000000000
20
5400.000000000000
30
0.0
0
VERTEX
5
a30
100
AcDbEntity
8
1-0
6
CONTINUOUS
62
  7
100
AcDbVertex
100
AcDb2dVertex
10
6400.000000000000
20
5400.000000000000
30
0.0
0
VERTEX
5
a31
100
AcDbEntity
8
1-0
6
CONTINUOUS
62
  7
100
AcDbVertex
100
AcDb2dVertex
10
6400.000000000000
20
5540.000000000000
30
0.0
0
VERTEX
5
a32
100
AcDbEntity
8
1-0
6
CONTINUOUS
62
  7
100
AcDbVertex
100
AcDb2dVertex
10
6180.000000000000
20
5540.000000000000
30
0.0
0
VERTEX
5
a33
100
AcDbEntity
8
1-0
6
CONTINUOUS
62
  7
100
AcDbVertex
100
AcDb2dVertex
10
6180.000000000000
20
5400.000000000000
30
0.0
0
SEQEND
5
a34
100
AcDbEntity
8
1-0
0
POLYLINE
5
a35
100
AcDbEntity
8
1-0
6
CONTINUOUS
62
  7
100
AcDb2dPolyline
66
1
10
0.0
20
0.0
30
0.0
70
0
0
VERTEX
5
a36
100
AcDbEntity
8
1-0
6
CONTINUOUS
62
  7
100
AcDbVertex
100
AcDb2dVertex
10
6400.000000000000
20
5400.000000000000
30
0.0
0
VERTEX
5
a37
100
AcDbEntity
8
1-0
6
CONTINUOUS
62
  7
100
AcDbVertex
100
AcDb2dVertex
10
7300.000000000000
20
5400.000000000000
30
0.0
0
VERTEX
5
a38
100
AcDbEntity
8
1-0
6
CONTINUOUS
62
  7
100
AcDbVertex
100
AcDb2dVertex
10
7300.000000000000
20
5540.000000000000
30
0.0
0
VERTEX
5
a39
100
AcDbEntity
8
1-0
6
CONTINUOUS
62
  7
100
AcDbVertex
100
AcDb2dVertex
10
6400.000000000000
20
5540.000000000000
30
0.0
0
VERTEX
5
a3a
100
AcDbEntity
8
1-0
6
CONTINUOUS
62
  7
100
AcDbVertex
100
AcDb2dVertex
10
6400.000000000000
20
5400.000000000000
30
0.0
0
SEQEND
5
a3b
100
AcDbEntity
8
1-0
0
POLYLINE
5
a3c
100
AcDbEntity
8
1-0
6
CONTINUOUS
62
  7
100
AcDb2dPolyline
66
1
10
0.0
20
0.0
30
0.0
70
0
0
VERTEX
5
a3d
100
AcDbEntity
8
1-0
6
CONTINUOUS
62
  7
100
AcDbVertex
100
AcDb2dVertex
10
7300.000000000000
20
5400.000000000000
30
0.0
0
VERTEX
5
a3e
100
AcDbEntity
8
1-0
6
CONTINUOUS
62
  7
100
AcDbVertex
100
AcDb2dVertex
10
7700.000000000000
20
5400.000000000000
30
0.0
0
VERTEX
5
a3f
100
AcDbEntity
8
1-0
6
CONTINUOUS
62
  7
100
AcDbVertex
100
AcDb2dVertex
10
7700.000000000000
20
5540.000000000000
30
0.0
0
VERTEX
5
a40
100
AcDbEntity
8
1-0
6
CONTINUOUS
62
  7
100
AcDbVertex
100
AcDb2dVertex
10
7300.000000000000
20
5540.000000000000
30
0.0
0
VERTEX
5
a41
100
AcDbEntity
8
1-0
6
CONTINUOUS
62
  7
100
AcDbVertex
100
AcDb2dVertex
10
7300.000000000000
20
5400.000000000000
30
0.0
0
SEQEND
5
a42
100
AcDbEntity
8
1-0
0
TEXT
5
a43
100
AcDbEntity
8
1-0
62
7
370
-3
100
AcDbText
10
7373.198
20
5440.284
30
0.0
40
67.320
1
日　付
41
0.963
50
0.000
100
AcDbText
0
TEXT
5
a44
100
AcDbEntity
8
1-0
62
7
370
-3
100
AcDbText
10
6588.198
20
5440.284
30
0.0
40
67.320
1
修　　　　正
41
0.963
50
0.000
100
AcDbText
0
TEXT
5
a45
100
AcDbEntity
8
1-0
62
7
370
-3
100
AcDbText
10
6208.198
20
5440.284
30
0.0
40
67.320
1
記号
41
0.963
50
0.000
100
AcDbText
0
TEXT
5
a46
100
AcDbEntity
8
1-0
62
7
370
-3
100
AcDbText
10
7773.198
20
5440.284
30
0.0
40
67.320
1
担　当
41
0.963
50
0.000
100
AcDbText
0
LINE
5
a47
100
AcDbEntity
8
F-F_J_ADD
6
HIDDEN
62
109
100
AcDbLine
10
7300.000000000000
20
5470.000000000000
30
0.0
11
7700.000000000000
21
5470.000000000000
31
0.0
0
LINE
5
a48
100
AcDbEntity
8
F-F_J_ADD
6
HIDDEN
62
109
100
AcDbLine
10
6400.000000000000
20
5470.000000000000
30
0.0
11
7300.000000000000
21
5470.000000000000
31
0.0
0
LINE
5
a49
100
AcDbEntity
8
F-F_J_ADD
6
HIDDEN
62
109
100
AcDbLine
10
6180.000000000000
20
5470.000000000000
30
0.0
11
6400.000000000000
21
5470.000000000000
31
0.0
0
LINE
5
a4a
100
AcDbEntity
8
F-F_J_ADD
6
HIDDEN
62
109
100
AcDbLine
10
6290.000000000000
20
5540.000000000000
30
0.0
11
6290.000000000000
21
5400.000000000000
31
0.0
0
LINE
5
a4b
100
AcDbEntity
8
F-F_J_ADD
6
HIDDEN
62
109
100
AcDbLine
10
6850.000000000000
20
5400.000000000000
30
0.0
11
6850.000000000000
21
5540.000000000000
31
0.0
0
LINE
5
a4c
100
AcDbEntity
8
F-F_J_ADD
6
HIDDEN
62
109
100
AcDbLine
10
7500.000000000000
20
5400.000000000000
30
0.0
11
7500.000000000000
21
5540.000000000000
31
0.0
0
LINE
5
a4d
100
AcDbEntity
8
F-F_J_ADD
6
HIDDEN
62
109
100
AcDbLine
10
7700.000000000000
20
5470.000000000000
30
0.0
11
8100.000000000000
21
5470.000000000000
31
0.0
0
LINE
5
a4e
100
AcDbEntity
8
F-F_J_ADD
6
HIDDEN
62
109
100
AcDbLine
10
7900.000000000000
20
5400.000000000000
30
0.0
11
7900.000000000000
21
5540.000000000000
31
0.0
0
ENDSEC
 0
SECTION
  2
OBJECTS
 0
DICTIONARY
  5
C
100
AcDbDictionary
  3
ACAD_GROUP
350
D
  3
ACAD_MLINESTYLE
350
E
 0
DICTIONARY
  5
D
102
{ACAD_REACTORS
102
}
100
AcDbDictionary
 0
DICTIONARY
  5
E
102
{ACAD_REACTORS
102
}
100
AcDbDictionary
  3
STANDARD
350
13
0
MLINESTYLE
  5
13
102
{ACAD_REACTORS
102
}
100
AcDbMlineStyle
  2
STANDARD
 70
    0
3

62
256
51
90.0
52
90.0
71
0
0
ACDBPLACEHOLDER
  5
14
102
{ACAD_REACTORS
102
}
0
ENDSEC
0
EOF
