0
SECTION
2
HEADER
9
$ACADVER
1
AC1015
9
$ACADMAINTVER
 70
6
9
$DWGCODEPAGE
3
ANSI_932
9
$EXTMIN
10
0.000
20
0.000
30
0.0
9
$EXTMAX
10
6300.000
20
4455.000
30
0.0
9
$LIMMIN
10
0.000
20
0.000
9
$LIMMAX
10
6300.000
20
4455.000
9
$DIMSCALE
40
15.000000
9
$LTSCALE
40
15.000
9
$PDMODE
70
0
9
$PDSIZE
40
40.0
9
$HANDSEED
5
621cd
9
$UNITMODE
70
0
9
$VISRETAIN
70
0
9
$PLINEGEN
70
0
9
$PSLTSCALE
70
1
9
$TREEDEPTH
70
3020
9
$CMLSTYLE
2
STANDARD
9
$CMLJUST
70
0
9
$CMLSCALE
40
1.0
9
$PROXYGRAPHICS
70
1
9
$MEASUREMENT
70
0
9
$CELWEIGHT
370
-1
9
$ENDCAPS
280
0
9
$JOINSTYLE
280
0
9
$LWDISPLAY
290
0
9
$INSUNITS
70
0
9
$HYPERLINKBASE
1

9
$STYLESHEET
1

9
$XEDIT
290
1
9
$CEPSNTYPE
380
0
9
$PSTYLEMODE
290
1
9
$FINGERPRINTGUID
2
{5F082321-0195-11D3-BDFB-0060B0CD5109}
9
$VERSIONGUID
2
{12943756-294D-11D3-98C2-0060B087942D}
9
$EXTNAMES
290
1
9
$PSVPSCALE
40
0.0
9
$OLESTARTUP
290
0
0
ENDSEC
0
SECTION
  2
CLASSES
0
ENDSEC
0
SECTION
2
TABLES
0
TABLE
2
VPORT
5
190
100
AcDbSymbolTable
70
2
0
VPORT
5
191
100
AcDbSymbolTableRecord
100
AcDbViewportTableRecord
2
*ACTIVE
70
0
10
0.0
20
0.0
11
1.0
21
1.0
12
3150.000
22
2227.500
13
0.0
23
0.0
14
1.0
24
1.0
15
0.0
25
0.0
16
0.0
26
0.0
36
1.0
17
0.0
27
0.0
37
0.0
40
4565.217
41
2.0
42
50.0
43
0.0
44
0.0
50
0.0
51
0.0
71
0
72
1000
73
1
74
1
75
0
76
0
77
0
78
0
0
ENDTAB
0
TABLE
2
LTYPE
5
1f4
100
AcDbSymbolTable
70
9
0
LTYPE
5
1f5
100
AcDbSymbolTableRecord
100
AcDbLinetypeTableRecord
2
BYBLOCK
70
 64
3

72
 65
73
  0
40
0.0
0
LTYPE
5
1f6
100
AcDbSymbolTableRecord
100
AcDbLinetypeTableRecord
2
BYLAYER
70
 64
3

72
 65
73
  0
40
0.0
0
LTYPE
5
1f7
100
AcDbSymbolTableRecord
100
AcDbLinetypeTableRecord
2
CONTINUOUS
70
64
3
SolidLine
72
65
73
0
40
0.0
0
LTYPE
5
1f8
100
AcDbSymbolTableRecord
100
AcDbLinetypeTableRecord
2
DOT
70
64
3
--  --  --  --  --  --  --  --     
72
65
73
2
40
3.000
49
1.000
74
0
49
-2.000
74
0
0
LTYPE
5
1f9
100
AcDbSymbolTableRecord
100
AcDbLinetypeTableRecord
2
DASHED
70
64
3
----    ----    ----    ----    
72
65
73
2
40
5.000
49
2.000
74
0
49
-3.000
74
0
0
LTYPE
5
1fa
100
AcDbSymbolTableRecord
100
AcDbLinetypeTableRecord
2
DASHED2
70
64
3
------  ------  ------  ------ 
72
65
73
2
40
10.000
49
4.000
74
0
49
-6.000
74
0
0
LTYPE
5
1fb
100
AcDbSymbolTableRecord
100
AcDbLinetypeTableRecord
2
CENTER
70
64
3
----- - ----- - ----- - ----- - 
72
65
73
4
40
10.000
49
6.000
74
0
49
-3.000
74
0
49
1.000
74
0
49
-3.000
74
0
0
LTYPE
5
1fc
100
AcDbSymbolTableRecord
100
AcDbLinetypeTableRecord
2
CENTER2
70
64
3
----------  --  ----------  -- 
72
65
73
4
40
17.000
49
12.000
74
0
49
-5.000
74
0
49
2.000
74
0
49
-5.000
74
0
0
LTYPE
5
1fd
100
AcDbSymbolTableRecord
100
AcDbLinetypeTableRecord
2
PHANTOM
70
64
3
--- - - --- - - --- - - --- - -
72
65
73
6
40
13.000
49
5.000
74
0
49
-3.000
74
0
49
1.000
74
0
49
-3.000
74
0
49
1.000
74
0
49
-3.000
74
0
0
LTYPE
5
1fe
100
AcDbSymbolTableRecord
100
AcDbLinetypeTableRecord
2
PHANTOM2
70
64
3
--------  -  -  --------  -  -
72
65
73
6
40
20.000
49
6.000
74
0
49
-5.000
74
0
49
2.000
74
0
49
-5.000
74
0
49
2.000
74
0
49
-5.000
74
0
0
LTYPE
5
1ff
100
AcDbSymbolTableRecord
100
AcDbLinetypeTableRecord
2
HIDDEN
70
64
3
-   -   -   -   -   -   -   -   
72
65
73
2
40
3.000
49
0.500
74
0
49
-2.500
74
0
0
ENDTAB
0
TABLE
2
STYLE
5
200
100
AcDbSymbolTable
70
1
0
STYLE
5
201
100
AcDbSymbolTableRecord
100
AcDbTextStyleTableRecord
2
STANDARD
70
0
40
0.0
41
1.0
50
0.0
71
0
42
0.0
3
txt.shx
4
extfont.shx
0
STYLE
5
202
100
AcDbSymbolTableRecord
100
AcDbTextStyleTableRecord
2
TATEGAKI
70
4
40
0.0
41
1.0
50
0.0
71
0
42
0.0
3
txt.shx
4
extfont.shx
0
STYLE
5
203
100
AcDbSymbolTableRecord
100
AcDbTextStyleTableRecord
2
DIM
70
0
40
0.0
41
0.75
50
0.0
71
0
42
0.0
3
txt.shx
4
extfont.shx
0
STYLE
5
204
100
AcDbSymbolTableRecord
100
AcDbTextStyleTableRecord
2
_Gothic_
70
0
40
1.0
41
1.0
50
0.0
71
0
42
10.0
3

4

1001
ACAD
1000
MS Gothic
1071
32817
0
STYLE
5
205
100
AcDbSymbolTableRecord
100
AcDbTextStyleTableRecord
2
_TateGothic_
70
4
40
0.0
41
1.0
50
0.0
71
0
42
0.0
3
@MS Gothic
4

0
ENDTAB
0
TABLE
2
VIEW
5
206
100
AcDbSymbolTable
70
0
0
ENDTAB
0
TABLE
2
UCS
5
207
100
AcDbSymbolTable
70
0
0
ENDTAB
0
TABLE
2
APPID
5
208
100
AcDbSymbolTable
70
1
0
APPID
5
209
100
AcDbSymbolTableRecord
100
AcDbRegAppTableRecord
2
ACAD
70
0
0
ENDTAB
0
TABLE
2
DIMSTYLE
5
403
330
0
100
AcDbSymbolTable
70
1
100
AcDbDimStyleTable
71
0
0
DIMSTYLE
105
404
330
402
100
AcDbSymbolTableRecord
100
AcDbDimStyleTableRecord
2
JAC_DIM
70
0
41
30.000
42
0.000
44
0.0
73
0
74
0
77
1
78
8
79
2
140
0.000
170
0
171
2
172
0
173
0
174
0
175
0
176
0
177
0
178
0
270
2
271
0
272
0
273
2
274
2
340
201
275
0
280
0
281
0
282
0
283
0
284
0
285
0
286
0
287
3
288
0
0
ENDTAB
0
TABLE
2
BLOCK_RECORD
5
405
100
AcDbSymbolTable
70
0
0
BLOCK_RECORD
5
406
100
AcDbSymbolTableRecord
100
AcDbBlockTableRecord
2
*MODEL_SPACE
0
BLOCK_RECORD
5
407
100
AcDbSymbolTableRecord
100
AcDbBlockTableRecord
2
*PAPER_SPACE
0
BLOCK_RECORD
5
408
100
AcDbSymbolTableRecord
100
AcDbBlockTableRecord
2
_JACCONVERT_
0
ENDTAB
0
TABLE
2
LAYER
5
409
100
AcDbSymbolTable
70
10
0
LAYER
5
40a
100
AcDbSymbolTableRecord
100
AcDbLayerTableRecord
2
0
70
0
62
7
6
CONTINUOUS
370
-3
390
14
0
LAYER
5
40b
100
AcDbSymbolTableRecord
100
AcDbLayerTableRecord
2
0-00
70
0
62
7
6
CONTINUOUS
370
-3
390
14
0
LAYER
5
40c
100
AcDbSymbolTableRecord
100
AcDbLayerTableRecord
2
0-3RC
70
0
62
7
6
CONTINUOUS
370
-3
390
14
0
LAYER
5
40d
100
AcDbSymbolTableRecord
100
AcDbLayerTableRecord
2
0-4陰線
70
0
62
7
6
CONTINUOUS
370
-3
390
14
0
LAYER
5
40e
100
AcDbSymbolTableRecord
100
AcDbLayerTableRecord
2
0-5基準線
70
0
62
7
6
CONTINUOUS
370
-3
390
14
0
LAYER
5
40f
100
AcDbSymbolTableRecord
100
AcDbLayerTableRecord
2
0-6戸当り
70
0
62
7
6
CONTINUOUS
370
-3
390
14
0
LAYER
5
410
100
AcDbSymbolTableRecord
100
AcDbLayerTableRecord
2
0-7図枠
70
0
62
7
6
CONTINUOUS
370
-3
390
14
0
LAYER
5
411
100
AcDbSymbolTableRecord
100
AcDbLayerTableRecord
2
0-8寸法
70
0
62
7
6
CONTINUOUS
370
-3
390
14
0
LAYER
5
412
100
AcDbSymbolTableRecord
100
AcDbLayerTableRecord
2
0-9扉体
70
0
62
7
6
CONTINUOUS
370
-3
390
14
0
LAYER
5
413
100
AcDbSymbolTableRecord
100
AcDbLayerTableRecord
2
0-A文字
70
0
62
7
6
CONTINUOUS
370
-3
390
14
0
LAYER
5
414
100
AcDbSymbolTableRecord
100
AcDbLayerTableRecord
2
1-0
70
0
62
7
6
CONTINUOUS
370
-3
390
14
0
LAYER
5
415
100
AcDbSymbolTableRecord
100
AcDbLayerTableRecord
2
F-F_J_ADD
70
0
62
-7
6
CONTINUOUS
290
0
370
-3
390
14
0
ENDTAB
0
ENDSEC
0
SECTION
2
BLOCKS
0
BLOCK
5
416
100
AcDbEntity
67
1
8
0
100
AcDbBlockBegin
2
*MODEL_SPACE
70
0
10
0.0
20
0.0
30
0.0
3
*MODEL_SPACE
1

0
ENDBLK
5
417
100
AcDbEntity
8
0
100
AcDbBlockEnd
0
BLOCK
5
418
100
AcDbEntity
67
1
8
0
100
AcDbBlockBegin
2
*PAPER_SPACE
70
0
10
0.0
20
0.0
30
0.0
3
*PAPER_SPACE
1

0
ENDBLK
5
419
100
AcDbEntity
67
1
8
0
100
AcDbBlockEnd
0
BLOCK
5
41a
100
AcDbEntity
8
0
100
AcDbBlockBegin
2
_JACCONVERT_
70
2
10
0.0
20
0.0
30
0.0
3
_JACCONVERT_
1
_JACCONVERT_
0
ATTDEF
5
41b
100
AcDbEntity
8
0
62
0
100
AcDbText
10
0.0
20
0.0
30
0.0
40
1.0
1
User:33307E08109409567083093083089083760830E50960850900C608B4808D6408F6408F4F08E
100
AcDbAttributeDefinition
3

2
USER
70
8
0
ATTDEF
5
41c
100
AcDbEntity
8
0
62
0
100
AcDbText
10
0.0
20
2.0
30
0.0
40
1.0
1
Date:24/01/30 10:35
100
AcDbAttributeDefinition
3

2
REVDATE
70
8
0
ATTDEF
5
41d
100
AcDbEntity
8
0
62
0
100
AcDbText
10
0.0
20
4.0
30
0.0
40
1.0
1
File:_MFR-A0909K.dxf
100
AcDbAttributeDefinition
3

2
FNAME
70
8
0
ATTDEF
5
41e
100
AcDbEntity
8
0
62
0
100
AcDbText
10
0.0
20
6.0
30
0.0
40
1.0
1
JacConvert Version3.13p copyright (c) 2001-2021 K.Nakahara
100
AcDbAttributeDefinition
3

2
VER
70
8
0
ENDBLK
5
41f
100
AcDbEntity
67
1
8
0
100
AcDbBlockEnd
0
ENDSEC
0
SECTION
2
ENTITIES
0
POLYLINE
5
420
100
AcDbEntity
8
0-7図枠
6
CONTINUOUS
62
  7
100
AcDb2dPolyline
66
1
10
0.0
20
0.0
30
0.0
70
0
0
VERTEX
5
421
100
AcDbEntity
8
0-7図枠
6
CONTINUOUS
62
  7
100
AcDbVertex
100
AcDb2dVertex
10
6075.000000000000
20
4155.000000000000
30
0.0
0
VERTEX
5
422
100
AcDbEntity
8
0-7図枠
6
CONTINUOUS
62
  7
100
AcDbVertex
100
AcDb2dVertex
10
6075.000000000000
20
225.000000000000
30
0.0
0
VERTEX
5
423
100
AcDbEntity
8
0-7図枠
6
CONTINUOUS
62
  7
100
AcDbVertex
100
AcDb2dVertex
10
375.000000000000
20
225.000000000000
30
0.0
0
SEQEND
5
424
100
AcDbEntity
8
0-7図枠
0
POLYLINE
5
425
100
AcDbEntity
8
0-7図枠
6
CONTINUOUS
62
  7
100
AcDb2dPolyline
66
1
10
0.0
20
0.0
30
0.0
70
0
0
VERTEX
5
426
100
AcDbEntity
8
0-7図枠
6
CONTINUOUS
62
  7
100
AcDbVertex
100
AcDb2dVertex
10
6075.000000000000
20
4155.000000000000
30
0.0
0
VERTEX
5
427
100
AcDbEntity
8
0-7図枠
6
CONTINUOUS
62
  7
100
AcDbVertex
100
AcDb2dVertex
10
375.000000000000
20
4155.000000000000
30
0.0
0
VERTEX
5
428
100
AcDbEntity
8
0-7図枠
6
CONTINUOUS
62
  7
100
AcDbVertex
100
AcDb2dVertex
10
375.000000000000
20
225.000000000000
30
0.0
0
SEQEND
5
429
100
AcDbEntity
8
0-7図枠
0
LINE
5
42a
100
AcDbEntity
8
0-8寸法
6
CONTINUOUS
62
4
100
AcDbLine
10
4181.576000000000
20
1192.554000000000
30
0.0
11
4560.120000000000
21
1192.554000000000
31
0.0
0
LINE
5
42b
100
AcDbEntity
8
0-8寸法
6
CONTINUOUS
62
4
100
AcDbLine
10
4545.120000000000
20
1092.554000000000
30
0.0
11
4537.353999999999
21
1063.576000000000
31
0.0
0
LINE
5
42c
100
AcDbEntity
8
0-8寸法
6
CONTINUOUS
62
4
100
AcDbLine
10
4545.120000000000
20
1092.554000000000
30
0.0
11
4552.884000000000
21
1063.576000000000
31
0.0
0
LINE
5
42d
100
AcDbEntity
8
0-8寸法
6
CONTINUOUS
62
4
100
AcDbLine
10
4545.120000000000
20
1192.554000000000
30
0.0
11
4545.120000000000
21
2092.554000000000
31
0.0
0
LINE
5
42e
100
AcDbEntity
8
0-8寸法
6
CONTINUOUS
62
4
100
AcDbLine
10
4545.120000000000
20
1192.554000000000
30
0.0
11
4537.353999999999
21
1221.532000000000
31
0.0
0
LINE
5
42f
100
AcDbEntity
8
0-8寸法
6
CONTINUOUS
62
4
100
AcDbLine
10
4545.120000000000
20
1192.554000000000
30
0.0
11
4552.884000000000
21
1221.532000000000
31
0.0
0
LINE
5
430
100
AcDbEntity
8
0-8寸法
6
CONTINUOUS
62
4
100
AcDbLine
10
4545.120000000000
20
956.146000000000
30
0.0
11
4545.120000000000
21
1192.554000000000
31
0.0
0
LINE
5
431
100
AcDbEntity
8
0-8寸法
6
CONTINUOUS
62
4
100
AcDbLine
10
3986.298000000000
20
1092.554000000000
30
0.0
11
4560.120000000000
21
1092.554000000000
31
0.0
0
LINE
5
432
100
AcDbEntity
8
F-F_J_ADD
6
HIDDEN
62
109
100
AcDbLine
10
0.000000000000
20
4455.000000000000
30
0.0
11
6300.000000000000
21
4455.000000000000
31
0.0
0
LINE
5
433
100
AcDbEntity
8
F-F_J_ADD
6
HIDDEN
62
109
100
AcDbLine
10
6300.000000000000
20
4455.000000000000
30
0.0
11
6300.000000000000
21
0.000000000000
31
0.0
0
LINE
5
434
100
AcDbEntity
8
F-F_J_ADD
6
HIDDEN
62
109
100
AcDbLine
10
0.000000000000
20
0.000000000000
30
0.0
11
6300.000000000000
21
0.000000000000
31
0.0
0
LINE
5
435
100
AcDbEntity
8
F-F_J_ADD
6
HIDDEN
62
109
100
AcDbLine
10
0.000000000000
20
4455.000000000000
30
0.0
11
0.000000000000
21
0.000000000000
31
0.0
0
POLYLINE
5
436
100
AcDbEntity
  8
0-8寸法
6
CONTINUOUS
62
2
100
AcDb2dPolyline
66
1
10
0
20
0
70
1
40
6.000
41
6.000
0
VERTEX
5
437
100
AcDbEntity
  8
0-8寸法
6
CONTINUOUS
62
2
100
AcDbVertex
100
AcDb2dVertex
10
3955.120
20
1732.554
30
0.0
42
1.000
0
VERTEX
5
438
100
AcDbEntity
  8
0-8寸法
6
CONTINUOUS
62
2
100
AcDbVertex
100
AcDb2dVertex
10
3961.120
20
1732.554
30
0.0
42
1.000
0
SEQEND
5
439
100
AcDbEntity
  8
0-8寸法
0
POLYLINE
5
43a
100
AcDbEntity
  8
0-8寸法
6
CONTINUOUS
62
2
100
AcDb2dPolyline
66
1
10
0
20
0
70
1
40
6.000
41
6.000
0
VERTEX
5
43b
100
AcDbEntity
  8
0-8寸法
6
CONTINUOUS
62
2
100
AcDbVertex
100
AcDb2dVertex
10
3955.120
20
1732.554
30
0.0
42
1.000
0
VERTEX
5
43c
100
AcDbEntity
  8
0-8寸法
6
CONTINUOUS
62
2
100
AcDbVertex
100
AcDb2dVertex
10
3961.120
20
1732.554
30
0.0
42
1.000
0
SEQEND
5
43d
100
AcDbEntity
  8
0-8寸法
0
LINE
5
43e
100
AcDbEntity
8
0-8寸法
6
CONTINUOUS
62
4
100
AcDbLine
10
4226.234000000000
20
2482.554000000000
30
0.0
11
3918.216000000000
21
2243.374000000000
31
0.0
0
LINE
5
43f
100
AcDbEntity
8
0-9扉体
6
CONTINUOUS
62
3
100
AcDbLine
10
3919.618000000000
20
2151.778000000000
30
0.0
11
3919.618000000000
21
2142.778000000000
31
0.0
0
LINE
5
440
100
AcDbEntity
8
0-9扉体
6
CONTINUOUS
62
3
100
AcDbLine
10
3919.618000000000
20
2151.778000000000
30
0.0
11
3946.118000000000
21
2178.278000000000
31
0.0
0
LINE
5
441
100
AcDbEntity
8
0-9扉体
6
CONTINUOUS
62
3
100
AcDbLine
10
3844.618000000000
20
2151.778000000000
30
0.0
11
3844.618000000000
21
2142.776000000000
31
0.0
0
LINE
5
442
100
AcDbEntity
8
0-9扉体
6
CONTINUOUS
62
3
100
AcDbLine
10
3886.118000000000
20
2226.778000000000
30
0.0
11
3844.618000000000
21
2151.778000000000
31
0.0
0
LINE
5
443
100
AcDbEntity
8
0-9扉体
6
CONTINUOUS
62
3
100
AcDbLine
10
3919.618000000000
20
2151.778000000000
30
0.0
11
3844.618000000000
21
2151.778000000000
31
0.0
0
LINE
5
444
100
AcDbEntity
8
0-6戸当り
6
CONTINUOUS
62
3
100
AcDbLine
10
3901.118000000000
20
2320.278000000000
30
0.0
11
3886.118000000000
21
2305.278000000000
31
0.0
0
LINE
5
445
100
AcDbEntity
8
0-6戸当り
6
CONTINUOUS
62
3
100
AcDbLine
10
3886.118000000000
20
2270.278000000000
30
0.0
11
3886.118000000000
21
2305.278000000000
31
0.0
0
LINE
5
446
100
AcDbEntity
8
0-6戸当り
6
CONTINUOUS
62
3
100
AcDbLine
10
3886.118000000000
20
2270.278000000000
30
0.0
11
3901.118000000000
21
2255.278000000000
31
0.0
0
LINE
5
447
100
AcDbEntity
8
0-9扉体
6
CONTINUOUS
62
3
100
AcDbLine
10
3891.118000000000
20
2226.776000000000
30
0.0
11
3891.118000000000
21
2265.278000000000
31
0.0
0
LINE
5
448
100
AcDbEntity
8
0-9扉体
6
CONTINUOUS
62
3
100
AcDbLine
10
3932.120000000000
20
1147.554000000000
30
0.0
11
3938.120000000000
21
1147.554000000000
31
0.0
0
LINE
5
449
100
AcDbEntity
8
0-9扉体
6
CONTINUOUS
62
3
100
AcDbLine
10
3932.118000000000
20
2142.778000000000
30
0.0
11
3832.118000000000
21
2142.776000000000
31
0.0
0
LINE
5
44a
100
AcDbEntity
8
0-9扉体
6
CONTINUOUS
62
3
100
AcDbLine
10
3938.118000000000
20
2137.778000000000
30
0.0
11
3932.118000000000
21
2137.778000000000
31
0.0
0
LINE
5
44b
100
AcDbEntity
8
0-9扉体
6
CONTINUOUS
62
3
100
AcDbLine
10
3938.118000000000
20
2137.778000000000
30
0.0
11
3938.120000000000
21
1147.958000000000
31
0.0
0
LINE
5
44c
100
AcDbEntity
8
0-9扉体
6
CONTINUOUS
62
3
100
AcDbLine
10
1586.138000000000
20
2142.554000000000
30
0.0
11
2586.140000000000
21
2142.554000000000
31
0.0
0
POLYLINE
5
44d
100
AcDbEntity
8
0-9扉体
6
CONTINUOUS
62
  3
100
AcDb2dPolyline
66
1
10
0.0
20
0.0
30
0.0
70
0
0
VERTEX
5
44e
100
AcDbEntity
8
0-9扉体
6
CONTINUOUS
62
  3
100
AcDbVertex
100
AcDb2dVertex
10
2586.140000000000
20
1142.554000000000
30
0.0
0
VERTEX
5
44f
100
AcDbEntity
8
0-9扉体
6
CONTINUOUS
62
  3
100
AcDbVertex
100
AcDb2dVertex
10
1586.138000000000
20
1142.554000000000
30
0.0
0
VERTEX
5
450
100
AcDbEntity
8
0-9扉体
6
CONTINUOUS
62
  3
100
AcDbVertex
100
AcDb2dVertex
10
1586.138000000000
20
2142.554000000000
30
0.0
0
SEQEND
5
451
100
AcDbEntity
8
0-9扉体
0
LINE
5
452
100
AcDbEntity
8
0-9扉体
6
DOT
62
3
100
AcDbLine
10
1592.138000000000
20
1142.554000000000
30
0.0
11
1592.138000000000
21
2142.554000000000
31
0.0
0
LINE
5
453
100
AcDbEntity
8
0-9扉体
6
DOT
62
3
100
AcDbLine
10
2580.140000000000
20
2142.554000000000
30
0.0
11
2580.140000000000
21
1142.554000000000
31
0.0
0
LINE
5
454
100
AcDbEntity
8
0-9扉体
6
CONTINUOUS
62
3
100
AcDbLine
10
2586.140000000000
20
2142.554000000000
30
0.0
11
2586.140000000000
21
1142.554000000000
31
0.0
0
LINE
5
455
100
AcDbEntity
8
0-9扉体
6
CONTINUOUS
62
3
100
AcDbLine
10
2526.140000000000
20
2142.554000000000
30
0.0
11
2526.140000000000
21
1142.554000000000
31
0.0
0
LINE
5
456
100
AcDbEntity
8
0-9扉体
6
CONTINUOUS
62
3
100
AcDbLine
10
1646.140000000000
20
2082.554000000000
30
0.0
11
2526.140000000000
21
2082.554000000000
31
0.0
0
LINE
5
457
100
AcDbEntity
8
0-9扉体
6
DOT
62
3
100
AcDbLine
10
1592.138000000000
20
2136.554000000000
30
0.0
11
2580.140000000000
21
2136.554000000000
31
0.0
0
LINE
5
458
100
AcDbEntity
8
0-9扉体
6
CONTINUOUS
62
3
100
AcDbLine
10
2526.140000000000
20
1202.554000000000
30
0.0
11
1646.140000000000
21
1202.554000000000
31
0.0
0
LINE
5
459
100
AcDbEntity
8
0-9扉体
6
DOT
62
3
100
AcDbLine
10
2090.140000000000
20
2082.554000000000
30
0.0
11
2090.140000000000
21
2136.554000000000
31
0.0
0
LINE
5
45a
100
AcDbEntity
8
0-9扉体
6
DOT
62
3
100
AcDbLine
10
2082.139999999999
20
2082.554000000000
30
0.0
11
2082.139999999999
21
2136.554000000000
31
0.0
0
LINE
5
45b
100
AcDbEntity
8
0-9扉体
6
CONTINUOUS
62
3
100
AcDbLine
10
2086.140000000000
20
3363.452000000000
30
0.0
11
1586.138000000000
21
3363.452000000000
31
0.0
0
LINE
5
45c
100
AcDbEntity
8
0-9扉体
6
CONTINUOUS
62
3
100
AcDbLine
10
2581.140000000000
20
3463.452000000000
30
0.0
11
2581.140000000000
21
3469.452000000000
31
0.0
0
POLYLINE
5
45d
100
AcDbEntity
8
0-9扉体
6
CONTINUOUS
62
  3
100
AcDb2dPolyline
66
1
10
0.0
20
0.0
30
0.0
70
0
0
VERTEX
5
45e
100
AcDbEntity
8
0-9扉体
6
CONTINUOUS
62
  3
100
AcDbVertex
100
AcDb2dVertex
10
2086.140000000000
20
3363.452000000000
30
0.0
0
VERTEX
5
45f
100
AcDbEntity
8
0-9扉体
6
CONTINUOUS
62
  3
100
AcDbVertex
100
AcDb2dVertex
10
2586.140000000000
20
3363.452000000000
30
0.0
0
VERTEX
5
460
100
AcDbEntity
8
0-9扉体
6
CONTINUOUS
62
  3
100
AcDbVertex
100
AcDb2dVertex
10
2586.140000000000
20
3463.452000000000
30
0.0
0
SEQEND
5
461
100
AcDbEntity
8
0-9扉体
0
LINE
5
462
100
AcDbEntity
8
0-9扉体
6
CONTINUOUS
62
3
100
AcDbLine
10
2090.140000000000
20
3363.452000000000
30
0.0
11
2090.140000000000
21
3463.452000000000
31
0.0
0
LINE
5
463
100
AcDbEntity
8
0-5基準線
6
CENTER2
62
7
100
AcDbLine
10
3943.610000000000
20
2197.778000000000
30
0.0
11
3885.280000000000
21
2197.778000000000
31
0.0
0
LINE
5
464
100
AcDbEntity
8
0-5基準線
6
CENTER2
62
7
100
AcDbLine
10
3916.118000000000
20
2329.238000000000
30
0.0
11
3916.118000000000
21
2169.080000000000
31
0.0
0
LINE
5
465
100
AcDbEntity
8
0-5基準線
6
CENTER2
62
7
100
AcDbLine
10
3876.700000000000
20
2287.776000000000
30
0.0
11
3947.050000000000
21
2287.778000000000
31
0.0
0
LINE
5
466
100
AcDbEntity
8
0-9扉体
6
CONTINUOUS
62
3
100
AcDbLine
10
3832.118000000000
20
2142.776000000000
30
0.0
11
3832.120000000000
21
1143.054000000000
31
0.0
0
LINE
5
467
100
AcDbEntity
8
0-9扉体
6
CONTINUOUS
62
7
100
AcDbLine
10
3946.120000000000
20
1162.554000000000
30
0.0
11
3946.120000000000
21
1202.554000000000
31
0.0
0
LINE
5
468
100
AcDbEntity
8
0-9扉体
6
CONTINUOUS
62
3
100
AcDbLine
10
3952.120000000000
20
1163.554000000000
30
0.0
11
3952.120000000000
21
1201.554000000000
31
0.0
0
LINE
5
469
100
AcDbEntity
8
0-9扉体
6
CONTINUOUS
62
3
100
AcDbLine
10
3946.120000000000
20
1201.554000000000
30
0.0
11
3952.120000000000
21
1201.554000000000
31
0.0
0
LINE
5
46a
100
AcDbEntity
8
0-9扉体
6
CONTINUOUS
62
3
100
AcDbLine
10
3946.120000000000
20
1163.554000000000
30
0.0
11
3952.120000000000
21
1163.554000000000
31
0.0
0
LINE
5
46b
100
AcDbEntity
8
0-9扉体
6
DOT
62
3
100
AcDbLine
10
3948.120000000000
20
1178.554000000000
30
0.0
11
3952.120000000000
21
1174.554000000000
31
0.0
0
LINE
5
46c
100
AcDbEntity
8
0-9扉体
6
DOT
62
3
100
AcDbLine
10
3948.120000000000
20
1186.554000000000
30
0.0
11
3952.120000000000
21
1190.554000000000
31
0.0
0
LINE
5
46d
100
AcDbEntity
8
0-9扉体
6
DOT
62
3
100
AcDbLine
10
3948.120000000000
20
1178.554000000000
30
0.0
11
3948.120000000000
21
1186.554000000000
31
0.0
0
LINE
5
46e
100
AcDbEntity
8
0-9扉体
6
DOT
62
3
100
AcDbLine
10
3926.118000000000
20
1186.554000000000
30
0.0
11
3948.120000000000
21
1186.554000000000
31
0.0
0
LINE
5
46f
100
AcDbEntity
8
0-9扉体
6
DOT
62
3
100
AcDbLine
10
3926.118000000000
20
1178.554000000000
30
0.0
11
3948.120000000000
21
1178.554000000000
31
0.0
0
LINE
5
470
100
AcDbEntity
8
0-9扉体
6
CONTINUOUS
62
3
100
AcDbLine
10
3924.520000000000
20
1173.554000000000
30
0.0
11
3926.118000000000
21
1173.554000000000
31
0.0
0
LINE
5
471
100
AcDbEntity
8
0-9扉体
6
CONTINUOUS
62
3
100
AcDbLine
10
3912.118000000000
20
1178.554000000000
30
0.0
11
3912.118000000000
21
1186.554000000000
31
0.0
0
LINE
5
472
100
AcDbEntity
8
0-9扉体
6
CONTINUOUS
62
3
100
AcDbLine
10
3924.520000000000
20
1191.554000000000
30
0.0
11
3924.520000000000
21
1173.554000000000
31
0.0
0
LINE
5
473
100
AcDbEntity
8
0-9扉体
6
CONTINUOUS
62
7
100
AcDbLine
10
3918.018000000000
20
1176.054000000000
30
0.0
11
3918.600000000000
21
1175.048000000000
31
0.0
0
LINE
5
474
100
AcDbEntity
8
0-9扉体
6
CONTINUOUS
62
7
100
AcDbLine
10
3918.018000000000
20
1189.054000000000
30
0.0
11
3918.600000000000
21
1190.060000000000
31
0.0
0
LINE
5
475
100
AcDbEntity
8
0-9扉体
6
CONTINUOUS
62
7
100
AcDbLine
10
3918.018000000000
20
1176.054000000000
30
0.0
11
3918.018000000000
21
1189.054000000000
31
0.0
0
LINE
5
476
100
AcDbEntity
8
0-9扉体
6
CONTINUOUS
62
7
100
AcDbLine
10
3924.520000000000
20
1190.060000000000
30
0.0
11
3918.600000000000
21
1190.060000000000
31
0.0
0
LINE
5
477
100
AcDbEntity
8
0-9扉体
6
CONTINUOUS
62
7
100
AcDbLine
10
3924.520000000000
20
1175.048000000000
30
0.0
11
3918.600000000000
21
1175.048000000000
31
0.0
0
LINE
5
478
100
AcDbEntity
8
0-9扉体
6
CONTINUOUS
62
3
100
AcDbLine
10
3918.018000000000
20
1186.554000000000
30
0.0
11
3912.118000000000
21
1186.554000000000
31
0.0
0
LINE
5
479
100
AcDbEntity
8
0-9扉体
6
CONTINUOUS
62
3
100
AcDbLine
10
3918.018000000000
20
1178.554000000000
30
0.0
11
3912.118000000000
21
1178.554000000000
31
0.0
0
LINE
5
47a
100
AcDbEntity
8
0-9扉体
6
CONTINUOUS
62
7
100
AcDbLine
10
3924.520000000000
20
1178.802000000000
30
0.0
11
3918.598000000000
21
1178.802000000000
31
0.0
0
LINE
5
47b
100
AcDbEntity
8
0-9扉体
6
CONTINUOUS
62
7
100
AcDbLine
10
3924.520000000000
20
1186.308000000000
30
0.0
11
3918.600000000000
21
1186.308000000000
31
0.0
0
LINE
5
47c
100
AcDbEntity
8
0-9扉体
6
CONTINUOUS
62
3
100
AcDbLine
10
3918.018000000000
20
1185.554000000000
30
0.0
11
3912.118000000000
21
1185.554000000000
31
0.0
0
LINE
5
47d
100
AcDbEntity
8
0-9扉体
6
CONTINUOUS
62
3
100
AcDbLine
10
3918.018000000000
20
1179.554000000000
30
0.0
11
3912.118000000000
21
1179.554000000000
31
0.0
0
LINE
5
47e
100
AcDbEntity
8
0-9扉体
6
CONTINUOUS
62
7
100
AcDbLine
10
3938.120000000000
20
1202.554000000000
30
0.0
11
3946.120000000000
21
1202.554000000000
31
0.0
0
LINE
5
47f
100
AcDbEntity
8
0-9扉体
6
CONTINUOUS
62
6
100
AcDbLine
10
3949.672000000000
20
1147.802000000000
30
0.0
11
3953.406000000000
21
1144.066000000000
31
0.0
0
LINE
5
480
100
AcDbEntity
8
0-9扉体
6
CONTINUOUS
62
6
100
AcDbLine
10
3948.490000000000
20
1147.568000000000
30
0.0
11
3952.496000000000
21
1143.562000000000
31
0.0
0
LINE
5
481
100
AcDbEntity
8
0-9扉体
6
CONTINUOUS
62
6
100
AcDbLine
10
3938.120000000000
20
1157.938000000000
30
0.0
11
3943.132000000000
21
1152.926000000000
31
0.0
0
LINE
5
482
100
AcDbEntity
8
0-9扉体
6
CONTINUOUS
62
6
100
AcDbLine
10
3938.120000000000
20
1159.352000000000
30
0.0
11
3943.366000000000
21
1154.106000000000
31
0.0
0
LINE
5
483
100
AcDbEntity
8
0-9扉体
6
CONTINUOUS
62
6
100
AcDbLine
10
3949.068000000000
20
1162.546000000000
30
0.0
11
3958.070000000000
21
1153.544000000000
31
0.0
0
LINE
5
484
100
AcDbEntity
8
0-9扉体
6
CONTINUOUS
62
6
100
AcDbLine
10
3947.646000000000
20
1162.554000000000
30
0.0
11
3958.108000000000
21
1152.092000000000
31
0.0
0
LINE
5
485
100
AcDbEntity
8
0-9扉体
6
CONTINUOUS
62
7
100
AcDbLine
10
3948.120000000000
20
1162.554000000000
30
0.0
11
3946.120000000000
21
1162.554000000000
31
0.0
0
LINE
5
486
100
AcDbEntity
8
0-9扉体
6
CONTINUOUS
62
6
100
AcDbLine
10
3938.120000000000
20
1172.080000000000
30
0.0
11
3946.120000000000
21
1164.082000000000
31
0.0
0
LINE
5
487
100
AcDbEntity
8
0-9扉体
6
CONTINUOUS
62
6
100
AcDbLine
10
3938.120000000000
20
1173.494000000000
30
0.0
11
3946.120000000000
21
1165.496000000000
31
0.0
0
LINE
5
488
100
AcDbEntity
8
0-9扉体
6
CONTINUOUS
62
6
100
AcDbLine
10
3938.120000000000
20
1186.224000000000
30
0.0
11
3946.120000000000
21
1178.224000000000
31
0.0
0
LINE
5
489
100
AcDbEntity
8
0-9扉体
6
CONTINUOUS
62
6
100
AcDbLine
10
3938.120000000000
20
1187.638000000000
30
0.0
11
3946.120000000000
21
1179.638000000000
31
0.0
0
LINE
5
48a
100
AcDbEntity
8
0-9扉体
6
CONTINUOUS
62
6
100
AcDbLine
10
3938.120000000000
20
1200.366000000000
30
0.0
11
3946.120000000000
21
1192.366000000000
31
0.0
0
LINE
5
48b
100
AcDbEntity
8
0-9扉体
6
CONTINUOUS
62
6
100
AcDbLine
10
3938.120000000000
20
1201.780000000000
30
0.0
11
3946.120000000000
21
1193.780000000000
31
0.0
0
LINE
5
48c
100
AcDbEntity
8
0-9扉体
6
CONTINUOUS
62
3
100
AcDbLine
10
3924.520000000000
20
1191.554000000000
30
0.0
11
3926.036000000000
21
1191.554000000000
31
0.0
0
LINE
5
48d
100
AcDbEntity
8
0-5基準線
6
CENTER2
62
7
100
AcDbLine
10
3909.914000000000
20
1182.554000000000
30
0.0
11
3954.734000000000
21
1182.554000000000
31
0.0
0
LINE
5
48e
100
AcDbEntity
8
0-9扉体
6
CONTINUOUS
62
3
100
AcDbLine
10
3946.120000000000
20
2083.554000000000
30
0.0
11
3952.120000000000
21
2083.554000000000
31
0.0
0
LINE
5
48f
100
AcDbEntity
8
0-9扉体
6
CONTINUOUS
62
3
100
AcDbLine
10
3946.120000000000
20
2121.554000000000
30
0.0
11
3952.120000000000
21
2121.554000000000
31
0.0
0
LINE
5
490
100
AcDbEntity
8
0-9扉体
6
DOT
62
3
100
AcDbLine
10
3948.120000000000
20
2106.554000000000
30
0.0
11
3952.120000000000
21
2110.554000000000
31
0.0
0
LINE
5
491
100
AcDbEntity
8
0-9扉体
6
DOT
62
3
100
AcDbLine
10
3948.120000000000
20
2098.554000000000
30
0.0
11
3952.120000000000
21
2094.554000000000
31
0.0
0
LINE
5
492
100
AcDbEntity
8
0-9扉体
6
DOT
62
3
100
AcDbLine
10
3948.120000000000
20
2106.554000000000
30
0.0
11
3948.120000000000
21
2098.554000000000
31
0.0
0
LINE
5
493
100
AcDbEntity
8
0-9扉体
6
DOT
62
3
100
AcDbLine
10
3926.118000000000
20
2098.554000000000
30
0.0
11
3948.120000000000
21
2098.554000000000
31
0.0
0
LINE
5
494
100
AcDbEntity
8
0-9扉体
6
DOT
62
3
100
AcDbLine
10
3926.118000000000
20
2106.554000000000
30
0.0
11
3948.120000000000
21
2106.554000000000
31
0.0
0
LINE
5
495
100
AcDbEntity
8
0-9扉体
6
CONTINUOUS
62
3
100
AcDbLine
10
3924.520000000000
20
2111.554000000000
30
0.0
11
3926.118000000000
21
2111.554000000000
31
0.0
0
LINE
5
496
100
AcDbEntity
8
0-9扉体
6
CONTINUOUS
62
3
100
AcDbLine
10
3912.118000000000
20
2106.554000000000
30
0.0
11
3912.118000000000
21
2098.554000000000
31
0.0
0
LINE
5
497
100
AcDbEntity
8
0-9扉体
6
CONTINUOUS
62
3
100
AcDbLine
10
3924.520000000000
20
2093.554000000000
30
0.0
11
3924.520000000000
21
2111.554000000000
31
0.0
0
LINE
5
498
100
AcDbEntity
8
0-9扉体
6
CONTINUOUS
62
7
100
AcDbLine
10
3918.018000000000
20
2109.054000000000
30
0.0
11
3918.600000000000
21
2110.058000000000
31
0.0
0
LINE
5
499
100
AcDbEntity
8
0-9扉体
6
CONTINUOUS
62
7
100
AcDbLine
10
3918.018000000000
20
2096.054000000000
30
0.0
11
3918.600000000000
21
2095.048000000000
31
0.0
0
LINE
5
49a
100
AcDbEntity
8
0-9扉体
6
CONTINUOUS
62
7
100
AcDbLine
10
3918.018000000000
20
2109.054000000000
30
0.0
11
3918.018000000000
21
2096.054000000000
31
0.0
0
LINE
5
49b
100
AcDbEntity
8
0-9扉体
6
CONTINUOUS
62
7
100
AcDbLine
10
3924.520000000000
20
2095.048000000000
30
0.0
11
3918.600000000000
21
2095.048000000000
31
0.0
0
LINE
5
49c
100
AcDbEntity
8
0-9扉体
6
CONTINUOUS
62
7
100
AcDbLine
10
3924.520000000000
20
2110.058000000000
30
0.0
11
3918.600000000000
21
2110.058000000000
31
0.0
0
LINE
5
49d
100
AcDbEntity
8
0-9扉体
6
CONTINUOUS
62
3
100
AcDbLine
10
3918.018000000000
20
2098.554000000000
30
0.0
11
3912.118000000000
21
2098.554000000000
31
0.0
0
LINE
5
49e
100
AcDbEntity
8
0-9扉体
6
CONTINUOUS
62
3
100
AcDbLine
10
3918.018000000000
20
2106.554000000000
30
0.0
11
3912.118000000000
21
2106.554000000000
31
0.0
0
LINE
5
49f
100
AcDbEntity
8
0-9扉体
6
CONTINUOUS
62
7
100
AcDbLine
10
3924.520000000000
20
2106.306000000000
30
0.0
11
3918.598000000000
21
2106.306000000000
31
0.0
0
LINE
5
4a0
100
AcDbEntity
8
0-9扉体
6
CONTINUOUS
62
7
100
AcDbLine
10
3924.520000000000
20
2098.800000000000
30
0.0
11
3918.600000000000
21
2098.800000000000
31
0.0
0
LINE
5
4a1
100
AcDbEntity
8
0-9扉体
6
CONTINUOUS
62
3
100
AcDbLine
10
3918.018000000000
20
2099.554000000000
30
0.0
11
3912.118000000000
21
2099.554000000000
31
0.0
0
LINE
5
4a2
100
AcDbEntity
8
0-9扉体
6
CONTINUOUS
62
3
100
AcDbLine
10
3918.018000000000
20
2105.554000000000
30
0.0
11
3912.118000000000
21
2105.554000000000
31
0.0
0
LINE
5
4a3
100
AcDbEntity
8
0-9扉体
6
CONTINUOUS
62
7
100
AcDbLine
10
3938.120000000000
20
2082.554000000000
30
0.0
11
3946.120000000000
21
2082.554000000000
31
0.0
0
LINE
5
4a4
100
AcDbEntity
8
0-9扉体
6
CONTINUOUS
62
6
100
AcDbLine
10
3949.672000000000
20
2137.306000000000
30
0.0
11
3953.406000000000
21
2141.042000000000
31
0.0
0
LINE
5
4a5
100
AcDbEntity
8
0-9扉体
6
CONTINUOUS
62
6
100
AcDbLine
10
3948.490000000000
20
2137.540000000000
30
0.0
11
3952.496000000000
21
2141.544000000000
31
0.0
0
LINE
5
4a6
100
AcDbEntity
8
0-9扉体
6
CONTINUOUS
62
6
100
AcDbLine
10
3938.120000000000
20
2127.168000000000
30
0.0
11
3943.132000000000
21
2132.182000000000
31
0.0
0
LINE
5
4a7
100
AcDbEntity
8
0-9扉体
6
CONTINUOUS
62
6
100
AcDbLine
10
3938.120000000000
20
2125.754000000000
30
0.0
11
3943.366000000000
21
2131.002000000000
31
0.0
0
LINE
5
4a8
100
AcDbEntity
8
0-9扉体
6
CONTINUOUS
62
6
100
AcDbLine
10
3949.068000000000
20
2122.562000000000
30
0.0
11
3958.070000000000
21
2131.564000000000
31
0.0
0
LINE
5
4a9
100
AcDbEntity
8
0-9扉体
6
CONTINUOUS
62
6
100
AcDbLine
10
3947.646000000000
20
2122.554000000000
30
0.0
11
3958.108000000000
21
2133.016000000000
31
0.0
0
LINE
5
4aa
100
AcDbEntity
8
0-9扉体
6
CONTINUOUS
62
7
100
AcDbLine
10
3948.120000000000
20
2122.554000000000
30
0.0
11
3946.120000000000
21
2122.554000000000
31
0.0
0
LINE
5
4ab
100
AcDbEntity
8
0-9扉体
6
CONTINUOUS
62
6
100
AcDbLine
10
3938.120000000000
20
2113.026000000000
30
0.0
11
3946.120000000000
21
2121.026000000000
31
0.0
0
LINE
5
4ac
100
AcDbEntity
8
0-9扉体
6
CONTINUOUS
62
6
100
AcDbLine
10
3938.120000000000
20
2111.612000000000
30
0.0
11
3946.120000000000
21
2119.612000000000
31
0.0
0
LINE
5
4ad
100
AcDbEntity
8
0-9扉体
6
CONTINUOUS
62
6
100
AcDbLine
10
3938.120000000000
20
2098.884000000000
30
0.0
11
3946.120000000000
21
2106.884000000000
31
0.0
0
LINE
5
4ae
100
AcDbEntity
8
0-9扉体
6
CONTINUOUS
62
6
100
AcDbLine
10
3938.120000000000
20
2097.470000000000
30
0.0
11
3946.120000000000
21
2105.470000000000
31
0.0
0
LINE
5
4af
100
AcDbEntity
8
0-9扉体
6
CONTINUOUS
62
6
100
AcDbLine
10
3938.120000000000
20
2084.742000000000
30
0.0
11
3946.120000000000
21
2092.742000000000
31
0.0
0
LINE
5
4b0
100
AcDbEntity
8
0-9扉体
6
CONTINUOUS
62
6
100
AcDbLine
10
3938.120000000000
20
2083.328000000000
30
0.0
11
3946.120000000000
21
2091.328000000000
31
0.0
0
LINE
5
4b1
100
AcDbEntity
8
0-9扉体
6
CONTINUOUS
62
3
100
AcDbLine
10
3924.520000000000
20
2093.554000000000
30
0.0
11
3926.036000000000
21
2093.554000000000
31
0.0
0
LINE
5
4b2
100
AcDbEntity
8
0-5基準線
6
CENTER2
62
7
100
AcDbLine
10
3909.914000000000
20
2102.554000000000
30
0.0
11
3954.734000000000
21
2102.554000000000
31
0.0
0
LINE
5
4b3
100
AcDbEntity
8
0-9扉体
6
CONTINUOUS
62
6
100
AcDbLine
10
3920.118000000000
20
2136.776000000000
30
0.0
11
3844.118000000000
21
2136.776000000000
31
0.0
0
LINE
5
4b4
100
AcDbEntity
8
0-9扉体
6
CONTINUOUS
62
6
100
AcDbLine
10
3926.118000000000
20
2083.276000000000
30
0.0
11
3926.118000000000
21
2130.778000000000
31
0.0
0
LINE
5
4b5
100
AcDbEntity
8
0-9扉体
6
CONTINUOUS
62
6
100
AcDbLine
10
3838.118000000000
20
2083.276000000000
30
0.0
11
3838.118000000000
21
2130.778000000000
31
0.0
0
LINE
5
4b6
100
AcDbEntity
8
0-9扉体
6
CONTINUOUS
62
6
100
AcDbLine
10
3832.618000000000
20
2082.776000000000
30
0.0
11
3837.618000000000
21
2082.776000000000
31
0.0
0
LINE
5
4b7
100
AcDbEntity
8
0-9扉体
6
CONTINUOUS
62
6
100
AcDbLine
10
3931.618000000000
20
2082.776000000000
30
0.0
11
3926.618000000000
21
2082.776000000000
31
0.0
0
LINE
5
4b8
100
AcDbEntity
8
0-9扉体
6
CONTINUOUS
62
6
100
AcDbLine
10
3920.118000000000
20
1576.554000000000
30
0.0
11
3844.118000000000
21
1576.554000000000
31
0.0
0
LINE
5
4b9
100
AcDbEntity
8
0-9扉体
6
CONTINUOUS
62
6
100
AcDbLine
10
3926.118000000000
20
1523.054000000000
30
0.0
11
3926.118000000000
21
1570.554000000000
31
0.0
0
LINE
5
4ba
100
AcDbEntity
8
0-9扉体
6
CONTINUOUS
62
6
100
AcDbLine
10
3838.118000000000
20
1523.054000000000
30
0.0
11
3838.118000000000
21
1570.554000000000
31
0.0
0
LINE
5
4bb
100
AcDbEntity
8
0-9扉体
6
CONTINUOUS
62
6
100
AcDbLine
10
3832.620000000000
20
1522.554000000000
30
0.0
11
3837.618000000000
21
1522.554000000000
31
0.0
0
LINE
5
4bc
100
AcDbEntity
8
0-9扉体
6
CONTINUOUS
62
6
100
AcDbLine
10
3931.618000000000
20
1522.554000000000
30
0.0
11
3926.618000000000
21
1522.554000000000
31
0.0
0
LINE
5
4bd
100
AcDbEntity
8
0-9扉体
6
CONTINUOUS
62
6
100
AcDbLine
10
3832.118000000000
20
1582.554000000000
30
0.0
11
3932.118000000000
21
1582.554000000000
31
0.0
0
LINE
5
4be
100
AcDbEntity
8
0-6戸当り
6
CONTINUOUS
62
6
100
AcDbLine
10
3958.120000000000
20
1092.554000000000
30
0.0
11
3970.120000000000
21
1092.554000000000
31
0.0
0
LINE
5
4bf
100
AcDbEntity
8
0-6戸当り
6
CONTINUOUS
62
6
100
AcDbLine
10
3958.118000000000
20
2192.554000000000
30
0.0
11
3970.118000000000
21
2192.554000000000
31
0.0
0
LINE
5
4c0
100
AcDbEntity
8
0-6戸当り
6
CONTINUOUS
62
6
100
AcDbLine
10
3958.118000000000
20
2332.554000000000
30
0.0
11
3970.118000000000
21
2332.554000000000
31
0.0
0
LINE
5
4c1
100
AcDbEntity
8
0-9扉体
6
CONTINUOUS
62
3
100
AcDbLine
10
1646.140000000000
20
1142.554000000000
30
0.0
11
1646.140000000000
21
2142.554000000000
31
0.0
0
LINE
5
4c2
100
AcDbEntity
8
0-9扉体
6
CONTINUOUS
62
6
100
AcDbLine
10
2526.140000000000
20
1522.554000000000
30
0.0
11
1646.140000000000
21
1522.554000000000
31
0.0
0
LINE
5
4c3
100
AcDbEntity
8
0-9扉体
6
DOT
62
6
100
AcDbLine
10
2580.140000000000
20
1576.554000000000
30
0.0
11
1592.138000000000
21
1576.554000000000
31
0.0
0
LINE
5
4c4
100
AcDbEntity
8
0-9扉体
6
DOT
62
6
100
AcDbLine
10
1646.140000000000
20
1582.554000000000
30
0.0
11
1592.138000000000
21
1582.554000000000
31
0.0
0
LINE
5
4c5
100
AcDbEntity
8
0-9扉体
6
CONTINUOUS
62
6
100
AcDbLine
10
2526.140000000000
20
1582.554000000000
30
0.0
11
1646.140000000000
21
1582.554000000000
31
0.0
0
LINE
5
4c6
100
AcDbEntity
8
0-9扉体
6
DOT
62
6
100
AcDbLine
10
2580.140000000000
20
1582.554000000000
30
0.0
11
2526.140000000000
21
1582.554000000000
31
0.0
0
LINE
5
4c7
100
AcDbEntity
8
0-9扉体
6
CONTINUOUS
62
3
100
AcDbLine
10
2082.139999999999
20
1582.554000000000
30
0.0
11
2082.139999999999
21
2082.554000000000
31
0.0
0
LINE
5
4c8
100
AcDbEntity
8
0-9扉体
6
CONTINUOUS
62
3
100
AcDbLine
10
2090.140000000000
20
1582.554000000000
30
0.0
11
2090.140000000000
21
2082.554000000000
31
0.0
0
LINE
5
4c9
100
AcDbEntity
8
0-9扉体
6
CONTINUOUS
62
3
100
AcDbLine
10
2090.140000000000
20
1202.554000000000
30
0.0
11
2090.140000000000
21
1522.554000000000
31
0.0
0
LINE
5
4ca
100
AcDbEntity
8
0-9扉体
6
CONTINUOUS
62
3
100
AcDbLine
10
2082.139999999999
20
1202.554000000000
30
0.0
11
2082.139999999999
21
1522.554000000000
31
0.0
0
LINE
5
4cb
100
AcDbEntity
8
0-9扉体
6
DOT
62
3
100
AcDbLine
10
2082.139999999999
20
1522.554000000000
30
0.0
11
2082.139999999999
21
1576.554000000000
31
0.0
0
LINE
5
4cc
100
AcDbEntity
8
0-9扉体
6
DOT
62
3
100
AcDbLine
10
2090.140000000000
20
1522.554000000000
30
0.0
11
2090.140000000000
21
1576.554000000000
31
0.0
0
LINE
5
4cd
100
AcDbEntity
8
0-6戸当り
6
CONTINUOUS
62
6
100
AcDbLine
10
1536.138000000000
20
1092.554000000000
30
0.0
11
1536.138000000000
21
2192.554000000000
31
0.0
0
LINE
5
4ce
100
AcDbEntity
8
0-6戸当り
6
CONTINUOUS
62
6
100
AcDbLine
10
2636.140000000000
20
1092.554000000000
30
0.0
11
1536.138000000000
21
1092.554000000000
31
0.0
0
LINE
5
4cf
100
AcDbEntity
8
0-6戸当り
6
CONTINUOUS
62
6
100
AcDbLine
10
2636.140000000000
20
2192.554000000000
30
0.0
11
2636.140000000000
21
1092.554000000000
31
0.0
0
LINE
5
4d0
100
AcDbEntity
8
0-6戸当り
6
CONTINUOUS
62
6
100
AcDbLine
10
2636.140000000000
20
1192.554000000000
30
0.0
11
2586.140000000000
21
1192.554000000000
31
0.0
0
LINE
5
4d1
100
AcDbEntity
8
0-6戸当り
6
CONTINUOUS
62
6
100
AcDbLine
10
1586.138000000000
20
1192.554000000000
30
0.0
11
1536.138000000000
21
1192.554000000000
31
0.0
0
LINE
5
4d2
100
AcDbEntity
8
0-6戸当り
6
DOT
62
6
100
AcDbLine
10
1636.140000000000
20
1192.554000000000
30
0.0
11
1636.140000000000
21
2092.554000000000
31
0.0
0
LINE
5
4d3
100
AcDbEntity
8
0-6戸当り
6
DOT
62
6
100
AcDbLine
10
2536.140000000000
20
2092.554000000000
30
0.0
11
2536.140000000000
21
1192.554000000000
31
0.0
0
LINE
5
4d4
100
AcDbEntity
8
0-6戸当り
6
CONTINUOUS
62
2
100
AcDbLine
10
2611.140000000000
20
3545.652000000000
30
0.0
11
2608.640000000000
21
3575.164000000000
31
0.0
0
LINE
5
4d5
100
AcDbEntity
8
0-6戸当り
6
CONTINUOUS
62
2
100
AcDbLine
10
2616.140000000000
20
3545.652000000000
30
0.0
11
2613.640000000000
21
3575.164000000000
31
0.0
0
LINE
5
4d6
100
AcDbEntity
8
0-6戸当り
6
CONTINUOUS
62
2
100
AcDbLine
10
2611.140000000000
20
3545.652000000000
30
0.0
11
2621.140000000000
21
3545.652000000000
31
0.0
0
LINE
5
4d7
100
AcDbEntity
8
0-6戸当り
6
CONTINUOUS
62
2
100
AcDbLine
10
2610.782000000000
20
3549.868000000000
30
0.0
11
2615.782000000000
21
3549.868000000000
31
0.0
0
LINE
5
4d8
100
AcDbEntity
8
0-6戸当り
6
CONTINUOUS
62
2
100
AcDbLine
10
2610.424000000000
20
3554.084000000000
30
0.0
11
2615.426000000000
21
3554.084000000000
31
0.0
0
LINE
5
4d9
100
AcDbEntity
8
0-6戸当り
6
CONTINUOUS
62
2
100
AcDbLine
10
2610.068000000000
20
3558.300000000000
30
0.0
11
2615.068000000000
21
3558.300000000000
31
0.0
0
LINE
5
4da
100
AcDbEntity
8
0-6戸当り
6
CONTINUOUS
62
2
100
AcDbLine
10
2609.710000000000
20
3562.516000000000
30
0.0
11
2614.710000000000
21
3562.516000000000
31
0.0
0
LINE
5
4db
100
AcDbEntity
8
0-6戸当り
6
CONTINUOUS
62
2
100
AcDbLine
10
2609.354000000000
20
3566.732000000000
30
0.0
11
2614.354000000000
21
3566.732000000000
31
0.0
0
LINE
5
4dc
100
AcDbEntity
8
0-6戸当り
6
CONTINUOUS
62
2
100
AcDbLine
10
2608.996000000000
20
3570.948000000000
30
0.0
11
2613.996000000000
21
3570.948000000000
31
0.0
0
POLYLINE
5
4dd
100
AcDbEntity
8
0-6戸当り
6
CONTINUOUS
62
  2
100
AcDb2dPolyline
66
1
10
0.0
20
0.0
30
0.0
70
0
0
VERTEX
5
4de
100
AcDbEntity
8
0-6戸当り
6
CONTINUOUS
62
  2
100
AcDbVertex
100
AcDb2dVertex
10
2621.140000000000
20
3545.652000000000
30
0.0
0
VERTEX
5
4df
100
AcDbEntity
8
0-6戸当り
6
CONTINUOUS
62
  2
100
AcDbVertex
100
AcDb2dVertex
10
2623.640000000000
20
3575.164000000000
30
0.0
0
VERTEX
5
4e0
100
AcDbEntity
8
0-6戸当り
6
CONTINUOUS
62
  2
100
AcDbVertex
100
AcDb2dVertex
10
2618.638000000000
20
3575.164000000000
30
0.0
0
SEQEND
5
4e1
100
AcDbEntity
8
0-6戸当り
0
LINE
5
4e2
100
AcDbEntity
8
0-6戸当り
6
CONTINUOUS
62
2
100
AcDbLine
10
2616.140000000000
20
3545.652000000000
30
0.0
11
2618.638000000000
21
3575.164000000000
31
0.0
0
LINE
5
4e3
100
AcDbEntity
8
0-6戸当り
6
CONTINUOUS
62
2
100
AcDbLine
10
2621.496000000000
20
3549.868000000000
30
0.0
11
2616.496000000000
21
3549.868000000000
31
0.0
0
LINE
5
4e4
100
AcDbEntity
8
0-6戸当り
6
CONTINUOUS
62
2
100
AcDbLine
10
2621.854000000000
20
3554.084000000000
30
0.0
11
2616.854000000000
21
3554.084000000000
31
0.0
0
LINE
5
4e5
100
AcDbEntity
8
0-6戸当り
6
CONTINUOUS
62
2
100
AcDbLine
10
2622.210000000000
20
3558.300000000000
30
0.0
11
2617.210000000000
21
3558.300000000000
31
0.0
0
LINE
5
4e6
100
AcDbEntity
8
0-6戸当り
6
CONTINUOUS
62
2
100
AcDbLine
10
2622.568000000000
20
3562.516000000000
30
0.0
11
2617.568000000000
21
3562.516000000000
31
0.0
0
LINE
5
4e7
100
AcDbEntity
8
0-6戸当り
6
CONTINUOUS
62
2
100
AcDbLine
10
2622.924000000000
20
3566.732000000000
30
0.0
11
2617.926000000000
21
3566.732000000000
31
0.0
0
LINE
5
4e8
100
AcDbEntity
8
0-6戸当り
6
CONTINUOUS
62
2
100
AcDbLine
10
2623.282000000000
20
3570.948000000000
30
0.0
11
2618.282000000000
21
3570.948000000000
31
0.0
0
LINE
5
4e9
100
AcDbEntity
8
0-6戸当り
6
CONTINUOUS
62
3
100
AcDbLine
10
2605.140000000000
20
3487.852000000000
30
0.0
11
2605.140000000000
21
3489.452000000000
31
0.0
0
LINE
5
4ea
100
AcDbEntity
8
0-6戸当り
6
CONTINUOUS
62
3
100
AcDbLine
10
2627.140000000000
20
3487.852000000000
30
0.0
11
2627.140000000000
21
3489.452000000000
31
0.0
0
LINE
5
4eb
100
AcDbEntity
8
0-6戸当り
6
CONTINUOUS
62
7
100
AcDbLine
10
2607.640000000000
20
3479.852000000000
30
0.0
11
2606.324000000000
21
3480.610000000000
31
0.0
0
POLYLINE
5
4ec
100
AcDbEntity
8
0-6戸当り
6
CONTINUOUS
62
  7
100
AcDb2dPolyline
66
1
10
0.0
20
0.0
30
0.0
70
0
0
VERTEX
5
4ed
100
AcDbEntity
8
0-6戸当り
6
CONTINUOUS
62
  7
100
AcDbVertex
100
AcDb2dVertex
10
2607.640000000000
20
3479.852000000000
30
0.0
0
VERTEX
5
4ee
100
AcDbEntity
8
0-6戸当り
6
CONTINUOUS
62
  7
100
AcDbVertex
100
AcDb2dVertex
10
2624.640000000000
20
3479.852000000000
30
0.0
0
VERTEX
5
4ef
100
AcDbEntity
8
0-6戸当り
6
CONTINUOUS
62
  7
100
AcDbVertex
100
AcDb2dVertex
10
2625.954000000000
20
3480.610000000000
30
0.0
0
SEQEND
5
4f0
100
AcDbEntity
8
0-6戸当り
0
LINE
5
4f1
100
AcDbEntity
8
0-6戸当り
6
CONTINUOUS
62
7
100
AcDbLine
10
2625.954000000000
20
3487.852000000000
30
0.0
11
2625.954000000000
21
3480.610000000000
31
0.0
0
LINE
5
4f2
100
AcDbEntity
8
0-6戸当り
6
CONTINUOUS
62
7
100
AcDbLine
10
2611.232000000000
20
3487.852000000000
30
0.0
11
2611.232000000000
21
3480.610000000000
31
0.0
0
LINE
5
4f3
100
AcDbEntity
8
0-6戸当り
6
CONTINUOUS
62
7
100
AcDbLine
10
2621.046000000000
20
3487.852000000000
30
0.0
11
2621.046000000000
21
3480.610000000000
31
0.0
0
LINE
5
4f4
100
AcDbEntity
8
0-6戸当り
6
CONTINUOUS
62
7
100
AcDbLine
10
2606.324000000000
20
3487.852000000000
30
0.0
11
2606.324000000000
21
3480.610000000000
31
0.0
0
LINE
5
4f5
100
AcDbEntity
8
0-6戸当り
6
CONTINUOUS
62
3
100
AcDbLine
10
2627.140000000000
20
3487.852000000000
30
0.0
11
2605.140000000000
21
3487.852000000000
31
0.0
0
LINE
5
4f6
100
AcDbEntity
8
0-6戸当り
6
CONTINUOUS
62
3
100
AcDbLine
10
2621.140000000000
20
3479.852000000000
30
0.0
11
2621.140000000000
21
3475.166000000000
31
0.0
0
LINE
5
4f7
100
AcDbEntity
8
0-6戸当り
6
CONTINUOUS
62
3
100
AcDbLine
10
2611.138000000000
20
3479.852000000000
30
0.0
11
2611.138000000000
21
3475.166000000000
31
0.0
0
LINE
5
4f8
100
AcDbEntity
8
0-6戸当り
6
CONTINUOUS
62
4
100
AcDbLine
10
2620.140000000000
20
3479.852000000000
30
0.0
11
2620.140000000000
21
3474.934000000000
31
0.0
0
LINE
5
4f9
100
AcDbEntity
8
0-6戸当り
6
CONTINUOUS
62
4
100
AcDbLine
10
2612.140000000000
20
3479.852000000000
30
0.0
11
2612.140000000000
21
3474.934000000000
31
0.0
0
LINE
5
4fa
100
AcDbEntity
8
0-6戸当り
6
CONTINUOUS
62
3
100
AcDbLine
10
2621.140000000000
20
3475.166000000000
30
0.0
11
2611.138000000000
21
3475.166000000000
31
0.0
0
LINE
5
4fb
100
AcDbEntity
8
0-6戸当り
6
CONTINUOUS
62
2
100
AcDbLine
10
2608.640000000000
20
3575.164000000000
30
0.0
11
2613.640000000000
21
3575.164000000000
31
0.0
0
LINE
5
4fc
100
AcDbEntity
8
0-6戸当り
6
CONTINUOUS
62
3
100
AcDbLine
10
1556.138000000000
20
2182.354000000000
30
0.0
11
1547.652000000000
21
2177.454000000000
31
0.0
0
LINE
5
4fd
100
AcDbEntity
8
0-6戸当り
6
CONTINUOUS
62
3
100
AcDbLine
10
1556.138000000000
20
2162.754000000000
30
0.0
11
1547.652000000000
21
2167.654000000000
31
0.0
0
LINE
5
4fe
100
AcDbEntity
8
0-6戸当り
6
CONTINUOUS
62
3
100
AcDbLine
10
1547.652000000000
20
2177.454000000000
30
0.0
11
1547.652000000000
21
2167.654000000000
31
0.0
0
LINE
5
4ff
100
AcDbEntity
8
0-6戸当り
6
CONTINUOUS
62
3
100
AcDbLine
10
1556.138000000000
20
2162.754000000000
30
0.0
11
1564.626000000000
21
2167.654000000000
31
0.0
0
LINE
5
500
100
AcDbEntity
8
0-6戸当り
6
CONTINUOUS
62
3
100
AcDbLine
10
1556.138000000000
20
2182.354000000000
30
0.0
11
1564.626000000000
21
2177.454000000000
31
0.0
0
LINE
5
501
100
AcDbEntity
8
0-6戸当り
6
CONTINUOUS
62
3
100
AcDbLine
10
1564.626000000000
20
2167.654000000000
30
0.0
11
1564.626000000000
21
2177.454000000000
31
0.0
0
LINE
5
502
100
AcDbEntity
8
0-5基準線
6
CENTER2
62
7
100
AcDbLine
10
1556.138000000000
20
2157.554000000000
30
0.0
11
1556.138000000000
21
2187.554000000000
31
0.0
0
LINE
5
503
100
AcDbEntity
8
0-5基準線
6
CENTER2
62
7
100
AcDbLine
10
1541.138000000000
20
2172.554000000000
30
0.0
11
1571.138000000000
21
2172.554000000000
31
0.0
0
LINE
5
504
100
AcDbEntity
8
0-6戸当り
6
CONTINUOUS
62
3
100
AcDbLine
10
1556.138000000000
20
1102.754000000000
30
0.0
11
1547.652000000000
21
1107.654000000000
31
0.0
0
LINE
5
505
100
AcDbEntity
8
0-6戸当り
6
CONTINUOUS
62
3
100
AcDbLine
10
1556.138000000000
20
1122.354000000000
30
0.0
11
1547.652000000000
21
1117.454000000000
31
0.0
0
LINE
5
506
100
AcDbEntity
8
0-6戸当り
6
CONTINUOUS
62
3
100
AcDbLine
10
1547.652000000000
20
1107.654000000000
30
0.0
11
1547.652000000000
21
1117.454000000000
31
0.0
0
LINE
5
507
100
AcDbEntity
8
0-6戸当り
6
CONTINUOUS
62
3
100
AcDbLine
10
1556.138000000000
20
1122.354000000000
30
0.0
11
1564.626000000000
21
1117.454000000000
31
0.0
0
LINE
5
508
100
AcDbEntity
8
0-6戸当り
6
CONTINUOUS
62
3
100
AcDbLine
10
1556.138000000000
20
1102.754000000000
30
0.0
11
1564.626000000000
21
1107.654000000000
31
0.0
0
LINE
5
509
100
AcDbEntity
8
0-6戸当り
6
CONTINUOUS
62
3
100
AcDbLine
10
1564.626000000000
20
1117.454000000000
30
0.0
11
1564.626000000000
21
1107.654000000000
31
0.0
0
LINE
5
50a
100
AcDbEntity
8
0-5基準線
6
CENTER2
62
7
100
AcDbLine
10
1556.138000000000
20
1127.554000000000
30
0.0
11
1556.138000000000
21
1097.554000000000
31
0.0
0
LINE
5
50b
100
AcDbEntity
8
0-5基準線
6
CENTER2
62
7
100
AcDbLine
10
1541.140000000000
20
1112.554000000000
30
0.0
11
1571.138000000000
21
1112.554000000000
31
0.0
0
LINE
5
50c
100
AcDbEntity
8
0-6戸当り
6
CONTINUOUS
62
3
100
AcDbLine
10
2616.138000000000
20
2182.354000000000
30
0.0
11
2624.626000000000
21
2177.454000000000
31
0.0
0
LINE
5
50d
100
AcDbEntity
8
0-6戸当り
6
CONTINUOUS
62
3
100
AcDbLine
10
2616.138000000000
20
2162.754000000000
30
0.0
11
2624.626000000000
21
2167.654000000000
31
0.0
0
LINE
5
50e
100
AcDbEntity
8
0-6戸当り
6
CONTINUOUS
62
3
100
AcDbLine
10
2624.626000000000
20
2177.454000000000
30
0.0
11
2624.626000000000
21
2167.654000000000
31
0.0
0
LINE
5
50f
100
AcDbEntity
8
0-6戸当り
6
CONTINUOUS
62
3
100
AcDbLine
10
2616.138000000000
20
2162.754000000000
30
0.0
11
2607.652000000000
21
2167.654000000000
31
0.0
0
LINE
5
510
100
AcDbEntity
8
0-6戸当り
6
CONTINUOUS
62
3
100
AcDbLine
10
2616.138000000000
20
2182.354000000000
30
0.0
11
2607.652000000000
21
2177.454000000000
31
0.0
0
LINE
5
511
100
AcDbEntity
8
0-6戸当り
6
CONTINUOUS
62
3
100
AcDbLine
10
2607.652000000000
20
2167.654000000000
30
0.0
11
2607.652000000000
21
2177.454000000000
31
0.0
0
LINE
5
512
100
AcDbEntity
8
0-5基準線
6
CENTER2
62
7
100
AcDbLine
10
2616.138000000000
20
2157.554000000000
30
0.0
11
2616.138000000000
21
2187.554000000000
31
0.0
0
LINE
5
513
100
AcDbEntity
8
0-5基準線
6
CENTER2
62
7
100
AcDbLine
10
2631.138000000000
20
2172.554000000000
30
0.0
11
2601.140000000000
21
2172.554000000000
31
0.0
0
LINE
5
514
100
AcDbEntity
8
0-6戸当り
6
CONTINUOUS
62
3
100
AcDbLine
10
2616.138000000000
20
1102.754000000000
30
0.0
11
2624.626000000000
21
1107.654000000000
31
0.0
0
LINE
5
515
100
AcDbEntity
8
0-6戸当り
6
CONTINUOUS
62
3
100
AcDbLine
10
2616.138000000000
20
1122.354000000000
30
0.0
11
2624.626000000000
21
1117.454000000000
31
0.0
0
LINE
5
516
100
AcDbEntity
8
0-6戸当り
6
CONTINUOUS
62
3
100
AcDbLine
10
2624.626000000000
20
1107.654000000000
30
0.0
11
2624.626000000000
21
1117.454000000000
31
0.0
0
LINE
5
517
100
AcDbEntity
8
0-6戸当り
6
CONTINUOUS
62
3
100
AcDbLine
10
2616.138000000000
20
1122.354000000000
30
0.0
11
2607.652000000000
21
1117.454000000000
31
0.0
0
LINE
5
518
100
AcDbEntity
8
0-6戸当り
6
CONTINUOUS
62
3
100
AcDbLine
10
2616.138000000000
20
1102.754000000000
30
0.0
11
2607.652000000000
21
1107.654000000000
31
0.0
0
LINE
5
519
100
AcDbEntity
8
0-6戸当り
6
CONTINUOUS
62
3
100
AcDbLine
10
2607.652000000000
20
1117.454000000000
30
0.0
11
2607.652000000000
21
1107.654000000000
31
0.0
0
LINE
5
51a
100
AcDbEntity
8
0-5基準線
6
CENTER2
62
7
100
AcDbLine
10
2616.138000000000
20
1127.554000000000
30
0.0
11
2616.138000000000
21
1097.554000000000
31
0.0
0
LINE
5
51b
100
AcDbEntity
8
0-5基準線
6
CENTER2
62
7
100
AcDbLine
10
2631.138000000000
20
1112.554000000000
30
0.0
11
2601.140000000000
21
1112.554000000000
31
0.0
0
LINE
5
51c
100
AcDbEntity
8
0-6戸当り
6
CONTINUOUS
62
3
100
AcDbLine
10
1886.138000000000
20
1102.754000000000
30
0.0
11
1877.652000000000
21
1107.654000000000
31
0.0
0
LINE
5
51d
100
AcDbEntity
8
0-6戸当り
6
CONTINUOUS
62
3
100
AcDbLine
10
1886.138000000000
20
1122.354000000000
30
0.0
11
1877.652000000000
21
1117.454000000000
31
0.0
0
LINE
5
51e
100
AcDbEntity
8
0-6戸当り
6
CONTINUOUS
62
3
100
AcDbLine
10
1877.652000000000
20
1107.654000000000
30
0.0
11
1877.652000000000
21
1117.454000000000
31
0.0
0
LINE
5
51f
100
AcDbEntity
8
0-6戸当り
6
CONTINUOUS
62
3
100
AcDbLine
10
1886.138000000000
20
1122.354000000000
30
0.0
11
1894.626000000000
21
1117.454000000000
31
0.0
0
LINE
5
520
100
AcDbEntity
8
0-6戸当り
6
CONTINUOUS
62
3
100
AcDbLine
10
1886.138000000000
20
1102.754000000000
30
0.0
11
1894.626000000000
21
1107.654000000000
31
0.0
0
LINE
5
521
100
AcDbEntity
8
0-6戸当り
6
CONTINUOUS
62
3
100
AcDbLine
10
1894.626000000000
20
1117.454000000000
30
0.0
11
1894.626000000000
21
1107.654000000000
31
0.0
0
LINE
5
522
100
AcDbEntity
8
0-5基準線
6
CENTER2
62
7
100
AcDbLine
10
1886.138000000000
20
1127.554000000000
30
0.0
11
1886.138000000000
21
1097.554000000000
31
0.0
0
LINE
5
523
100
AcDbEntity
8
0-5基準線
6
CENTER2
62
7
100
AcDbLine
10
1871.138000000000
20
1112.554000000000
30
0.0
11
1901.138000000000
21
1112.554000000000
31
0.0
0
LINE
5
524
100
AcDbEntity
8
0-6戸当り
6
CONTINUOUS
62
3
100
AcDbLine
10
2086.140000000000
20
1102.754000000000
30
0.0
11
2077.652000000000
21
1107.654000000000
31
0.0
0
LINE
5
525
100
AcDbEntity
8
0-6戸当り
6
CONTINUOUS
62
3
100
AcDbLine
10
2086.140000000000
20
1122.354000000000
30
0.0
11
2077.652000000000
21
1117.454000000000
31
0.0
0
LINE
5
526
100
AcDbEntity
8
0-6戸当り
6
CONTINUOUS
62
3
100
AcDbLine
10
2077.652000000000
20
1107.654000000000
30
0.0
11
2077.652000000000
21
1117.454000000000
31
0.0
0
LINE
5
527
100
AcDbEntity
8
0-6戸当り
6
CONTINUOUS
62
3
100
AcDbLine
10
2086.140000000000
20
1122.354000000000
30
0.0
11
2094.626000000000
21
1117.454000000000
31
0.0
0
LINE
5
528
100
AcDbEntity
8
0-6戸当り
6
CONTINUOUS
62
3
100
AcDbLine
10
2086.140000000000
20
1102.754000000000
30
0.0
11
2094.626000000000
21
1107.654000000000
31
0.0
0
LINE
5
529
100
AcDbEntity
8
0-6戸当り
6
CONTINUOUS
62
3
100
AcDbLine
10
2094.626000000000
20
1117.454000000000
30
0.0
11
2094.626000000000
21
1107.654000000000
31
0.0
0
LINE
5
52a
100
AcDbEntity
8
0-5基準線
6
CENTER2
62
7
100
AcDbLine
10
2071.140000000000
20
1112.554000000000
30
0.0
11
2101.138000000000
21
1112.554000000000
31
0.0
0
LINE
5
52b
100
AcDbEntity
8
0-6戸当り
6
CONTINUOUS
62
3
100
AcDbLine
10
2286.140000000000
20
1102.754000000000
30
0.0
11
2277.652000000000
21
1107.654000000000
31
0.0
0
LINE
5
52c
100
AcDbEntity
8
0-6戸当り
6
CONTINUOUS
62
3
100
AcDbLine
10
2286.140000000000
20
1122.354000000000
30
0.0
11
2277.652000000000
21
1117.454000000000
31
0.0
0
LINE
5
52d
100
AcDbEntity
8
0-6戸当り
6
CONTINUOUS
62
3
100
AcDbLine
10
2277.652000000000
20
1107.654000000000
30
0.0
11
2277.652000000000
21
1117.454000000000
31
0.0
0
LINE
5
52e
100
AcDbEntity
8
0-6戸当り
6
CONTINUOUS
62
3
100
AcDbLine
10
2286.140000000000
20
1122.354000000000
30
0.0
11
2294.626000000000
21
1117.454000000000
31
0.0
0
LINE
5
52f
100
AcDbEntity
8
0-6戸当り
6
CONTINUOUS
62
3
100
AcDbLine
10
2286.140000000000
20
1102.754000000000
30
0.0
11
2294.626000000000
21
1107.654000000000
31
0.0
0
LINE
5
530
100
AcDbEntity
8
0-6戸当り
6
CONTINUOUS
62
3
100
AcDbLine
10
2294.626000000000
20
1117.454000000000
30
0.0
11
2294.626000000000
21
1107.654000000000
31
0.0
0
LINE
5
531
100
AcDbEntity
8
0-5基準線
6
CENTER2
62
7
100
AcDbLine
10
2286.140000000000
20
1127.554000000000
30
0.0
11
2286.140000000000
21
1097.554000000000
31
0.0
0
LINE
5
532
100
AcDbEntity
8
0-5基準線
6
CENTER2
62
7
100
AcDbLine
10
2271.140000000000
20
1112.554000000000
30
0.0
11
2301.138000000000
21
1112.554000000000
31
0.0
0
LINE
5
533
100
AcDbEntity
8
0-5基準線
6
CENTER2
62
7
100
AcDbLine
10
2086.140000000000
20
1059.700000000000
30
0.0
11
2086.140000000000
21
2342.554000000000
31
0.0
0
LINE
5
534
100
AcDbEntity
8
0-6戸当り
6
CONTINUOUS
62
3
100
AcDbLine
10
2086.140000000000
20
2182.354000000000
30
0.0
11
2077.652000000000
21
2177.454000000000
31
0.0
0
LINE
5
535
100
AcDbEntity
8
0-6戸当り
6
CONTINUOUS
62
3
100
AcDbLine
10
2086.140000000000
20
2162.754000000000
30
0.0
11
2077.652000000000
21
2167.654000000000
31
0.0
0
LINE
5
536
100
AcDbEntity
8
0-6戸当り
6
CONTINUOUS
62
3
100
AcDbLine
10
2077.652000000000
20
2177.454000000000
30
0.0
11
2077.652000000000
21
2167.654000000000
31
0.0
0
LINE
5
537
100
AcDbEntity
8
0-6戸当り
6
CONTINUOUS
62
3
100
AcDbLine
10
2086.140000000000
20
2162.754000000000
30
0.0
11
2094.626000000000
21
2167.654000000000
31
0.0
0
LINE
5
538
100
AcDbEntity
8
0-6戸当り
6
CONTINUOUS
62
3
100
AcDbLine
10
2086.140000000000
20
2182.354000000000
30
0.0
11
2094.626000000000
21
2177.454000000000
31
0.0
0
LINE
5
539
100
AcDbEntity
8
0-6戸当り
6
CONTINUOUS
62
3
100
AcDbLine
10
2094.626000000000
20
2167.654000000000
30
0.0
11
2094.626000000000
21
2177.454000000000
31
0.0
0
LINE
5
53a
100
AcDbEntity
8
0-5基準線
6
CENTER2
62
7
100
AcDbLine
10
2071.140000000000
20
2172.554000000000
30
0.0
11
2101.138000000000
21
2172.554000000000
31
0.0
0
LINE
5
53b
100
AcDbEntity
8
0-6戸当り
6
CONTINUOUS
62
3
100
AcDbLine
10
1676.140000000000
20
2182.354000000000
30
0.0
11
1684.626000000000
21
2177.454000000000
31
0.0
0
LINE
5
53c
100
AcDbEntity
8
0-6戸当り
6
CONTINUOUS
62
3
100
AcDbLine
10
1676.140000000000
20
2162.754000000000
30
0.0
11
1684.626000000000
21
2167.654000000000
31
0.0
0
LINE
5
53d
100
AcDbEntity
8
0-6戸当り
6
CONTINUOUS
62
3
100
AcDbLine
10
1684.626000000000
20
2177.454000000000
30
0.0
11
1684.626000000000
21
2167.654000000000
31
0.0
0
LINE
5
53e
100
AcDbEntity
8
0-6戸当り
6
CONTINUOUS
62
3
100
AcDbLine
10
1676.140000000000
20
2162.754000000000
30
0.0
11
1667.652000000000
21
2167.654000000000
31
0.0
0
LINE
5
53f
100
AcDbEntity
8
0-6戸当り
6
CONTINUOUS
62
3
100
AcDbLine
10
1676.140000000000
20
2182.354000000000
30
0.0
11
1667.652000000000
21
2177.454000000000
31
0.0
0
LINE
5
540
100
AcDbEntity
8
0-6戸当り
6
CONTINUOUS
62
3
100
AcDbLine
10
1667.652000000000
20
2167.654000000000
30
0.0
11
1667.652000000000
21
2177.454000000000
31
0.0
0
LINE
5
541
100
AcDbEntity
8
0-5基準線
6
CENTER2
62
7
100
AcDbLine
10
1676.140000000000
20
2157.554000000000
30
0.0
11
1676.140000000000
21
2187.554000000000
31
0.0
0
LINE
5
542
100
AcDbEntity
8
0-5基準線
6
CENTER2
62
7
100
AcDbLine
10
1691.140000000000
20
2172.554000000000
30
0.0
11
1661.140000000000
21
2172.554000000000
31
0.0
0
LINE
5
543
100
AcDbEntity
8
0-3RC
6
CONTINUOUS
62
6
100
AcDbLine
10
3958.118000000000
20
2092.554000000000
30
0.0
11
4170.118000000000
21
2092.554000000000
31
0.0
0
LINE
5
544
100
AcDbEntity
8
0-3RC
6
CONTINUOUS
62
6
100
AcDbLine
10
3958.120000000000
20
1192.554000000000
30
0.0
11
4170.120000000000
21
1192.554000000000
31
0.0
0
LINE
5
545
100
AcDbEntity
8
0-6戸当り
6
CONTINUOUS
62
3
100
AcDbLine
10
2496.138000000000
20
2182.354000000000
30
0.0
11
2487.652000000000
21
2177.454000000000
31
0.0
0
LINE
5
546
100
AcDbEntity
8
0-6戸当り
6
CONTINUOUS
62
3
100
AcDbLine
10
2496.138000000000
20
2162.754000000000
30
0.0
11
2487.652000000000
21
2167.654000000000
31
0.0
0
LINE
5
547
100
AcDbEntity
8
0-6戸当り
6
CONTINUOUS
62
3
100
AcDbLine
10
2487.652000000000
20
2177.454000000000
30
0.0
11
2487.652000000000
21
2167.654000000000
31
0.0
0
LINE
5
548
100
AcDbEntity
8
0-6戸当り
6
CONTINUOUS
62
3
100
AcDbLine
10
2496.138000000000
20
2162.754000000000
30
0.0
11
2504.626000000000
21
2167.654000000000
31
0.0
0
LINE
5
549
100
AcDbEntity
8
0-6戸当り
6
CONTINUOUS
62
3
100
AcDbLine
10
2496.138000000000
20
2182.354000000000
30
0.0
11
2504.626000000000
21
2177.454000000000
31
0.0
0
LINE
5
54a
100
AcDbEntity
8
0-6戸当り
6
CONTINUOUS
62
3
100
AcDbLine
10
2504.626000000000
20
2167.654000000000
30
0.0
11
2504.626000000000
21
2177.454000000000
31
0.0
0
LINE
5
54b
100
AcDbEntity
8
0-5基準線
6
CENTER2
62
7
100
AcDbLine
10
2496.138000000000
20
2157.554000000000
30
0.0
11
2496.138000000000
21
2187.554000000000
31
0.0
0
LINE
5
54c
100
AcDbEntity
8
0-5基準線
6
CENTER2
62
7
100
AcDbLine
10
2481.138000000000
20
2172.554000000000
30
0.0
11
2511.138000000000
21
2172.554000000000
31
0.0
0
LINE
5
54d
100
AcDbEntity
8
0-6戸当り
6
CONTINUOUS
62
3
100
AcDbLine
10
3955.818000000000
20
2304.554000000000
30
0.0
11
3955.818000000000
21
2330.554000000000
31
0.0
0
LINE
5
54e
100
AcDbEntity
8
0-6戸当り
6
CONTINUOUS
62
3
100
AcDbLine
10
3958.118000000000
20
2330.554000000000
30
0.0
11
3955.818000000000
21
2330.554000000000
31
0.0
0
LINE
5
54f
100
AcDbEntity
8
0-6戸当り
6
CONTINUOUS
62
3
100
AcDbLine
10
3958.118000000000
20
2304.554000000000
30
0.0
11
3955.818000000000
21
2304.554000000000
31
0.0
0
LINE
5
550
100
AcDbEntity
8
0-6戸当り
6
CONTINUOUS
62
3
100
AcDbLine
10
3955.818000000000
20
2214.554000000000
30
0.0
11
3955.818000000000
21
2240.554000000000
31
0.0
0
LINE
5
551
100
AcDbEntity
8
0-6戸当り
6
CONTINUOUS
62
3
100
AcDbLine
10
3958.118000000000
20
2240.554000000000
30
0.0
11
3955.818000000000
21
2240.554000000000
31
0.0
0
LINE
5
552
100
AcDbEntity
8
0-6戸当り
6
CONTINUOUS
62
3
100
AcDbLine
10
3958.118000000000
20
2214.554000000000
30
0.0
11
3955.818000000000
21
2214.554000000000
31
0.0
0
LINE
5
553
100
AcDbEntity
8
0-6戸当り
6
CONTINUOUS
62
3
100
AcDbLine
10
3901.118000000000
20
2255.278000000000
30
0.0
11
3958.118000000000
21
2255.278000000000
31
0.0
0
LINE
5
554
100
AcDbEntity
8
0-9扉体
6
CONTINUOUS
62
3
100
AcDbLine
10
2527.140000000000
20
3477.452000000000
30
0.0
11
2527.140000000000
21
3483.452000000000
31
0.0
0
LINE
5
555
100
AcDbEntity
8
0-9扉体
6
CONTINUOUS
62
3
100
AcDbLine
10
2565.140000000000
20
3477.452000000000
30
0.0
11
2565.140000000000
21
3483.452000000000
31
0.0
0
LINE
5
556
100
AcDbEntity
8
0-9扉体
6
DOT
62
3
100
AcDbLine
10
2550.140000000000
20
3479.452000000000
30
0.0
11
2554.140000000000
21
3483.452000000000
31
0.0
0
LINE
5
557
100
AcDbEntity
8
0-9扉体
6
DOT
62
3
100
AcDbLine
10
2542.140000000000
20
3479.452000000000
30
0.0
11
2538.140000000000
21
3483.452000000000
31
0.0
0
LINE
5
558
100
AcDbEntity
8
0-9扉体
6
DOT
62
3
100
AcDbLine
10
2542.140000000000
20
3457.452000000000
30
0.0
11
2542.140000000000
21
3479.452000000000
31
0.0
0
LINE
5
559
100
AcDbEntity
8
0-9扉体
6
DOT
62
3
100
AcDbLine
10
2550.140000000000
20
3457.452000000000
30
0.0
11
2550.140000000000
21
3479.452000000000
31
0.0
0
LINE
5
55a
100
AcDbEntity
8
0-9扉体
6
CONTINUOUS
62
3
100
AcDbLine
10
2555.140000000000
20
3455.852000000000
30
0.0
11
2555.140000000000
21
3457.452000000000
31
0.0
0
LINE
5
55b
100
AcDbEntity
8
0-9扉体
6
CONTINUOUS
62
3
100
AcDbLine
10
2537.140000000000
20
3455.852000000000
30
0.0
11
2537.140000000000
21
3457.452000000000
31
0.0
0
LINE
5
55c
100
AcDbEntity
8
0-9扉体
6
CONTINUOUS
62
3
100
AcDbLine
10
2550.140000000000
20
3443.452000000000
30
0.0
11
2542.140000000000
21
3443.452000000000
31
0.0
0
LINE
5
55d
100
AcDbEntity
8
0-9扉体
6
CONTINUOUS
62
3
100
AcDbLine
10
2537.140000000000
20
3455.852000000000
30
0.0
11
2555.140000000000
21
3455.852000000000
31
0.0
0
LINE
5
55e
100
AcDbEntity
8
0-9扉体
6
CONTINUOUS
62
7
100
AcDbLine
10
2552.640000000000
20
3449.350000000000
30
0.0
11
2553.644000000000
21
3449.932000000000
31
0.0
0
LINE
5
55f
100
AcDbEntity
8
0-9扉体
6
CONTINUOUS
62
7
100
AcDbLine
10
2539.639999999999
20
3449.350000000000
30
0.0
11
2538.634000000000
21
3449.932000000000
31
0.0
0
LINE
5
560
100
AcDbEntity
8
0-9扉体
6
CONTINUOUS
62
7
100
AcDbLine
10
2552.640000000000
20
3449.350000000000
30
0.0
11
2539.639999999999
21
3449.350000000000
31
0.0
0
LINE
5
561
100
AcDbEntity
8
0-9扉体
6
CONTINUOUS
62
7
100
AcDbLine
10
2538.634000000000
20
3455.852000000000
30
0.0
11
2538.634000000000
21
3449.932000000000
31
0.0
0
LINE
5
562
100
AcDbEntity
8
0-9扉体
6
CONTINUOUS
62
7
100
AcDbLine
10
2553.644000000000
20
3455.852000000000
30
0.0
11
2553.644000000000
21
3449.932000000000
31
0.0
0
LINE
5
563
100
AcDbEntity
8
0-9扉体
6
CONTINUOUS
62
3
100
AcDbLine
10
2542.140000000000
20
3449.350000000000
30
0.0
11
2542.140000000000
21
3443.452000000000
31
0.0
0
LINE
5
564
100
AcDbEntity
8
0-9扉体
6
CONTINUOUS
62
3
100
AcDbLine
10
2550.140000000000
20
3449.350000000000
30
0.0
11
2550.140000000000
21
3443.452000000000
31
0.0
0
LINE
5
565
100
AcDbEntity
8
0-9扉体
6
CONTINUOUS
62
7
100
AcDbLine
10
2549.892000000000
20
3455.852000000000
30
0.0
11
2549.892000000000
21
3449.932000000000
31
0.0
0
LINE
5
566
100
AcDbEntity
8
0-9扉体
6
CONTINUOUS
62
7
100
AcDbLine
10
2542.386000000000
20
3455.852000000000
30
0.0
11
2542.386000000000
21
3449.932000000000
31
0.0
0
LINE
5
567
100
AcDbEntity
8
0-9扉体
6
CONTINUOUS
62
3
100
AcDbLine
10
2543.140000000000
20
3449.350000000000
30
0.0
11
2543.140000000000
21
3443.452000000000
31
0.0
0
LINE
5
568
100
AcDbEntity
8
0-9扉体
6
CONTINUOUS
62
3
100
AcDbLine
10
2549.138000000000
20
3449.350000000000
30
0.0
11
2549.138000000000
21
3443.452000000000
31
0.0
0
LINE
5
569
100
AcDbEntity
8
0-5基準線
6
CENTER2
62
7
100
AcDbLine
10
2546.140000000000
20
3440.326000000000
30
0.0
11
2546.140000000000
21
3484.946000000000
31
0.0
0
LINE
5
56a
100
AcDbEntity
8
0-9扉体
6
CONTINUOUS
62
7
100
AcDbLine
10
2526.140000000000
20
3469.452000000000
30
0.0
11
2526.140000000000
21
3477.452000000000
31
0.0
0
LINE
5
56b
100
AcDbEntity
8
0-9扉体
6
CONTINUOUS
62
6
100
AcDbLine
10
2580.892000000000
20
3481.004000000000
30
0.0
11
2584.628000000000
21
3484.738000000000
31
0.0
0
LINE
5
56c
100
AcDbEntity
8
0-9扉体
6
CONTINUOUS
62
6
100
AcDbLine
10
2581.126000000000
20
3479.822000000000
30
0.0
11
2585.130000000000
21
3483.828000000000
31
0.0
0
LINE
5
56d
100
AcDbEntity
8
0-9扉体
6
CONTINUOUS
62
6
100
AcDbLine
10
2570.754000000000
20
3469.452000000000
30
0.0
11
2575.768000000000
21
3474.466000000000
31
0.0
0
LINE
5
56e
100
AcDbEntity
8
0-9扉体
6
CONTINUOUS
62
6
100
AcDbLine
10
2569.340000000000
20
3469.452000000000
30
0.0
11
2574.588000000000
21
3474.698000000000
31
0.0
0
LINE
5
56f
100
AcDbEntity
8
0-9扉体
6
CONTINUOUS
62
6
100
AcDbLine
10
2566.148000000000
20
3480.400000000000
30
0.0
11
2575.150000000000
21
3489.402000000000
31
0.0
0
LINE
5
570
100
AcDbEntity
8
0-9扉体
6
CONTINUOUS
62
6
100
AcDbLine
10
2566.140000000000
20
3478.978000000000
30
0.0
11
2576.602000000000
21
3489.440000000000
31
0.0
0
LINE
5
571
100
AcDbEntity
8
0-9扉体
6
CONTINUOUS
62
7
100
AcDbLine
10
2566.140000000000
20
3479.452000000000
30
0.0
11
2566.140000000000
21
3477.452000000000
31
0.0
0
LINE
5
572
100
AcDbEntity
8
0-9扉体
6
CONTINUOUS
62
6
100
AcDbLine
10
2556.612000000000
20
3469.452000000000
30
0.0
11
2564.612000000000
21
3477.452000000000
31
0.0
0
LINE
5
573
100
AcDbEntity
8
0-9扉体
6
CONTINUOUS
62
6
100
AcDbLine
10
2555.198000000000
20
3469.452000000000
30
0.0
11
2563.198000000000
21
3477.452000000000
31
0.0
0
LINE
5
574
100
AcDbEntity
8
0-9扉体
6
CONTINUOUS
62
6
100
AcDbLine
10
2542.470000000000
20
3469.452000000000
30
0.0
11
2550.470000000000
21
3477.452000000000
31
0.0
0
LINE
5
575
100
AcDbEntity
8
0-9扉体
6
CONTINUOUS
62
6
100
AcDbLine
10
2541.056000000000
20
3469.452000000000
30
0.0
11
2549.056000000000
21
3477.452000000000
31
0.0
0
LINE
5
576
100
AcDbEntity
8
0-9扉体
6
CONTINUOUS
62
6
100
AcDbLine
10
2528.328000000000
20
3469.452000000000
30
0.0
11
2536.328000000000
21
3477.452000000000
31
0.0
0
LINE
5
577
100
AcDbEntity
8
0-9扉体
6
CONTINUOUS
62
6
100
AcDbLine
10
2526.914000000000
20
3469.452000000000
30
0.0
11
2534.914000000000
21
3477.452000000000
31
0.0
0
LINE
5
578
100
AcDbEntity
8
0-9扉体
6
CONTINUOUS
62
6
100
AcDbLine
10
2580.140000000000
20
3375.452000000000
30
0.0
11
2580.140000000000
21
3451.452000000000
31
0.0
0
LINE
5
579
100
AcDbEntity
8
0-9扉体
6
CONTINUOUS
62
6
100
AcDbLine
10
2526.638000000000
20
3369.452000000000
30
0.0
11
2574.140000000000
21
3369.452000000000
31
0.0
0
LINE
5
57a
100
AcDbEntity
8
0-9扉体
6
CONTINUOUS
62
6
100
AcDbLine
10
2526.638000000000
20
3457.452000000000
30
0.0
11
2574.140000000000
21
3457.452000000000
31
0.0
0
LINE
5
57b
100
AcDbEntity
8
0-9扉体
6
CONTINUOUS
62
6
100
AcDbLine
10
2526.140000000000
20
3462.952000000000
30
0.0
11
2526.140000000000
21
3457.952000000000
31
0.0
0
LINE
5
57c
100
AcDbEntity
8
0-9扉体
6
CONTINUOUS
62
6
100
AcDbLine
10
2526.140000000000
20
3363.952000000000
30
0.0
11
2526.140000000000
21
3368.952000000000
31
0.0
0
LINE
5
57d
100
AcDbEntity
8
0-9扉体
6
CONTINUOUS
62
3
100
AcDbLine
10
1591.138000000000
20
3463.452000000000
30
0.0
11
1591.138000000000
21
3469.452000000000
31
0.0
0
LINE
5
57e
100
AcDbEntity
8
0-9扉体
6
CONTINUOUS
62
3
100
AcDbLine
10
1586.138000000000
20
3363.452000000000
30
0.0
11
1586.138000000000
21
3463.452000000000
31
0.0
0
LINE
5
57f
100
AcDbEntity
8
0-6戸当り
6
CONTINUOUS
62
6
100
AcDbLine
10
2636.140000000000
20
3489.452000000000
30
0.0
11
2636.140000000000
21
3501.452000000000
31
0.0
0
LINE
5
580
100
AcDbEntity
8
0-5基準線
6
CENTER2
62
7
100
AcDbLine
10
2616.140000000000
20
3471.278000000000
30
0.0
11
2616.140000000000
21
3578.886000000000
31
0.0
0
LINE
5
581
100
AcDbEntity
8
0-6戸当り
6
CONTINUOUS
62
2
100
AcDbLine
10
2621.140000000000
20
3501.452000000000
30
0.0
11
2621.140000000000
21
3545.652000000000
31
0.0
0
LINE
5
582
100
AcDbEntity
8
0-6戸当り
6
CONTINUOUS
62
2
100
AcDbLine
10
2611.140000000000
20
3501.452000000000
30
0.0
11
2611.140000000000
21
3545.652000000000
31
0.0
0
LINE
5
583
100
AcDbEntity
8
0-6戸当り
6
DOT
62
2
100
AcDbLine
10
1561.138000000000
20
3545.652000000000
30
0.0
11
1563.638000000000
21
3575.164000000000
31
0.0
0
LINE
5
584
100
AcDbEntity
8
0-6戸当り
6
DOT
62
2
100
AcDbLine
10
1556.138000000000
20
3545.652000000000
30
0.0
11
1558.638000000000
21
3575.164000000000
31
0.0
0
LINE
5
585
100
AcDbEntity
8
0-6戸当り
6
DOT
62
2
100
AcDbLine
10
1561.138000000000
20
3545.652000000000
30
0.0
11
1551.138000000000
21
3545.652000000000
31
0.0
0
LINE
5
586
100
AcDbEntity
8
0-6戸当り
6
DOT
62
2
100
AcDbLine
10
1561.496000000000
20
3549.868000000000
30
0.0
11
1556.496000000000
21
3549.868000000000
31
0.0
0
LINE
5
587
100
AcDbEntity
8
0-6戸当り
6
DOT
62
2
100
AcDbLine
10
1561.854000000000
20
3554.084000000000
30
0.0
11
1556.852000000000
21
3554.084000000000
31
0.0
0
LINE
5
588
100
AcDbEntity
8
0-6戸当り
6
DOT
62
2
100
AcDbLine
10
1562.210000000000
20
3558.300000000000
30
0.0
11
1557.210000000000
21
3558.300000000000
31
0.0
0
LINE
5
589
100
AcDbEntity
8
0-6戸当り
6
DOT
62
2
100
AcDbLine
10
1562.568000000000
20
3562.516000000000
30
0.0
11
1557.568000000000
21
3562.516000000000
31
0.0
0
LINE
5
58a
100
AcDbEntity
8
0-6戸当り
6
DOT
62
2
100
AcDbLine
10
1562.924000000000
20
3566.732000000000
30
0.0
11
1557.924000000000
21
3566.732000000000
31
0.0
0
LINE
5
58b
100
AcDbEntity
8
0-6戸当り
6
DOT
62
2
100
AcDbLine
10
1563.282000000000
20
3570.948000000000
30
0.0
11
1558.282000000000
21
3570.948000000000
31
0.0
0
POLYLINE
5
58c
100
AcDbEntity
8
0-6戸当り
6
DOT
62
  2
100
AcDb2dPolyline
66
1
10
0.0
20
0.0
30
0.0
70
0
0
VERTEX
5
58d
100
AcDbEntity
8
0-6戸当り
6
DOT
62
  2
100
AcDbVertex
100
AcDb2dVertex
10
1551.138000000000
20
3545.652000000000
30
0.0
0
VERTEX
5
58e
100
AcDbEntity
8
0-6戸当り
6
DOT
62
  2
100
AcDbVertex
100
AcDb2dVertex
10
1548.638000000000
20
3575.164000000000
30
0.0
0
VERTEX
5
58f
100
AcDbEntity
8
0-6戸当り
6
DOT
62
  2
100
AcDbVertex
100
AcDb2dVertex
10
1553.640000000000
20
3575.164000000000
30
0.0
0
SEQEND
5
590
100
AcDbEntity
8
0-6戸当り
0
LINE
5
591
100
AcDbEntity
8
0-6戸当り
6
DOT
62
2
100
AcDbLine
10
1556.138000000000
20
3545.652000000000
30
0.0
11
1553.640000000000
21
3575.164000000000
31
0.0
0
LINE
5
592
100
AcDbEntity
8
0-6戸当り
6
DOT
62
2
100
AcDbLine
10
1550.782000000000
20
3549.868000000000
30
0.0
11
1555.782000000000
21
3549.868000000000
31
0.0
0
LINE
5
593
100
AcDbEntity
8
0-6戸当り
6
DOT
62
2
100
AcDbLine
10
1550.424000000000
20
3554.084000000000
30
0.0
11
1555.424000000000
21
3554.084000000000
31
0.0
0
LINE
5
594
100
AcDbEntity
8
0-6戸当り
6
DOT
62
2
100
AcDbLine
10
1550.068000000000
20
3558.300000000000
30
0.0
11
1555.068000000000
21
3558.300000000000
31
0.0
0
LINE
5
595
100
AcDbEntity
8
0-6戸当り
6
DOT
62
2
100
AcDbLine
10
1549.710000000000
20
3562.516000000000
30
0.0
11
1554.710000000000
21
3562.516000000000
31
0.0
0
LINE
5
596
100
AcDbEntity
8
0-6戸当り
6
DOT
62
2
100
AcDbLine
10
1549.354000000000
20
3566.732000000000
30
0.0
11
1554.352000000000
21
3566.732000000000
31
0.0
0
LINE
5
597
100
AcDbEntity
8
0-6戸当り
6
DOT
62
2
100
AcDbLine
10
1548.996000000000
20
3570.948000000000
30
0.0
11
1553.996000000000
21
3570.948000000000
31
0.0
0
LINE
5
598
100
AcDbEntity
8
0-6戸当り
6
CONTINUOUS
62
3
100
AcDbLine
10
1567.138000000000
20
3487.852000000000
30
0.0
11
1567.138000000000
21
3489.452000000000
31
0.0
0
LINE
5
599
100
AcDbEntity
8
0-6戸当り
6
CONTINUOUS
62
3
100
AcDbLine
10
1545.138000000000
20
3487.852000000000
30
0.0
11
1545.138000000000
21
3489.452000000000
31
0.0
0
LINE
5
59a
100
AcDbEntity
8
0-6戸当り
6
CONTINUOUS
62
7
100
AcDbLine
10
1564.638000000000
20
3479.852000000000
30
0.0
11
1565.954000000000
21
3480.610000000000
31
0.0
0
POLYLINE
5
59b
100
AcDbEntity
8
0-6戸当り
6
CONTINUOUS
62
  7
100
AcDb2dPolyline
66
1
10
0.0
20
0.0
30
0.0
70
0
0
VERTEX
5
59c
100
AcDbEntity
8
0-6戸当り
6
CONTINUOUS
62
  7
100
AcDbVertex
100
AcDb2dVertex
10
1564.638000000000
20
3479.852000000000
30
0.0
0
VERTEX
5
59d
100
AcDbEntity
8
0-6戸当り
6
CONTINUOUS
62
  7
100
AcDbVertex
100
AcDb2dVertex
10
1547.638000000000
20
3479.852000000000
30
0.0
0
VERTEX
5
59e
100
AcDbEntity
8
0-6戸当り
6
CONTINUOUS
62
  7
100
AcDbVertex
100
AcDb2dVertex
10
1546.324000000000
20
3480.610000000000
30
0.0
0
SEQEND
5
59f
100
AcDbEntity
8
0-6戸当り
0
LINE
5
5a0
100
AcDbEntity
8
0-6戸当り
6
CONTINUOUS
62
7
100
AcDbLine
10
1546.324000000000
20
3487.852000000000
30
0.0
11
1546.324000000000
21
3480.610000000000
31
0.0
0
LINE
5
5a1
100
AcDbEntity
8
0-6戸当り
6
CONTINUOUS
62
7
100
AcDbLine
10
1561.046000000000
20
3487.852000000000
30
0.0
11
1561.046000000000
21
3480.610000000000
31
0.0
0
LINE
5
5a2
100
AcDbEntity
8
0-6戸当り
6
CONTINUOUS
62
7
100
AcDbLine
10
1551.232000000000
20
3487.852000000000
30
0.0
11
1551.232000000000
21
3480.610000000000
31
0.0
0
LINE
5
5a3
100
AcDbEntity
8
0-6戸当り
6
CONTINUOUS
62
7
100
AcDbLine
10
1565.954000000000
20
3487.852000000000
30
0.0
11
1565.954000000000
21
3480.610000000000
31
0.0
0
LINE
5
5a4
100
AcDbEntity
8
0-6戸当り
6
CONTINUOUS
62
3
100
AcDbLine
10
1545.138000000000
20
3487.852000000000
30
0.0
11
1567.138000000000
21
3487.852000000000
31
0.0
0
LINE
5
5a5
100
AcDbEntity
8
0-6戸当り
6
CONTINUOUS
62
3
100
AcDbLine
10
1551.138000000000
20
3479.852000000000
30
0.0
11
1551.138000000000
21
3475.166000000000
31
0.0
0
LINE
5
5a6
100
AcDbEntity
8
0-6戸当り
6
CONTINUOUS
62
3
100
AcDbLine
10
1561.138000000000
20
3479.852000000000
30
0.0
11
1561.138000000000
21
3475.166000000000
31
0.0
0
LINE
5
5a7
100
AcDbEntity
8
0-6戸当り
6
CONTINUOUS
62
4
100
AcDbLine
10
1552.138000000000
20
3479.852000000000
30
0.0
11
1552.138000000000
21
3474.934000000000
31
0.0
0
LINE
5
5a8
100
AcDbEntity
8
0-6戸当り
6
CONTINUOUS
62
4
100
AcDbLine
10
1560.138000000000
20
3479.852000000000
30
0.0
11
1560.138000000000
21
3474.934000000000
31
0.0
0
LINE
5
5a9
100
AcDbEntity
8
0-6戸当り
6
CONTINUOUS
62
3
100
AcDbLine
10
1551.138000000000
20
3475.166000000000
30
0.0
11
1561.138000000000
21
3475.166000000000
31
0.0
0
LINE
5
5aa
100
AcDbEntity
8
0-6戸当り
6
DOT
62
2
100
AcDbLine
10
1563.638000000000
20
3575.164000000000
30
0.0
11
1558.638000000000
21
3575.164000000000
31
0.0
0
LINE
5
5ab
100
AcDbEntity
8
0-5基準線
6
CENTER2
62
7
100
AcDbLine
10
1556.138000000000
20
3471.278000000000
30
0.0
11
1556.138000000000
21
3578.886000000000
31
0.0
0
LINE
5
5ac
100
AcDbEntity
8
0-6戸当り
6
DOT
62
2
100
AcDbLine
10
1551.138000000000
20
3501.452000000000
30
0.0
11
1551.138000000000
21
3545.652000000000
31
0.0
0
LINE
5
5ad
100
AcDbEntity
8
0-6戸当り
6
DOT
62
2
100
AcDbLine
10
1561.138000000000
20
3501.452000000000
30
0.0
11
1561.138000000000
21
3545.652000000000
31
0.0
0
LINE
5
5ae
100
AcDbEntity
8
0-6戸当り
6
CONTINUOUS
62
6
100
AcDbLine
10
1536.138000000000
20
3489.452000000000
30
0.0
11
1536.138000000000
21
3501.452000000000
31
0.0
0
LINE
5
5af
100
AcDbEntity
8
0-6戸当り
6
CONTINUOUS
62
6
100
AcDbLine
10
1536.138000000000
20
3489.452000000000
30
0.0
11
2636.140000000000
21
3489.452000000000
31
0.0
0
LINE
5
5b0
100
AcDbEntity
8
0-3RC
6
CONTINUOUS
62
6
100
AcDbLine
10
1636.140000000000
20
3489.452000000000
30
0.0
11
1636.140000000000
21
3701.452000000000
31
0.0
0
LINE
5
5b1
100
AcDbEntity
8
0-5基準線
6
CENTER2
62
7
100
AcDbLine
10
2086.140000000000
20
3300.960000000000
30
0.0
11
2086.140000000000
21
3701.452000000000
31
0.0
0
LINE
5
5b2
100
AcDbEntity
8
0-3RC
6
CONTINUOUS
62
6
100
AcDbLine
10
2536.140000000000
20
3489.452000000000
30
0.0
11
2536.140000000000
21
3701.452000000000
31
0.0
0
LINE
5
5b3
100
AcDbEntity
8
0-3RC
6
CONTINUOUS
62
6
100
AcDbLine
10
1436.138000000000
20
3501.452000000000
30
0.0
11
2736.140000000000
21
3501.452000000000
31
0.0
0
LINE
5
5b4
100
AcDbEntity
8
0-9扉体
6
DOT
62
3
100
AcDbLine
10
2550.140000000000
20
3479.452000000000
30
0.0
11
2542.140000000000
21
3479.452000000000
31
0.0
0
LINE
5
5b5
100
AcDbEntity
8
0-9扉体
6
CONTINUOUS
62
3
100
AcDbLine
10
2565.140000000000
20
3483.452000000000
30
0.0
11
2527.140000000000
21
3483.452000000000
31
0.0
0
LINE
5
5b6
100
AcDbEntity
8
0-9扉体
6
CONTINUOUS
62
3
100
AcDbLine
10
2522.256000000000
20
3483.452000000000
30
0.0
11
2086.140000000000
21
3483.452000000000
31
0.0
0
LINE
5
5b7
100
AcDbEntity
8
0-9扉体
6
CONTINUOUS
62
7
100
AcDbLine
10
2566.140000000000
20
3477.452000000000
30
0.0
11
2526.140000000000
21
3477.452000000000
31
0.0
0
LINE
5
5b8
100
AcDbEntity
8
0-9扉体
6
CONTINUOUS
62
7
100
AcDbLine
10
2522.256000000000
20
3477.452000000000
30
0.0
11
2086.140000000000
21
3477.452000000000
31
0.0
0
LINE
5
5b9
100
AcDbEntity
8
0-9扉体
6
CONTINUOUS
62
7
100
AcDbLine
10
3946.120000000000
20
2122.554000000000
30
0.0
11
3946.120000000000
21
2082.554000000000
31
0.0
0
LINE
5
5ba
100
AcDbEntity
8
0-9扉体
6
CONTINUOUS
62
3
100
AcDbLine
10
3952.120000000000
20
2121.554000000000
30
0.0
11
3952.120000000000
21
2083.554000000000
31
0.0
0
LINE
5
5bb
100
AcDbEntity
8
0-8寸法
6
CONTINUOUS
62
4
100
AcDbLine
10
1586.138000000000
20
867.554000000000
30
0.0
11
2586.140000000000
21
867.554000000000
31
0.0
0
LINE
5
5bc
100
AcDbEntity
8
0-8寸法
6
CONTINUOUS
62
4
100
AcDbLine
10
2586.140000000000
20
1077.536000000000
30
0.0
11
2586.140000000000
21
852.554000000000
31
0.0
0
LINE
5
5bd
100
AcDbEntity
8
0-8寸法
6
CONTINUOUS
62
4
100
AcDbLine
10
2586.140000000000
20
867.554000000000
30
0.0
11
2557.162000000000
21
875.318000000000
31
0.0
0
LINE
5
5be
100
AcDbEntity
8
0-8寸法
6
CONTINUOUS
62
4
100
AcDbLine
10
2586.140000000000
20
867.554000000000
30
0.0
11
2557.162000000000
21
859.790000000000
31
0.0
0
LINE
5
5bf
100
AcDbEntity
8
0-8寸法
6
CONTINUOUS
62
4
100
AcDbLine
10
2636.140000000000
20
717.554000000000
30
0.0
11
2665.116000000000
21
725.318000000000
31
0.0
0
LINE
5
5c0
100
AcDbEntity
8
0-8寸法
6
CONTINUOUS
62
4
100
AcDbLine
10
2636.140000000000
20
717.554000000000
30
0.0
11
2665.116000000000
21
709.790000000000
31
0.0
0
LINE
5
5c1
100
AcDbEntity
8
0-8寸法
6
CONTINUOUS
62
4
100
AcDbLine
10
1536.138000000000
20
567.554000000000
30
0.0
11
2636.140000000000
21
567.554000000000
31
0.0
0
LINE
5
5c2
100
AcDbEntity
8
0-8寸法
6
CONTINUOUS
62
4
100
AcDbLine
10
1536.138000000000
20
1077.536000000000
30
0.0
11
1536.138000000000
21
552.554000000000
31
0.0
0
LINE
5
5c3
100
AcDbEntity
8
0-8寸法
6
CONTINUOUS
62
4
100
AcDbLine
10
2636.140000000000
20
1077.536000000000
30
0.0
11
2636.140000000000
21
552.554000000000
31
0.0
0
LINE
5
5c4
100
AcDbEntity
8
0-8寸法
6
CONTINUOUS
62
4
100
AcDbLine
10
1536.138000000000
20
567.554000000000
30
0.0
11
1565.116000000000
21
575.318000000000
31
0.0
0
LINE
5
5c5
100
AcDbEntity
8
0-8寸法
6
CONTINUOUS
62
4
100
AcDbLine
10
1536.138000000000
20
567.554000000000
30
0.0
11
1565.116000000000
21
559.790000000000
31
0.0
0
LINE
5
5c6
100
AcDbEntity
8
0-8寸法
6
CONTINUOUS
62
4
100
AcDbLine
10
2636.140000000000
20
567.554000000000
30
0.0
11
2607.162000000000
21
575.318000000000
31
0.0
0
LINE
5
5c7
100
AcDbEntity
8
0-8寸法
6
CONTINUOUS
62
4
100
AcDbLine
10
2636.140000000000
20
567.554000000000
30
0.0
11
2607.162000000000
21
559.790000000000
31
0.0
0
LINE
5
5c8
100
AcDbEntity
8
0-8寸法
6
CONTINUOUS
62
4
100
AcDbLine
10
2755.564000000000
20
717.554000000000
30
0.0
11
2616.138000000000
21
717.554000000000
31
0.0
0
LINE
5
5c9
100
AcDbEntity
8
0-8寸法
6
CONTINUOUS
62
4
100
AcDbLine
10
1586.138000000000
20
1077.536000000000
30
0.0
11
1586.138000000000
21
852.554000000000
31
0.0
0
LINE
5
5ca
100
AcDbEntity
8
0-8寸法
6
CONTINUOUS
62
4
100
AcDbLine
10
1586.138000000000
20
867.554000000000
30
0.0
11
1615.116000000000
21
875.318000000000
31
0.0
0
LINE
5
5cb
100
AcDbEntity
8
0-8寸法
6
CONTINUOUS
62
4
100
AcDbLine
10
1586.138000000000
20
867.554000000000
30
0.0
11
1615.116000000000
21
859.790000000000
31
0.0
0
LINE
5
5cc
100
AcDbEntity
8
0-8寸法
6
CONTINUOUS
62
4
100
AcDbLine
10
1536.138000000000
20
717.554000000000
30
0.0
11
1507.162000000000
21
725.318000000000
31
0.0
0
LINE
5
5cd
100
AcDbEntity
8
0-8寸法
6
CONTINUOUS
62
4
100
AcDbLine
10
1536.138000000000
20
717.554000000000
30
0.0
11
1507.162000000000
21
709.790000000000
31
0.0
0
LINE
5
5ce
100
AcDbEntity
8
0-8寸法
6
CONTINUOUS
62
4
100
AcDbLine
10
1416.714000000000
20
717.554000000000
30
0.0
11
1556.138000000000
21
717.554000000000
31
0.0
0
LINE
5
5cf
100
AcDbEntity
8
0-8寸法
6
CONTINUOUS
62
4
100
AcDbLine
10
1336.138000000000
20
1142.554000000000
30
0.0
11
1336.138000000000
21
2142.554000000000
31
0.0
0
LINE
5
5d0
100
AcDbEntity
8
0-8寸法
6
CONTINUOUS
62
4
100
AcDbLine
10
1525.280000000000
20
1142.554000000000
30
0.0
11
1321.138000000000
21
1142.554000000000
31
0.0
0
LINE
5
5d1
100
AcDbEntity
8
0-8寸法
6
CONTINUOUS
62
4
100
AcDbLine
10
1525.280000000000
20
2142.554000000000
30
0.0
11
1321.138000000000
21
2142.554000000000
31
0.0
0
LINE
5
5d2
100
AcDbEntity
8
0-8寸法
6
CONTINUOUS
62
4
100
AcDbLine
10
1336.138000000000
20
1142.554000000000
30
0.0
11
1328.374000000000
21
1171.532000000000
31
0.0
0
LINE
5
5d3
100
AcDbEntity
8
0-8寸法
6
CONTINUOUS
62
4
100
AcDbLine
10
1336.138000000000
20
1142.554000000000
30
0.0
11
1343.904000000000
21
1171.532000000000
31
0.0
0
LINE
5
5d4
100
AcDbEntity
8
0-8寸法
6
CONTINUOUS
62
4
100
AcDbLine
10
1336.138000000000
20
2142.554000000000
30
0.0
11
1328.374000000000
21
2113.576000000000
31
0.0
0
LINE
5
5d5
100
AcDbEntity
8
0-8寸法
6
CONTINUOUS
62
4
100
AcDbLine
10
1336.138000000000
20
2142.554000000000
30
0.0
11
1343.904000000000
21
2113.576000000000
31
0.0
0
LINE
5
5d6
100
AcDbEntity
8
0-8寸法
6
CONTINUOUS
62
4
100
AcDbLine
10
1186.138000000000
20
2192.554000000000
30
0.0
11
1178.374000000000
21
2221.532000000000
31
0.0
0
LINE
5
5d7
100
AcDbEntity
8
0-8寸法
6
CONTINUOUS
62
4
100
AcDbLine
10
1186.138000000000
20
2192.554000000000
30
0.0
11
1193.904000000000
21
2221.532000000000
31
0.0
0
LINE
5
5d8
100
AcDbEntity
8
0-8寸法
6
CONTINUOUS
62
4
100
AcDbLine
10
1186.138000000000
20
2311.978000000000
30
0.0
11
1186.138000000000
21
2172.554000000000
31
0.0
0
LINE
5
5d9
100
AcDbEntity
8
0-8寸法
6
CONTINUOUS
62
4
100
AcDbLine
10
1186.138000000000
20
1092.554000000000
30
0.0
11
1178.374000000000
21
1063.576000000000
31
0.0
0
LINE
5
5da
100
AcDbEntity
8
0-8寸法
6
CONTINUOUS
62
4
100
AcDbLine
10
1186.138000000000
20
1092.554000000000
30
0.0
11
1193.904000000000
21
1063.576000000000
31
0.0
0
LINE
5
5db
100
AcDbEntity
8
0-8寸法
6
CONTINUOUS
62
4
100
AcDbLine
10
1186.138000000000
20
973.128000000000
30
0.0
11
1186.138000000000
21
1112.554000000000
31
0.0
0
LINE
5
5dc
100
AcDbEntity
8
0-8寸法
6
CONTINUOUS
62
4
100
AcDbLine
10
1036.138000000000
20
1092.554000000000
30
0.0
11
1036.138000000000
21
2192.554000000000
31
0.0
0
LINE
5
5dd
100
AcDbEntity
8
0-8寸法
6
CONTINUOUS
62
4
100
AcDbLine
10
1525.280000000000
20
1092.554000000000
30
0.0
11
1021.138000000000
21
1092.554000000000
31
0.0
0
LINE
5
5de
100
AcDbEntity
8
0-8寸法
6
CONTINUOUS
62
4
100
AcDbLine
10
1525.280000000000
20
2192.554000000000
30
0.0
11
1021.138000000000
21
2192.554000000000
31
0.0
0
LINE
5
5df
100
AcDbEntity
8
0-8寸法
6
CONTINUOUS
62
4
100
AcDbLine
10
1036.138000000000
20
1092.554000000000
30
0.0
11
1028.374000000000
21
1121.532000000000
31
0.0
0
LINE
5
5e0
100
AcDbEntity
8
0-8寸法
6
CONTINUOUS
62
4
100
AcDbLine
10
1036.138000000000
20
1092.554000000000
30
0.0
11
1043.904000000000
21
1121.532000000000
31
0.0
0
LINE
5
5e1
100
AcDbEntity
8
0-8寸法
6
CONTINUOUS
62
4
100
AcDbLine
10
1036.138000000000
20
2192.554000000000
30
0.0
11
1028.374000000000
21
2163.576000000000
31
0.0
0
LINE
5
5e2
100
AcDbEntity
8
0-8寸法
6
CONTINUOUS
62
4
100
AcDbLine
10
1036.138000000000
20
2192.554000000000
30
0.0
11
1043.904000000000
21
2163.576000000000
31
0.0
0
LINE
5
5e3
100
AcDbEntity
8
0-8寸法
6
CONTINUOUS
62
4
100
AcDbLine
10
1556.138000000000
20
2932.554000000000
30
0.0
11
1676.140000000000
21
2932.554000000000
31
0.0
0
LINE
5
5e4
100
AcDbEntity
8
0-8寸法
6
CONTINUOUS
62
4
100
AcDbLine
10
1556.138000000000
20
2208.500000000000
30
0.0
11
1556.138000000000
21
2947.554000000000
31
0.0
0
LINE
5
5e5
100
AcDbEntity
8
0-8寸法
6
CONTINUOUS
62
4
100
AcDbLine
10
1556.138000000000
20
2932.554000000000
30
0.0
11
1585.116000000000
21
2940.318000000000
31
0.0
0
LINE
5
5e6
100
AcDbEntity
8
0-8寸法
6
CONTINUOUS
62
4
100
AcDbLine
10
1556.138000000000
20
2932.554000000000
30
0.0
11
1585.116000000000
21
2924.790000000000
31
0.0
0
LINE
5
5e7
100
AcDbEntity
8
0-8寸法
6
CONTINUOUS
62
4
100
AcDbLine
10
1676.140000000000
20
2932.554000000000
30
0.0
11
1647.162000000000
21
2940.318000000000
31
0.0
0
LINE
5
5e8
100
AcDbEntity
8
0-8寸法
6
CONTINUOUS
62
4
100
AcDbLine
10
1676.140000000000
20
2932.554000000000
30
0.0
11
1647.162000000000
21
2924.790000000000
31
0.0
0
LINE
5
5e9
100
AcDbEntity
8
0-8寸法
6
CONTINUOUS
62
4
100
AcDbLine
10
1886.138000000000
20
2932.554000000000
30
0.0
11
2286.138000000000
21
2932.554000000000
31
0.0
0
LINE
5
5ea
100
AcDbEntity
8
0-8寸法
6
CONTINUOUS
62
4
100
AcDbLine
10
1886.138000000000
20
2932.554000000000
30
0.0
11
1915.116000000000
21
2940.318000000000
31
0.0
0
LINE
5
5eb
100
AcDbEntity
8
0-8寸法
6
CONTINUOUS
62
4
100
AcDbLine
10
1886.138000000000
20
2932.554000000000
30
0.0
11
1915.116000000000
21
2924.790000000000
31
0.0
0
LINE
5
5ec
100
AcDbEntity
8
0-8寸法
6
CONTINUOUS
62
4
100
AcDbLine
10
2286.138000000000
20
2932.554000000000
30
0.0
11
2257.162000000000
21
2940.318000000000
31
0.0
0
LINE
5
5ed
100
AcDbEntity
8
0-8寸法
6
CONTINUOUS
62
4
100
AcDbLine
10
2286.138000000000
20
2932.554000000000
30
0.0
11
2257.162000000000
21
2924.790000000000
31
0.0
0
LINE
5
5ee
100
AcDbEntity
8
0-8寸法
6
CONTINUOUS
62
4
100
AcDbLine
10
2496.138000000000
20
2932.554000000000
30
0.0
11
2616.138000000000
21
2932.554000000000
31
0.0
0
LINE
5
5ef
100
AcDbEntity
8
0-8寸法
6
CONTINUOUS
62
4
100
AcDbLine
10
2616.138000000000
20
2208.500000000000
30
0.0
11
2616.138000000000
21
2947.554000000000
31
0.0
0
LINE
5
5f0
100
AcDbEntity
8
0-8寸法
6
CONTINUOUS
62
4
100
AcDbLine
10
2496.138000000000
20
2932.554000000000
30
0.0
11
2525.116000000000
21
2940.318000000000
31
0.0
0
LINE
5
5f1
100
AcDbEntity
8
0-8寸法
6
CONTINUOUS
62
4
100
AcDbLine
10
2496.138000000000
20
2932.554000000000
30
0.0
11
2525.116000000000
21
2924.790000000000
31
0.0
0
LINE
5
5f2
100
AcDbEntity
8
0-8寸法
6
CONTINUOUS
62
4
100
AcDbLine
10
2616.138000000000
20
2932.554000000000
30
0.0
11
2587.162000000000
21
2940.318000000000
31
0.0
0
LINE
5
5f3
100
AcDbEntity
8
0-8寸法
6
CONTINUOUS
62
4
100
AcDbLine
10
2616.138000000000
20
2932.554000000000
30
0.0
11
2587.162000000000
21
2924.790000000000
31
0.0
0
LINE
5
5f4
100
AcDbEntity
8
0-8寸法
6
CONTINUOUS
62
4
100
AcDbLine
10
4181.576000000000
20
2092.554000000000
30
0.0
11
4560.120000000000
21
2092.554000000000
31
0.0
0
LINE
5
5f5
100
AcDbEntity
8
0-8寸法
6
CONTINUOUS
62
4
100
AcDbLine
10
4545.120000000000
20
2092.554000000000
30
0.0
11
4537.353999999999
21
2063.576000000000
31
0.0
0
LINE
5
5f6
100
AcDbEntity
8
0-8寸法
6
CONTINUOUS
62
4
100
AcDbLine
10
4545.120000000000
20
2092.554000000000
30
0.0
11
4552.884000000000
21
2063.576000000000
31
0.0
0
LINE
5
5f7
100
AcDbEntity
8
0-8寸法
6
CONTINUOUS
62
4
100
AcDbLine
10
4545.120000000000
20
2092.554000000000
30
0.0
11
4545.120000000000
21
2332.554000000000
31
0.0
0
LINE
5
5f8
100
AcDbEntity
8
0-8寸法
6
CONTINUOUS
62
4
100
AcDbLine
10
4545.120000000000
20
2092.554000000000
30
0.0
11
4537.353999999999
21
2121.532000000000
31
0.0
0
LINE
5
5f9
100
AcDbEntity
8
0-8寸法
6
CONTINUOUS
62
4
100
AcDbLine
10
4545.120000000000
20
2092.554000000000
30
0.0
11
4552.884000000000
21
2121.532000000000
31
0.0
0
LINE
5
5fa
100
AcDbEntity
8
0-8寸法
6
CONTINUOUS
62
4
100
AcDbLine
10
4545.120000000000
20
2332.554000000000
30
0.0
11
4537.353999999999
21
2303.576000000000
31
0.0
0
LINE
5
5fb
100
AcDbEntity
8
0-8寸法
6
CONTINUOUS
62
4
100
AcDbLine
10
4545.120000000000
20
2332.554000000000
30
0.0
11
4552.884000000000
21
2303.576000000000
31
0.0
0
LINE
5
5fc
100
AcDbEntity
8
0-8寸法
6
CONTINUOUS
62
4
100
AcDbLine
10
4395.118000000000
20
2092.554000000000
30
0.0
11
4387.353999999999
21
2063.576000000000
31
0.0
0
LINE
5
5fd
100
AcDbEntity
8
0-8寸法
6
CONTINUOUS
62
4
100
AcDbLine
10
4395.118000000000
20
2092.554000000000
30
0.0
11
4402.884000000000
21
2063.576000000000
31
0.0
0
LINE
5
5fe
100
AcDbEntity
8
0-8寸法
6
CONTINUOUS
62
4
100
AcDbLine
10
3986.298000000000
20
2192.554000000000
30
0.0
11
4410.118000000000
21
2192.554000000000
31
0.0
0
LINE
5
5ff
100
AcDbEntity
8
0-8寸法
6
CONTINUOUS
62
4
100
AcDbLine
10
3986.298000000000
20
2332.554000000000
30
0.0
11
4560.120000000000
21
2332.554000000000
31
0.0
0
LINE
5
600
100
AcDbEntity
8
0-8寸法
6
CONTINUOUS
62
4
100
AcDbLine
10
4395.118000000000
20
2192.554000000000
30
0.0
11
4387.353999999999
21
2221.532000000000
31
0.0
0
LINE
5
601
100
AcDbEntity
8
0-8寸法
6
CONTINUOUS
62
4
100
AcDbLine
10
4395.118000000000
20
2192.554000000000
30
0.0
11
4402.884000000000
21
2221.532000000000
31
0.0
0
LINE
5
602
100
AcDbEntity
8
0-8寸法
6
CONTINUOUS
62
4
100
AcDbLine
10
4395.118000000000
20
1951.256000000000
30
0.0
11
4395.118000000000
21
2238.126000000000
31
0.0
0
LINE
5
603
100
AcDbEntity
8
0-8寸法
6
CONTINUOUS
62
4
100
AcDbLine
10
3970.118000000000
20
1732.554000000000
30
0.0
11
3999.096000000000
21
1740.318000000000
31
0.0
0
LINE
5
604
100
AcDbEntity
8
0-8寸法
6
CONTINUOUS
62
4
100
AcDbLine
10
3970.118000000000
20
1732.554000000000
30
0.0
11
3999.096000000000
21
1724.790000000000
31
0.0
0
LINE
5
605
100
AcDbEntity
8
0-8寸法
6
CONTINUOUS
62
4
100
AcDbLine
10
3938.120000000000
20
1732.554000000000
30
0.0
11
3909.142000000000
21
1740.318000000000
31
0.0
0
LINE
5
606
100
AcDbEntity
8
0-8寸法
6
CONTINUOUS
62
4
100
AcDbLine
10
3938.120000000000
20
1732.554000000000
30
0.0
11
3909.142000000000
21
1724.790000000000
31
0.0
0
POLYLINE
5
607
100
AcDbEntity
8
0-8寸法
6
CONTINUOUS
62
  4
100
AcDb2dPolyline
66
1
10
0.0
20
0.0
30
0.0
70
0
0
VERTEX
5
608
100
AcDbEntity
8
0-8寸法
6
CONTINUOUS
62
  4
100
AcDbVertex
100
AcDb2dVertex
10
4106.896000000000
20
1732.554000000000
30
0.0
0
VERTEX
5
609
100
AcDbEntity
8
0-8寸法
6
CONTINUOUS
62
  4
100
AcDbVertex
100
AcDb2dVertex
10
3958.118000000000
20
1732.554000000000
30
0.0
0
VERTEX
5
60a
100
AcDbEntity
8
0-8寸法
6
CONTINUOUS
62
  4
100
AcDbVertex
100
AcDb2dVertex
10
3843.634000000000
20
1732.554000000000
30
0.0
0
SEQEND
5
60b
100
AcDbEntity
8
0-8寸法
0
LINE
5
60c
100
AcDbEntity
8
0-9扉体
6
CONTINUOUS
62
3
100
AcDbLine
10
3932.118000000000
20
2142.778000000000
30
0.0
11
3932.118000000000
21
1750.672000000000
31
0.0
0
LINE
5
60d
100
AcDbEntity
8
0-9扉体
6
CONTINUOUS
62
3
100
AcDbLine
10
3932.118000000000
20
1716.836000000000
30
0.0
11
3932.120000000000
21
1142.958000000000
31
0.0
0
LINE
5
60e
100
AcDbEntity
8
0-9扉体
6
CONTINUOUS
62
7
100
AcDbLine
10
3946.120000000000
20
1716.836000000000
30
0.0
11
3946.120000000000
21
1211.076000000000
31
0.0
0
LINE
5
60f
100
AcDbEntity
8
0-9扉体
6
CONTINUOUS
62
3
100
AcDbLine
10
3952.120000000000
20
1716.836000000000
30
0.0
11
3952.120000000000
21
1211.076000000000
31
0.0
0
LINE
5
610
100
AcDbEntity
8
0-8寸法
6
CONTINUOUS
62
4
100
AcDbLine
10
3832.118000000000
20
1882.554000000000
30
0.0
11
3803.140000000000
21
1890.318000000000
31
0.0
0
LINE
5
611
100
AcDbEntity
8
0-8寸法
6
CONTINUOUS
62
4
100
AcDbLine
10
3832.118000000000
20
1882.554000000000
30
0.0
11
3803.140000000000
21
1874.790000000000
31
0.0
0
LINE
5
612
100
AcDbEntity
8
0-8寸法
6
CONTINUOUS
62
4
100
AcDbLine
10
3938.118000000000
20
1882.554000000000
30
0.0
11
3967.096000000000
21
1890.318000000000
31
0.0
0
LINE
5
613
100
AcDbEntity
8
0-8寸法
6
CONTINUOUS
62
4
100
AcDbLine
10
3938.118000000000
20
1882.554000000000
30
0.0
11
3967.096000000000
21
1874.790000000000
31
0.0
0
LINE
5
614
100
AcDbEntity
8
0-8寸法
6
CONTINUOUS
62
4
100
AcDbLine
10
3932.118000000000
20
1882.554000000000
30
0.0
11
4078.258000000000
21
1882.554000000000
31
0.0
0
LINE
5
615
100
AcDbEntity
8
0-9扉体
6
CONTINUOUS
62
7
100
AcDbLine
10
3946.120000000000
20
2076.906000000000
30
0.0
11
3946.120000000000
21
1899.030000000000
31
0.0
0
LINE
5
616
100
AcDbEntity
8
0-9扉体
6
CONTINUOUS
62
7
100
AcDbLine
10
3946.120000000000
20
1869.486000000000
30
0.0
11
3946.120000000000
21
1750.672000000000
31
0.0
0
LINE
5
617
100
AcDbEntity
8
0-9扉体
6
CONTINUOUS
62
3
100
AcDbLine
10
3952.120000000000
20
2076.906000000000
30
0.0
11
3952.120000000000
21
1899.030000000000
31
0.0
0
LINE
5
618
100
AcDbEntity
8
0-9扉体
6
CONTINUOUS
62
3
100
AcDbLine
10
3952.120000000000
20
1869.486000000000
30
0.0
11
3952.120000000000
21
1750.672000000000
31
0.0
0
LINE
5
619
100
AcDbEntity
8
0-6戸当り
6
CONTINUOUS
62
6
100
AcDbLine
10
3958.118000000000
20
2332.554000000000
30
0.0
11
3958.118000000000
21
1899.030000000000
31
0.0
0
LINE
5
61a
100
AcDbEntity
8
0-6戸当り
6
CONTINUOUS
62
6
100
AcDbLine
10
3958.118000000000
20
1869.486000000000
30
0.0
11
3958.120000000000
21
1092.554000000000
31
0.0
0
LINE
5
61b
100
AcDbEntity
8
0-3RC
6
CONTINUOUS
62
6
100
AcDbLine
10
3970.118000000000
20
2432.554000000000
30
0.0
11
3970.118000000000
21
1899.030000000000
31
0.0
0
LINE
5
61c
100
AcDbEntity
8
0-3RC
6
CONTINUOUS
62
6
100
AcDbLine
10
3970.118000000000
20
1869.486000000000
30
0.0
11
3970.120000000000
21
992.554000000000
31
0.0
0
LINE
5
61d
100
AcDbEntity
8
0-8寸法
6
CONTINUOUS
62
4
100
AcDbLine
10
3702.578000000000
20
1882.554000000000
30
0.0
11
3932.118000000000
21
1882.554000000000
31
0.0
0
LINE
5
61e
100
AcDbEntity
8
0-8寸法
6
CONTINUOUS
62
4
100
AcDbLine
10
1636.140000000000
20
3718.846000000000
30
0.0
11
1636.140000000000
21
3941.452000000000
31
0.0
0
LINE
5
61f
100
AcDbEntity
8
0-8寸法
6
CONTINUOUS
62
4
100
AcDbLine
10
1636.140000000000
20
3926.452000000000
30
0.0
11
2536.140000000000
21
3926.452000000000
31
0.0
0
LINE
5
620
100
AcDbEntity
8
0-8寸法
6
CONTINUOUS
62
4
100
AcDbLine
10
2536.140000000000
20
3718.846000000000
30
0.0
11
2536.140000000000
21
3941.452000000000
31
0.0
0
LINE
5
621
100
AcDbEntity
8
0-8寸法
6
CONTINUOUS
62
4
100
AcDbLine
10
1636.140000000000
20
3926.452000000000
30
0.0
11
1665.116000000000
21
3934.216000000000
31
0.0
0
LINE
5
622
100
AcDbEntity
8
0-8寸法
6
CONTINUOUS
62
4
100
AcDbLine
10
1636.140000000000
20
3926.452000000000
30
0.0
11
1665.116000000000
21
3918.686000000000
31
0.0
0
LINE
5
623
100
AcDbEntity
8
0-8寸法
6
CONTINUOUS
62
4
100
AcDbLine
10
2536.140000000000
20
3926.452000000000
30
0.0
11
2507.162000000000
21
3934.216000000000
31
0.0
0
LINE
5
624
100
AcDbEntity
8
0-8寸法
6
CONTINUOUS
62
4
100
AcDbLine
10
2536.140000000000
20
3926.452000000000
30
0.0
11
2507.162000000000
21
3918.686000000000
31
0.0
0
LINE
5
625
100
AcDbEntity
8
0-9扉体
6
CONTINUOUS
62
7
100
AcDbLine
10
3891.618000000000
20
2167.076000000000
30
0.0
11
3872.618000000000
21
2167.076000000000
31
0.0
0
LINE
5
626
100
AcDbEntity
8
0-9扉体
6
CONTINUOUS
62
7
100
AcDbLine
10
3891.618000000000
20
2167.076000000000
30
0.0
11
3893.088000000000
21
2166.228000000000
31
0.0
0
LINE
5
627
100
AcDbEntity
8
0-9扉体
6
CONTINUOUS
62
7
100
AcDbLine
10
3872.618000000000
20
2167.076000000000
30
0.0
11
3871.148000000000
21
2166.228000000000
31
0.0
0
LINE
5
628
100
AcDbEntity
8
0-9扉体
6
CONTINUOUS
62
3
100
AcDbLine
10
3869.118000000000
20
2154.076000000000
30
0.0
11
3895.118000000000
21
2154.076000000000
31
0.0
0
LINE
5
629
100
AcDbEntity
8
0-9扉体
6
CONTINUOUS
62
3
100
AcDbLine
10
3895.118000000000
20
2151.776000000000
30
0.0
11
3895.118000000000
21
2154.076000000000
31
0.0
0
LINE
5
62a
100
AcDbEntity
8
0-9扉体
6
CONTINUOUS
62
3
100
AcDbLine
10
3869.118000000000
20
2151.776000000000
30
0.0
11
3869.118000000000
21
2154.076000000000
31
0.0
0
LINE
5
62b
100
AcDbEntity
8
0-9扉体
6
CONTINUOUS
62
7
100
AcDbLine
10
3887.604000000000
20
2157.076000000000
30
0.0
11
3887.604000000000
21
2166.228000000000
31
0.0
0
LINE
5
62c
100
AcDbEntity
8
0-9扉体
6
CONTINUOUS
62
7
100
AcDbLine
10
3876.634000000000
20
2157.076000000000
30
0.0
11
3876.634000000000
21
2166.228000000000
31
0.0
0
LINE
5
62d
100
AcDbEntity
8
0-9扉体
6
CONTINUOUS
62
3
100
AcDbLine
10
3892.868000000000
20
2154.076000000000
30
0.0
11
3892.868000000000
21
2157.076000000000
31
0.0
0
LINE
5
62e
100
AcDbEntity
8
0-9扉体
6
CONTINUOUS
62
3
100
AcDbLine
10
3871.368000000000
20
2154.076000000000
30
0.0
11
3871.368000000000
21
2157.076000000000
31
0.0
0
LINE
5
62f
100
AcDbEntity
8
0-9扉体
6
CONTINUOUS
62
3
100
AcDbLine
10
3882.118000000000
20
2154.076000000000
30
0.0
11
3879.118000000000
21
2157.076000000000
31
0.0
0
LINE
5
630
100
AcDbEntity
8
0-9扉体
6
CONTINUOUS
62
3
100
AcDbLine
10
3885.118000000000
20
2154.076000000000
30
0.0
11
3882.118000000000
21
2157.076000000000
31
0.0
0
LINE
5
631
100
AcDbEntity
8
0-9扉体
6
CONTINUOUS
62
7
100
AcDbLine
10
3893.088000000000
20
2157.076000000000
30
0.0
11
3893.088000000000
21
2166.228000000000
31
0.0
0
LINE
5
632
100
AcDbEntity
8
0-9扉体
6
CONTINUOUS
62
3
100
AcDbLine
10
3871.148000000000
20
2157.076000000000
30
0.0
11
3893.088000000000
21
2157.076000000000
31
0.0
0
LINE
5
633
100
AcDbEntity
8
0-9扉体
6
CONTINUOUS
62
7
100
AcDbLine
10
3871.148000000000
20
2157.076000000000
30
0.0
11
3871.148000000000
21
2166.228000000000
31
0.0
0
LINE
5
634
100
AcDbEntity
8
0-9扉体
6
CONTINUOUS
62
3
100
AcDbLine
10
3876.118000000000
20
2170.776000000000
30
0.0
11
3888.118000000000
21
2170.776000000000
31
0.0
0
LINE
5
635
100
AcDbEntity
8
0-9扉体
6
CONTINUOUS
62
3
100
AcDbLine
10
3888.118000000000
20
2167.076000000000
30
0.0
11
3888.118000000000
21
2170.776000000000
31
0.0
0
LINE
5
636
100
AcDbEntity
8
0-9扉体
6
CONTINUOUS
62
3
100
AcDbLine
10
3876.118000000000
20
2167.076000000000
30
0.0
11
3876.118000000000
21
2170.776000000000
31
0.0
0
LINE
5
637
100
AcDbEntity
8
0-9扉体
6
CONTINUOUS
62
3
100
AcDbLine
10
3887.118000000000
20
2167.076000000000
30
0.0
11
3887.118000000000
21
2170.776000000000
31
0.0
0
LINE
5
638
100
AcDbEntity
8
0-9扉体
6
CONTINUOUS
62
3
100
AcDbLine
10
3877.118000000000
20
2167.076000000000
30
0.0
11
3877.118000000000
21
2170.776000000000
31
0.0
0
LINE
5
639
100
AcDbEntity
8
0-9扉体
6
CONTINUOUS
62
6
100
AcDbLine
10
3872.618000000000
20
2122.776000000000
30
0.0
11
3891.618000000000
21
2122.776000000000
31
0.0
0
LINE
5
63a
100
AcDbEntity
8
0-9扉体
6
CONTINUOUS
62
6
100
AcDbLine
10
3872.618000000000
20
2122.776000000000
30
0.0
11
3871.148000000000
21
2123.626000000000
31
0.0
0
LINE
5
63b
100
AcDbEntity
8
0-9扉体
6
CONTINUOUS
62
6
100
AcDbLine
10
3891.618000000000
20
2122.776000000000
30
0.0
11
3893.088000000000
21
2123.626000000000
31
0.0
0
LINE
5
63c
100
AcDbEntity
8
0-9扉体
6
CONTINUOUS
62
6
100
AcDbLine
10
3876.634000000000
20
2130.776000000000
30
0.0
11
3876.634000000000
21
2123.626000000000
31
0.0
0
LINE
5
63d
100
AcDbEntity
8
0-9扉体
6
CONTINUOUS
62
6
100
AcDbLine
10
3887.604000000000
20
2130.776000000000
30
0.0
11
3887.604000000000
21
2123.626000000000
31
0.0
0
LINE
5
63e
100
AcDbEntity
8
0-9扉体
6
CONTINUOUS
62
6
100
AcDbLine
10
3871.148000000000
20
2130.776000000000
30
0.0
11
3871.148000000000
21
2123.626000000000
31
0.0
0
LINE
5
63f
100
AcDbEntity
8
0-9扉体
6
CONTINUOUS
62
6
100
AcDbLine
10
3893.088000000000
20
2130.776000000000
30
0.0
11
3893.088000000000
21
2123.626000000000
31
0.0
0
LINE
5
640
100
AcDbEntity
8
0-5基準線
6
CENTER2
62
7
100
AcDbLine
10
3882.118000000000
20
2118.432000000000
30
0.0
11
3882.118000000000
21
2176.512000000000
31
0.0
0
POLYLINE
5
641
100
AcDbEntity
8
0-9扉体
6
CONTINUOUS
62
  6
100
AcDb2dPolyline
66
1
10
0.0
20
0.0
30
0.0
70
0
0
VERTEX
5
642
100
AcDbEntity
8
0-9扉体
6
CONTINUOUS
62
  6
100
AcDbVertex
100
AcDb2dVertex
10
3901.118000000000
20
2130.776000000000
30
0.0
0
VERTEX
5
643
100
AcDbEntity
8
0-9扉体
6
CONTINUOUS
62
  6
100
AcDbVertex
100
AcDb2dVertex
10
3863.118000000000
20
2130.776000000000
30
0.0
0
VERTEX
5
644
100
AcDbEntity
8
0-9扉体
6
CONTINUOUS
62
  6
100
AcDbVertex
100
AcDb2dVertex
10
3863.118000000000
20
2136.776000000000
30
0.0
0
SEQEND
5
645
100
AcDbEntity
8
0-9扉体
0
LINE
5
646
100
AcDbEntity
8
0-9扉体
6
CONTINUOUS
62
6
100
AcDbLine
10
3901.118000000000
20
2130.776000000000
30
0.0
11
3901.118000000000
21
2136.776000000000
31
0.0
0
LINE
5
647
100
AcDbEntity
8
0-8寸法
6
CONTINUOUS
62
4
100
AcDbLine
10
3810.414000000000
20
2142.778000000000
30
0.0
11
3355.118000000000
21
2142.778000000000
31
0.0
0
LINE
5
648
100
AcDbEntity
8
0-8寸法
6
CONTINUOUS
62
4
100
AcDbLine
10
3370.118000000000
20
2092.554000000000
30
0.0
11
3362.354000000000
21
2063.576000000000
31
0.0
0
LINE
5
649
100
AcDbEntity
8
0-8寸法
6
CONTINUOUS
62
4
100
AcDbLine
10
3370.118000000000
20
2092.554000000000
30
0.0
11
3377.884000000000
21
2063.576000000000
31
0.0
0
LINE
5
64a
100
AcDbEntity
8
0-8寸法
6
CONTINUOUS
62
4
100
AcDbLine
10
3370.118000000000
20
2142.778000000000
30
0.0
11
3370.118000000000
21
2332.554000000000
31
0.0
0
LINE
5
64b
100
AcDbEntity
8
0-8寸法
6
CONTINUOUS
62
4
100
AcDbLine
10
3370.118000000000
20
2142.778000000000
30
0.0
11
3362.354000000000
21
2171.756000000000
31
0.0
0
LINE
5
64c
100
AcDbEntity
8
0-8寸法
6
CONTINUOUS
62
4
100
AcDbLine
10
3370.118000000000
20
2142.778000000000
30
0.0
11
3377.884000000000
21
2171.756000000000
31
0.0
0
LINE
5
64d
100
AcDbEntity
8
0-8寸法
6
CONTINUOUS
62
4
100
AcDbLine
10
3370.118000000000
20
2332.554000000000
30
0.0
11
3362.354000000000
21
2303.576000000000
31
0.0
0
LINE
5
64e
100
AcDbEntity
8
0-8寸法
6
CONTINUOUS
62
4
100
AcDbLine
10
3370.118000000000
20
2332.554000000000
30
0.0
11
3377.884000000000
21
2303.576000000000
31
0.0
0
LINE
5
64f
100
AcDbEntity
8
0-8寸法
6
CONTINUOUS
62
4
100
AcDbLine
10
3520.118000000000
20
2142.778000000000
30
0.0
11
3512.354000000000
21
2113.800000000000
31
0.0
0
LINE
5
650
100
AcDbEntity
8
0-8寸法
6
CONTINUOUS
62
4
100
AcDbLine
10
3520.118000000000
20
2142.778000000000
30
0.0
11
3527.884000000000
21
2113.800000000000
31
0.0
0
LINE
5
651
100
AcDbEntity
8
0-8寸法
6
CONTINUOUS
62
4
100
AcDbLine
10
3520.118000000000
20
2197.778000000000
30
0.0
11
3520.118000000000
21
2287.776000000000
31
0.0
0
LINE
5
652
100
AcDbEntity
8
0-8寸法
6
CONTINUOUS
62
4
100
AcDbLine
10
3520.118000000000
20
2332.554000000000
30
0.0
11
3512.354000000000
21
2361.532000000000
31
0.0
0
LINE
5
653
100
AcDbEntity
8
0-8寸法
6
CONTINUOUS
62
4
100
AcDbLine
10
3520.118000000000
20
2332.554000000000
30
0.0
11
3527.884000000000
21
2361.532000000000
31
0.0
0
LINE
5
654
100
AcDbEntity
8
0-8寸法
6
CONTINUOUS
62
4
100
AcDbLine
10
3520.118000000000
20
2287.776000000000
30
0.0
11
3520.118000000000
21
2442.188000000000
31
0.0
0
LINE
5
655
100
AcDbEntity
8
0-8寸法
6
CONTINUOUS
62
4
100
AcDbLine
10
3520.118000000000
20
2042.478000000000
30
0.0
11
3520.118000000000
21
2197.778000000000
31
0.0
0
LINE
5
656
100
AcDbEntity
8
0-8寸法
6
CONTINUOUS
62
4
100
AcDbLine
10
3370.118000000000
20
2031.878000000000
30
0.0
11
3370.118000000000
21
2142.778000000000
31
0.0
0
LINE
5
657
100
AcDbEntity
8
0-8寸法
6
CONTINUOUS
62
4
100
AcDbLine
10
3432.000000000000
20
2092.554000000000
30
0.0
11
3355.118000000000
21
2092.554000000000
31
0.0
0
LINE
5
658
100
AcDbEntity
8
0-8寸法
6
CONTINUOUS
62
4
100
AcDbLine
10
3930.438000000000
20
2332.554000000000
30
0.0
11
3355.118000000000
21
2332.554000000000
31
0.0
0
LINE
5
659
100
AcDbEntity
8
0-8寸法
6
CONTINUOUS
62
4
100
AcDbLine
10
3860.094000000000
20
2287.776000000000
30
0.0
11
3505.118000000000
21
2287.776000000000
31
0.0
0
LINE
5
65a
100
AcDbEntity
8
0-8寸法
6
CONTINUOUS
62
4
100
AcDbLine
10
3860.094000000000
20
2197.778000000000
30
0.0
11
3505.118000000000
21
2197.778000000000
31
0.0
0
LINE
5
65b
100
AcDbEntity
8
0-8寸法
6
CONTINUOUS
62
4
100
AcDbLine
10
3901.662000000000
20
2092.554000000000
30
0.0
11
3546.794000000000
21
2092.554000000000
31
0.0
0
LINE
5
65c
100
AcDbEntity
8
0-8寸法
6
CONTINUOUS
62
4
100
AcDbLine
10
3220.120000000000
20
1142.554000000000
30
0.0
11
3220.120000000000
21
2632.554000000000
31
0.0
0
LINE
5
65d
100
AcDbEntity
8
0-8寸法
6
CONTINUOUS
62
4
100
AcDbLine
10
3220.120000000000
20
1142.554000000000
30
0.0
11
3212.354000000000
21
1171.532000000000
31
0.0
0
LINE
5
65e
100
AcDbEntity
8
0-8寸法
6
CONTINUOUS
62
4
100
AcDbLine
10
3220.120000000000
20
1142.554000000000
30
0.0
11
3227.884000000000
21
1171.532000000000
31
0.0
0
LINE
5
65f
100
AcDbEntity
8
0-8寸法
6
CONTINUOUS
62
4
100
AcDbLine
10
3220.120000000000
20
2632.554000000000
30
0.0
11
3212.354000000000
21
2603.576000000000
31
0.0
0
LINE
5
660
100
AcDbEntity
8
0-8寸法
6
CONTINUOUS
62
4
100
AcDbLine
10
3220.120000000000
20
2632.554000000000
30
0.0
11
3227.884000000000
21
2603.576000000000
31
0.0
0
LINE
5
661
100
AcDbEntity
8
0-8寸法
6
CONTINUOUS
62
4
100
AcDbLine
10
3820.120000000000
20
1142.554000000000
30
0.0
11
3205.118000000000
21
1142.554000000000
31
0.0
0
LINE
5
662
100
AcDbEntity
8
0-8寸法
6
CONTINUOUS
62
4
100
AcDbLine
10
3445.118000000000
20
2632.554000000000
30
0.0
11
3205.118000000000
21
2632.554000000000
31
0.0
0
LINE
5
663
100
AcDbEntity
8
0-8寸法
6
CONTINUOUS
62
4
100
AcDbLine
10
1536.138000000000
20
3516.816000000000
30
0.0
11
1536.138000000000
21
3941.452000000000
31
0.0
0
LINE
5
664
100
AcDbEntity
8
0-8寸法
6
CONTINUOUS
62
4
100
AcDbLine
10
2636.140000000000
20
3516.816000000000
30
0.0
11
2636.140000000000
21
3941.452000000000
31
0.0
0
LINE
5
665
100
AcDbEntity
8
0-8寸法
6
CONTINUOUS
62
4
100
AcDbLine
10
1536.138000000000
20
3926.452000000000
30
0.0
11
1507.162000000000
21
3934.216000000000
31
0.0
0
LINE
5
666
100
AcDbEntity
8
0-8寸法
6
CONTINUOUS
62
4
100
AcDbLine
10
1536.138000000000
20
3926.452000000000
30
0.0
11
1507.162000000000
21
3918.686000000000
31
0.0
0
LINE
5
667
100
AcDbEntity
8
0-8寸法
6
CONTINUOUS
62
4
100
AcDbLine
10
1399.732000000000
20
3926.452000000000
30
0.0
11
1636.140000000000
21
3926.452000000000
31
0.0
0
LINE
5
668
100
AcDbEntity
8
0-8寸法
6
CONTINUOUS
62
4
100
AcDbLine
10
2636.138000000000
20
3926.452000000000
30
0.0
11
2665.116000000000
21
3934.216000000000
31
0.0
0
LINE
5
669
100
AcDbEntity
8
0-8寸法
6
CONTINUOUS
62
4
100
AcDbLine
10
2636.138000000000
20
3926.452000000000
30
0.0
11
2665.116000000000
21
3918.686000000000
31
0.0
0
LINE
5
66a
100
AcDbEntity
8
0-8寸法
6
CONTINUOUS
62
4
100
AcDbLine
10
2772.546000000000
20
3926.452000000000
30
0.0
11
2536.140000000000
21
3926.452000000000
31
0.0
0
LINE
5
66b
100
AcDbEntity
8
0-8寸法
6
CONTINUOUS
62
4
100
AcDbLine
10
3958.118000000000
20
2632.554000000000
30
0.0
11
3987.096000000000
21
2640.318000000000
31
0.0
0
LINE
5
66c
100
AcDbEntity
8
0-8寸法
6
CONTINUOUS
62
4
100
AcDbLine
10
3958.118000000000
20
2632.554000000000
30
0.0
11
3987.096000000000
21
2624.790000000000
31
0.0
0
LINE
5
66d
100
AcDbEntity
8
0-8寸法
6
CONTINUOUS
62
4
100
AcDbLine
10
3916.118000000000
20
2632.554000000000
30
0.0
11
3887.140000000000
21
2640.318000000000
31
0.0
0
LINE
5
66e
100
AcDbEntity
8
0-8寸法
6
CONTINUOUS
62
4
100
AcDbLine
10
3916.118000000000
20
2632.554000000000
30
0.0
11
3887.140000000000
21
2624.790000000000
31
0.0
0
LINE
5
66f
100
AcDbEntity
8
0-8寸法
6
CONTINUOUS
62
4
100
AcDbLine
10
3958.118000000000
20
2782.554000000000
30
0.0
11
3987.096000000000
21
2790.318000000000
31
0.0
0
LINE
5
670
100
AcDbEntity
8
0-8寸法
6
CONTINUOUS
62
4
100
AcDbLine
10
3958.118000000000
20
2782.554000000000
30
0.0
11
3987.096000000000
21
2774.790000000000
31
0.0
0
LINE
5
671
100
AcDbEntity
8
0-8寸法
6
CONTINUOUS
62
4
100
AcDbLine
10
3886.118000000000
20
2782.554000000000
30
0.0
11
3857.140000000000
21
2790.318000000000
31
0.0
0
LINE
5
672
100
AcDbEntity
8
0-8寸法
6
CONTINUOUS
62
4
100
AcDbLine
10
3886.118000000000
20
2782.554000000000
30
0.0
11
3857.140000000000
21
2774.790000000000
31
0.0
0
LINE
5
673
100
AcDbEntity
8
0-8寸法
6
CONTINUOUS
62
4
100
AcDbLine
10
3916.118000000000
20
2349.390000000000
30
0.0
11
3916.118000000000
21
2647.554000000000
31
0.0
0
LINE
5
674
100
AcDbEntity
8
0-8寸法
6
CONTINUOUS
62
4
100
AcDbLine
10
4076.234000000000
20
2632.554000000000
30
0.0
11
3870.344000000000
21
2632.554000000000
31
0.0
0
LINE
5
675
100
AcDbEntity
8
0-8寸法
6
CONTINUOUS
62
4
100
AcDbLine
10
3886.118000000000
20
2349.390000000000
30
0.0
11
3886.118000000000
21
2615.546000000000
31
0.0
0
LINE
5
676
100
AcDbEntity
8
0-8寸法
6
CONTINUOUS
62
4
100
AcDbLine
10
3886.118000000000
20
2653.294000000000
30
0.0
11
3886.118000000000
21
2797.554000000000
31
0.0
0
LINE
5
677
100
AcDbEntity
8
0-8寸法
6
CONTINUOUS
62
4
100
AcDbLine
10
4076.234000000000
20
2782.554000000000
30
0.0
11
3844.120000000000
21
2782.554000000000
31
0.0
0
LINE
5
678
100
AcDbEntity
8
0-8寸法
6
CONTINUOUS
62
4
100
AcDbLine
10
3958.118000000000
20
2349.390000000000
30
0.0
11
3958.118000000000
21
2797.554000000000
31
0.0
0
LINE
5
679
100
AcDbEntity
8
0-9扉体
6
CONTINUOUS
62
6
100
AcDbLine
10
1859.596000000000
20
3469.452000000000
30
0.0
11
1879.596000000000
21
3489.452000000000
31
0.0
0
LINE
5
67a
100
AcDbEntity
8
0-9扉体
6
CONTINUOUS
62
6
100
AcDbLine
10
1857.474000000000
20
3469.452000000000
30
0.0
11
1877.474000000000
21
3489.452000000000
31
0.0
0
LINE
5
67b
100
AcDbEntity
8
0-9扉体
6
CONTINUOUS
62
6
100
AcDbLine
10
1668.676000000000
20
3469.452000000000
30
0.0
11
1688.676000000000
21
3489.452000000000
31
0.0
0
LINE
5
67c
100
AcDbEntity
8
0-9扉体
6
CONTINUOUS
62
6
100
AcDbLine
10
1666.554000000000
20
3469.452000000000
30
0.0
11
1686.554000000000
21
3489.452000000000
31
0.0
0
LINE
5
67d
100
AcDbEntity
8
0-6戸当り
6
CONTINUOUS
62
2
100
AcDbLine
10
4014.320000000000
20
1117.554000000000
30
0.0
11
4043.832000000000
21
1120.054000000000
31
0.0
0
LINE
5
67e
100
AcDbEntity
8
0-6戸当り
6
CONTINUOUS
62
2
100
AcDbLine
10
4014.320000000000
20
1112.554000000000
30
0.0
11
4043.832000000000
21
1115.054000000000
31
0.0
0
LINE
5
67f
100
AcDbEntity
8
0-6戸当り
6
CONTINUOUS
62
2
100
AcDbLine
10
4014.320000000000
20
1117.554000000000
30
0.0
11
4014.320000000000
21
1107.554000000000
31
0.0
0
LINE
5
680
100
AcDbEntity
8
0-6戸当り
6
CONTINUOUS
62
2
100
AcDbLine
10
4018.536000000000
20
1117.910000000000
30
0.0
11
4018.536000000000
21
1112.910000000000
31
0.0
0
LINE
5
681
100
AcDbEntity
8
0-6戸当り
6
CONTINUOUS
62
2
100
AcDbLine
10
4022.752000000000
20
1118.268000000000
30
0.0
11
4022.752000000000
21
1113.268000000000
31
0.0
0
LINE
5
682
100
AcDbEntity
8
0-6戸当り
6
CONTINUOUS
62
2
100
AcDbLine
10
4026.968000000000
20
1118.624000000000
30
0.0
11
4026.968000000000
21
1113.626000000000
31
0.0
0
LINE
5
683
100
AcDbEntity
8
0-6戸当り
6
CONTINUOUS
62
2
100
AcDbLine
10
4031.184000000000
20
1118.982000000000
30
0.0
11
4031.184000000000
21
1113.982000000000
31
0.0
0
LINE
5
684
100
AcDbEntity
8
0-6戸当り
6
CONTINUOUS
62
2
100
AcDbLine
10
4035.400000000000
20
1119.340000000000
30
0.0
11
4035.400000000000
21
1114.338000000000
31
0.0
0
LINE
5
685
100
AcDbEntity
8
0-6戸当り
6
CONTINUOUS
62
2
100
AcDbLine
10
4039.616000000000
20
1119.696000000000
30
0.0
11
4039.616000000000
21
1114.696000000000
31
0.0
0
POLYLINE
5
686
100
AcDbEntity
8
0-6戸当り
6
CONTINUOUS
62
  2
100
AcDb2dPolyline
66
1
10
0.0
20
0.0
30
0.0
70
0
0
VERTEX
5
687
100
AcDbEntity
8
0-6戸当り
6
CONTINUOUS
62
  2
100
AcDbVertex
100
AcDb2dVertex
10
4014.320000000000
20
1107.554000000000
30
0.0
0
VERTEX
5
688
100
AcDbEntity
8
0-6戸当り
6
CONTINUOUS
62
  2
100
AcDbVertex
100
AcDb2dVertex
10
4043.832000000000
20
1105.054000000000
30
0.0
0
VERTEX
5
689
100
AcDbEntity
8
0-6戸当り
6
CONTINUOUS
62
  2
100
AcDbVertex
100
AcDb2dVertex
10
4043.832000000000
20
1110.054000000000
30
0.0
0
SEQEND
5
68a
100
AcDbEntity
8
0-6戸当り
0
LINE
5
68b
100
AcDbEntity
8
0-6戸当り
6
CONTINUOUS
62
2
100
AcDbLine
10
4014.320000000000
20
1112.554000000000
30
0.0
11
4043.832000000000
21
1110.054000000000
31
0.0
0
LINE
5
68c
100
AcDbEntity
8
0-6戸当り
6
CONTINUOUS
62
2
100
AcDbLine
10
4018.536000000000
20
1107.196000000000
30
0.0
11
4018.536000000000
21
1112.196000000000
31
0.0
0
LINE
5
68d
100
AcDbEntity
8
0-6戸当り
6
CONTINUOUS
62
2
100
AcDbLine
10
4022.752000000000
20
1106.840000000000
30
0.0
11
4022.752000000000
21
1111.840000000000
31
0.0
0
LINE
5
68e
100
AcDbEntity
8
0-6戸当り
6
CONTINUOUS
62
2
100
AcDbLine
10
4026.968000000000
20
1106.482000000000
30
0.0
11
4026.968000000000
21
1111.482000000000
31
0.0
0
LINE
5
68f
100
AcDbEntity
8
0-6戸当り
6
CONTINUOUS
62
2
100
AcDbLine
10
4031.184000000000
20
1106.126000000000
30
0.0
11
4031.184000000000
21
1111.126000000000
31
0.0
0
LINE
5
690
100
AcDbEntity
8
0-6戸当り
6
CONTINUOUS
62
2
100
AcDbLine
10
4035.400000000000
20
1105.768000000000
30
0.0
11
4035.400000000000
21
1110.768000000000
31
0.0
0
LINE
5
691
100
AcDbEntity
8
0-6戸当り
6
CONTINUOUS
62
2
100
AcDbLine
10
4039.616000000000
20
1105.410000000000
30
0.0
11
4039.616000000000
21
1110.410000000000
31
0.0
0
LINE
5
692
100
AcDbEntity
8
0-6戸当り
6
CONTINUOUS
62
3
100
AcDbLine
10
3956.518000000000
20
1123.554000000000
30
0.0
11
3958.118000000000
21
1123.554000000000
31
0.0
0
LINE
5
693
100
AcDbEntity
8
0-6戸当り
6
CONTINUOUS
62
3
100
AcDbLine
10
3956.518000000000
20
1101.554000000000
30
0.0
11
3958.118000000000
21
1101.554000000000
31
0.0
0
LINE
5
694
100
AcDbEntity
8
0-6戸当り
6
CONTINUOUS
62
7
100
AcDbLine
10
3948.518000000000
20
1121.054000000000
30
0.0
11
3949.278000000000
21
1122.368000000000
31
0.0
0
POLYLINE
5
695
100
AcDbEntity
8
0-6戸当り
6
CONTINUOUS
62
  7
100
AcDb2dPolyline
66
1
10
0.0
20
0.0
30
0.0
70
0
0
VERTEX
5
696
100
AcDbEntity
8
0-6戸当り
6
CONTINUOUS
62
  7
100
AcDbVertex
100
AcDb2dVertex
10
3948.518000000000
20
1121.054000000000
30
0.0
0
VERTEX
5
697
100
AcDbEntity
8
0-6戸当り
6
CONTINUOUS
62
  7
100
AcDbVertex
100
AcDb2dVertex
10
3948.518000000000
20
1104.054000000000
30
0.0
0
VERTEX
5
698
100
AcDbEntity
8
0-6戸当り
6
CONTINUOUS
62
  7
100
AcDbVertex
100
AcDb2dVertex
10
3949.278000000000
20
1102.738000000000
30
0.0
0
SEQEND
5
699
100
AcDbEntity
8
0-6戸当り
0
LINE
5
69a
100
AcDbEntity
8
0-6戸当り
6
CONTINUOUS
62
7
100
AcDbLine
10
3956.518000000000
20
1102.738000000000
30
0.0
11
3949.278000000000
21
1102.738000000000
31
0.0
0
LINE
5
69b
100
AcDbEntity
8
0-6戸当り
6
CONTINUOUS
62
7
100
AcDbLine
10
3956.518000000000
20
1117.460000000000
30
0.0
11
3949.278000000000
21
1117.460000000000
31
0.0
0
LINE
5
69c
100
AcDbEntity
8
0-6戸当り
6
CONTINUOUS
62
7
100
AcDbLine
10
3956.518000000000
20
1107.646000000000
30
0.0
11
3949.278000000000
21
1107.646000000000
31
0.0
0
LINE
5
69d
100
AcDbEntity
8
0-6戸当り
6
CONTINUOUS
62
7
100
AcDbLine
10
3956.518000000000
20
1122.368000000000
30
0.0
11
3949.278000000000
21
1122.368000000000
31
0.0
0
LINE
5
69e
100
AcDbEntity
8
0-6戸当り
6
CONTINUOUS
62
3
100
AcDbLine
10
3956.518000000000
20
1101.554000000000
30
0.0
11
3956.518000000000
21
1123.554000000000
31
0.0
0
LINE
5
69f
100
AcDbEntity
8
0-6戸当り
6
CONTINUOUS
62
3
100
AcDbLine
10
3948.518000000000
20
1107.554000000000
30
0.0
11
3943.834000000000
21
1107.554000000000
31
0.0
0
LINE
5
6a0
100
AcDbEntity
8
0-6戸当り
6
CONTINUOUS
62
3
100
AcDbLine
10
3948.518000000000
20
1117.554000000000
30
0.0
11
3943.834000000000
21
1117.554000000000
31
0.0
0
LINE
5
6a1
100
AcDbEntity
8
0-6戸当り
6
CONTINUOUS
62
4
100
AcDbLine
10
3948.518000000000
20
1108.554000000000
30
0.0
11
3943.602000000000
21
1108.554000000000
31
0.0
0
LINE
5
6a2
100
AcDbEntity
8
0-6戸当り
6
CONTINUOUS
62
4
100
AcDbLine
10
3948.518000000000
20
1116.554000000000
30
0.0
11
3943.602000000000
21
1116.554000000000
31
0.0
0
LINE
5
6a3
100
AcDbEntity
8
0-6戸当り
6
CONTINUOUS
62
3
100
AcDbLine
10
3943.834000000000
20
1107.554000000000
30
0.0
11
3943.834000000000
21
1117.554000000000
31
0.0
0
LINE
5
6a4
100
AcDbEntity
8
0-6戸当り
6
CONTINUOUS
62
2
100
AcDbLine
10
4043.832000000000
20
1120.054000000000
30
0.0
11
4043.832000000000
21
1115.054000000000
31
0.0
0
LINE
5
6a5
100
AcDbEntity
8
0-5基準線
6
CENTER2
62
7
100
AcDbLine
10
3939.946000000000
20
1112.554000000000
30
0.0
11
4047.554000000000
21
1112.554000000000
31
0.0
0
LINE
5
6a6
100
AcDbEntity
8
0-6戸当り
6
CONTINUOUS
62
2
100
AcDbLine
10
3970.120000000000
20
1107.554000000000
30
0.0
11
4014.320000000000
21
1107.554000000000
31
0.0
0
LINE
5
6a7
100
AcDbEntity
8
0-6戸当り
6
CONTINUOUS
62
2
100
AcDbLine
10
3970.120000000000
20
1117.554000000000
30
0.0
11
4014.320000000000
21
1117.554000000000
31
0.0
0
LINE
5
6a8
100
AcDbEntity
8
0-8寸法
6
CONTINUOUS
62
4
100
AcDbLine
10
3970.120000000000
20
1092.554000000000
30
0.0
11
3967.938000000000
21
1062.634000000000
31
0.0
0
LINE
5
6a9
100
AcDbEntity
8
0-8寸法
6
CONTINUOUS
62
4
100
AcDbLine
10
3970.120000000000
20
1092.554000000000
30
0.0
11
3953.270000000000
21
1067.732000000000
31
0.0
0
LINE
5
6aa
100
AcDbEntity
8
0-A文字
6
CONTINUOUS
62
7
100
AcDbLine
10
3317.548000000000
20
1672.554000000000
30
0.0
11
3663.600000000000
21
1672.554000000000
31
0.0
0
LINE
5
6ab
100
AcDbEntity
8
0-A文字
6
CONTINUOUS
62
7
100
AcDbLine
10
3317.548000000000
20
1612.554000000000
30
0.0
11
3663.600000000000
21
1612.554000000000
31
0.0
0
LINE
5
6ac
100
AcDbEntity
8
0-A文字
6
CONTINUOUS
62
7
100
AcDbLine
10
3317.548000000000
20
1672.554000000000
30
0.0
11
3317.548000000000
21
1612.554000000000
31
0.0
0
LINE
5
6ad
100
AcDbEntity
8
0-A文字
6
CONTINUOUS
62
7
100
AcDbLine
10
3663.600000000000
20
1672.554000000000
30
0.0
11
3663.600000000000
21
1702.554000000000
31
0.0
0
LINE
5
6ae
100
AcDbEntity
8
0-A文字
6
CONTINUOUS
62
7
100
AcDbLine
10
3663.600000000000
20
1612.554000000000
30
0.0
11
3663.600000000000
21
1582.554000000000
31
0.0
0
LINE
5
6af
100
AcDbEntity
8
0-A文字
6
CONTINUOUS
62
7
100
AcDbLine
10
3663.600000000000
20
1702.554000000000
30
0.0
11
3767.524000000000
21
1642.554000000000
31
0.0
0
LINE
5
6b0
100
AcDbEntity
8
0-A文字
6
CONTINUOUS
62
7
100
AcDbLine
10
3663.600000000000
20
1582.554000000000
30
0.0
11
3767.524000000000
21
1642.554000000000
31
0.0
0
LINE
5
6b1
100
AcDbEntity
8
0-9扉体
6
CONTINUOUS
62
6
100
AcDbLine
10
1605.036000000000
20
3469.452000000000
30
0.0
11
1625.036000000000
21
3489.452000000000
31
0.0
0
LINE
5
6b2
100
AcDbEntity
8
0-9扉体
6
CONTINUOUS
62
6
100
AcDbLine
10
1602.916000000000
20
3469.452000000000
30
0.0
11
1622.916000000000
21
3489.452000000000
31
0.0
0
LINE
5
6b3
100
AcDbEntity
8
0-9扉体
6
CONTINUOUS
62
6
100
AcDbLine
10
1923.236000000000
20
3469.452000000000
30
0.0
11
1943.236000000000
21
3489.452000000000
31
0.0
0
LINE
5
6b4
100
AcDbEntity
8
0-9扉体
6
CONTINUOUS
62
6
100
AcDbLine
10
1921.114000000000
20
3469.452000000000
30
0.0
11
1941.114000000000
21
3489.452000000000
31
0.0
0
LINE
5
6b5
100
AcDbEntity
8
0-9扉体
6
CONTINUOUS
62
6
100
AcDbLine
10
1986.876000000000
20
3469.452000000000
30
0.0
11
2006.876000000000
21
3489.452000000000
31
0.0
0
LINE
5
6b6
100
AcDbEntity
8
0-9扉体
6
CONTINUOUS
62
6
100
AcDbLine
10
1984.754000000000
20
3469.452000000000
30
0.0
11
2004.754000000000
21
3489.452000000000
31
0.0
0
LINE
5
6b7
100
AcDbEntity
8
0-9扉体
6
CONTINUOUS
62
6
100
AcDbLine
10
2050.516000000000
20
3469.452000000000
30
0.0
11
2070.516000000000
21
3489.452000000000
31
0.0
0
LINE
5
6b8
100
AcDbEntity
8
0-9扉体
6
CONTINUOUS
62
6
100
AcDbLine
10
2048.394000000000
20
3469.452000000000
30
0.0
11
2068.394000000000
21
3489.452000000000
31
0.0
0
LINE
5
6b9
100
AcDbEntity
8
0-6戸当り
6
CONTINUOUS
62
3
100
AcDbLine
10
1886.140000000000
20
2182.354000000000
30
0.0
11
1877.652000000000
21
2177.454000000000
31
0.0
0
LINE
5
6ba
100
AcDbEntity
8
0-6戸当り
6
CONTINUOUS
62
3
100
AcDbLine
10
1886.140000000000
20
2162.754000000000
30
0.0
11
1877.652000000000
21
2167.654000000000
31
0.0
0
LINE
5
6bb
100
AcDbEntity
8
0-6戸当り
6
CONTINUOUS
62
3
100
AcDbLine
10
1877.652000000000
20
2177.454000000000
30
0.0
11
1877.652000000000
21
2167.654000000000
31
0.0
0
LINE
5
6bc
100
AcDbEntity
8
0-6戸当り
6
CONTINUOUS
62
3
100
AcDbLine
10
1886.140000000000
20
2162.754000000000
30
0.0
11
1894.626000000000
21
2167.654000000000
31
0.0
0
LINE
5
6bd
100
AcDbEntity
8
0-6戸当り
6
CONTINUOUS
62
3
100
AcDbLine
10
1886.140000000000
20
2182.354000000000
30
0.0
11
1894.626000000000
21
2177.454000000000
31
0.0
0
LINE
5
6be
100
AcDbEntity
8
0-6戸当り
6
CONTINUOUS
62
3
100
AcDbLine
10
1894.626000000000
20
2167.654000000000
30
0.0
11
1894.626000000000
21
2177.454000000000
31
0.0
0
LINE
5
6bf
100
AcDbEntity
8
0-5基準線
6
CENTER2
62
7
100
AcDbLine
10
1886.140000000000
20
2157.554000000000
30
0.0
11
1886.140000000000
21
2187.554000000000
31
0.0
0
LINE
5
6c0
100
AcDbEntity
8
0-5基準線
6
CENTER2
62
7
100
AcDbLine
10
1871.140000000000
20
2172.554000000000
30
0.0
11
1901.140000000000
21
2172.554000000000
31
0.0
0
LINE
5
6c1
100
AcDbEntity
8
0-6戸当り
6
CONTINUOUS
62
3
100
AcDbLine
10
2286.138000000000
20
2182.354000000000
30
0.0
11
2294.626000000000
21
2177.454000000000
31
0.0
0
LINE
5
6c2
100
AcDbEntity
8
0-6戸当り
6
CONTINUOUS
62
3
100
AcDbLine
10
2286.138000000000
20
2162.754000000000
30
0.0
11
2294.626000000000
21
2167.654000000000
31
0.0
0
LINE
5
6c3
100
AcDbEntity
8
0-6戸当り
6
CONTINUOUS
62
3
100
AcDbLine
10
2294.626000000000
20
2177.454000000000
30
0.0
11
2294.626000000000
21
2167.654000000000
31
0.0
0
LINE
5
6c4
100
AcDbEntity
8
0-6戸当り
6
CONTINUOUS
62
3
100
AcDbLine
10
2286.138000000000
20
2162.754000000000
30
0.0
11
2277.652000000000
21
2167.654000000000
31
0.0
0
LINE
5
6c5
100
AcDbEntity
8
0-6戸当り
6
CONTINUOUS
62
3
100
AcDbLine
10
2286.138000000000
20
2182.354000000000
30
0.0
11
2277.652000000000
21
2177.454000000000
31
0.0
0
LINE
5
6c6
100
AcDbEntity
8
0-6戸当り
6
CONTINUOUS
62
3
100
AcDbLine
10
2277.652000000000
20
2167.654000000000
30
0.0
11
2277.652000000000
21
2177.454000000000
31
0.0
0
LINE
5
6c7
100
AcDbEntity
8
0-5基準線
6
CENTER2
62
7
100
AcDbLine
10
2286.138000000000
20
2157.554000000000
30
0.0
11
2286.138000000000
21
2187.554000000000
31
0.0
0
LINE
5
6c8
100
AcDbEntity
8
0-5基準線
6
CENTER2
62
7
100
AcDbLine
10
2301.138000000000
20
2172.554000000000
30
0.0
11
2271.138000000000
21
2172.554000000000
31
0.0
0
LINE
5
6c9
100
AcDbEntity
8
0-8寸法
6
CONTINUOUS
62
4
100
AcDbLine
10
1676.140000000000
20
2932.554000000000
30
0.0
11
1886.138000000000
21
2932.554000000000
31
0.0
0
LINE
5
6ca
100
AcDbEntity
8
0-8寸法
6
CONTINUOUS
62
4
100
AcDbLine
10
1676.140000000000
20
2932.554000000000
30
0.0
11
1705.118000000000
21
2940.318000000000
31
0.0
0
LINE
5
6cb
100
AcDbEntity
8
0-8寸法
6
CONTINUOUS
62
4
100
AcDbLine
10
1676.140000000000
20
2932.554000000000
30
0.0
11
1705.118000000000
21
2924.790000000000
31
0.0
0
LINE
5
6cc
100
AcDbEntity
8
0-8寸法
6
CONTINUOUS
62
4
100
AcDbLine
10
1886.138000000000
20
2932.554000000000
30
0.0
11
1857.162000000000
21
2940.318000000000
31
0.0
0
LINE
5
6cd
100
AcDbEntity
8
0-8寸法
6
CONTINUOUS
62
4
100
AcDbLine
10
1886.138000000000
20
2932.554000000000
30
0.0
11
1857.162000000000
21
2924.790000000000
31
0.0
0
LINE
5
6ce
100
AcDbEntity
8
0-8寸法
6
CONTINUOUS
62
4
100
AcDbLine
10
2286.138000000000
20
2932.554000000000
30
0.0
11
2496.138000000000
21
2932.554000000000
31
0.0
0
LINE
5
6cf
100
AcDbEntity
8
0-8寸法
6
CONTINUOUS
62
4
100
AcDbLine
10
2286.138000000000
20
2932.554000000000
30
0.0
11
2315.116000000000
21
2940.318000000000
31
0.0
0
LINE
5
6d0
100
AcDbEntity
8
0-8寸法
6
CONTINUOUS
62
4
100
AcDbLine
10
2286.138000000000
20
2932.554000000000
30
0.0
11
2315.116000000000
21
2924.790000000000
31
0.0
0
LINE
5
6d1
100
AcDbEntity
8
0-8寸法
6
CONTINUOUS
62
4
100
AcDbLine
10
2496.138000000000
20
2932.554000000000
30
0.0
11
2467.160000000000
21
2940.318000000000
31
0.0
0
LINE
5
6d2
100
AcDbEntity
8
0-8寸法
6
CONTINUOUS
62
4
100
AcDbLine
10
2496.138000000000
20
2932.554000000000
30
0.0
11
2467.160000000000
21
2924.790000000000
31
0.0
0
LINE
5
6d3
100
AcDbEntity
8
0-8寸法
6
CONTINUOUS
62
4
100
AcDbLine
10
1676.140000000000
20
2208.500000000000
30
0.0
11
1676.140000000000
21
2947.554000000000
31
0.0
0
LINE
5
6d4
100
AcDbEntity
8
0-8寸法
6
CONTINUOUS
62
4
100
AcDbLine
10
1886.138000000000
20
2208.500000000000
30
0.0
11
1886.138000000000
21
2947.554000000000
31
0.0
0
LINE
5
6d5
100
AcDbEntity
8
0-8寸法
6
CONTINUOUS
62
4
100
AcDbLine
10
2286.138000000000
20
2208.500000000000
30
0.0
11
2286.138000000000
21
2947.554000000000
31
0.0
0
LINE
5
6d6
100
AcDbEntity
8
0-8寸法
6
CONTINUOUS
62
4
100
AcDbLine
10
2496.138000000000
20
2208.500000000000
30
0.0
11
2496.138000000000
21
2947.554000000000
31
0.0
0
LINE
5
6d7
100
AcDbEntity
8
0-6戸当り
6
CONTINUOUS
62
3
100
AcDbLine
10
1556.138000000000
20
1852.354000000000
30
0.0
11
1547.652000000000
21
1847.454000000000
31
0.0
0
LINE
5
6d8
100
AcDbEntity
8
0-6戸当り
6
CONTINUOUS
62
3
100
AcDbLine
10
1556.138000000000
20
1832.754000000000
30
0.0
11
1547.652000000000
21
1837.654000000000
31
0.0
0
LINE
5
6d9
100
AcDbEntity
8
0-6戸当り
6
CONTINUOUS
62
3
100
AcDbLine
10
1547.652000000000
20
1847.454000000000
30
0.0
11
1547.652000000000
21
1837.654000000000
31
0.0
0
LINE
5
6da
100
AcDbEntity
8
0-6戸当り
6
CONTINUOUS
62
3
100
AcDbLine
10
1556.138000000000
20
1832.754000000000
30
0.0
11
1564.626000000000
21
1837.654000000000
31
0.0
0
LINE
5
6db
100
AcDbEntity
8
0-6戸当り
6
CONTINUOUS
62
3
100
AcDbLine
10
1556.138000000000
20
1852.354000000000
30
0.0
11
1564.626000000000
21
1847.454000000000
31
0.0
0
LINE
5
6dc
100
AcDbEntity
8
0-6戸当り
6
CONTINUOUS
62
3
100
AcDbLine
10
1564.626000000000
20
1837.654000000000
30
0.0
11
1564.626000000000
21
1847.454000000000
31
0.0
0
LINE
5
6dd
100
AcDbEntity
8
0-5基準線
6
CENTER2
62
7
100
AcDbLine
10
1556.138000000000
20
1827.554000000000
30
0.0
11
1556.138000000000
21
1857.554000000000
31
0.0
0
LINE
5
6de
100
AcDbEntity
8
0-5基準線
6
CENTER2
62
7
100
AcDbLine
10
1541.138000000000
20
1842.554000000000
30
0.0
11
1571.138000000000
21
1842.554000000000
31
0.0
0
LINE
5
6df
100
AcDbEntity
8
0-6戸当り
6
CONTINUOUS
62
3
100
AcDbLine
10
1556.138000000000
20
1652.354000000000
30
0.0
11
1547.652000000000
21
1647.454000000000
31
0.0
0
LINE
5
6e0
100
AcDbEntity
8
0-6戸当り
6
CONTINUOUS
62
3
100
AcDbLine
10
1556.138000000000
20
1632.754000000000
30
0.0
11
1547.652000000000
21
1637.654000000000
31
0.0
0
LINE
5
6e1
100
AcDbEntity
8
0-6戸当り
6
CONTINUOUS
62
3
100
AcDbLine
10
1547.652000000000
20
1647.454000000000
30
0.0
11
1547.652000000000
21
1637.654000000000
31
0.0
0
LINE
5
6e2
100
AcDbEntity
8
0-6戸当り
6
CONTINUOUS
62
3
100
AcDbLine
10
1556.138000000000
20
1632.754000000000
30
0.0
11
1564.626000000000
21
1637.654000000000
31
0.0
0
LINE
5
6e3
100
AcDbEntity
8
0-6戸当り
6
CONTINUOUS
62
3
100
AcDbLine
10
1556.138000000000
20
1652.354000000000
30
0.0
11
1564.626000000000
21
1647.454000000000
31
0.0
0
LINE
5
6e4
100
AcDbEntity
8
0-6戸当り
6
CONTINUOUS
62
3
100
AcDbLine
10
1564.626000000000
20
1637.654000000000
30
0.0
11
1564.626000000000
21
1647.454000000000
31
0.0
0
LINE
5
6e5
100
AcDbEntity
8
0-5基準線
6
CENTER2
62
7
100
AcDbLine
10
1556.138000000000
20
1627.554000000000
30
0.0
11
1556.138000000000
21
1657.554000000000
31
0.0
0
LINE
5
6e6
100
AcDbEntity
8
0-5基準線
6
CENTER2
62
7
100
AcDbLine
10
1541.138000000000
20
1642.554000000000
30
0.0
11
1571.138000000000
21
1642.554000000000
31
0.0
0
LINE
5
6e7
100
AcDbEntity
8
0-6戸当り
6
CONTINUOUS
62
3
100
AcDbLine
10
1556.138000000000
20
1452.354000000000
30
0.0
11
1547.652000000000
21
1447.454000000000
31
0.0
0
LINE
5
6e8
100
AcDbEntity
8
0-6戸当り
6
CONTINUOUS
62
3
100
AcDbLine
10
1556.138000000000
20
1432.754000000000
30
0.0
11
1547.652000000000
21
1437.654000000000
31
0.0
0
LINE
5
6e9
100
AcDbEntity
8
0-6戸当り
6
CONTINUOUS
62
3
100
AcDbLine
10
1547.652000000000
20
1447.454000000000
30
0.0
11
1547.652000000000
21
1437.654000000000
31
0.0
0
LINE
5
6ea
100
AcDbEntity
8
0-6戸当り
6
CONTINUOUS
62
3
100
AcDbLine
10
1556.138000000000
20
1432.754000000000
30
0.0
11
1564.626000000000
21
1437.654000000000
31
0.0
0
LINE
5
6eb
100
AcDbEntity
8
0-6戸当り
6
CONTINUOUS
62
3
100
AcDbLine
10
1556.138000000000
20
1452.354000000000
30
0.0
11
1564.626000000000
21
1447.454000000000
31
0.0
0
LINE
5
6ec
100
AcDbEntity
8
0-6戸当り
6
CONTINUOUS
62
3
100
AcDbLine
10
1564.626000000000
20
1437.654000000000
30
0.0
11
1564.626000000000
21
1447.454000000000
31
0.0
0
LINE
5
6ed
100
AcDbEntity
8
0-5基準線
6
CENTER2
62
7
100
AcDbLine
10
1556.138000000000
20
1427.554000000000
30
0.0
11
1556.138000000000
21
1457.554000000000
31
0.0
0
LINE
5
6ee
100
AcDbEntity
8
0-5基準線
6
CENTER2
62
7
100
AcDbLine
10
1541.138000000000
20
1442.554000000000
30
0.0
11
1571.138000000000
21
1442.554000000000
31
0.0
0
LINE
5
6ef
100
AcDbEntity
8
0-6戸当り
6
CONTINUOUS
62
3
100
AcDbLine
10
1556.138000000000
20
1252.354000000000
30
0.0
11
1547.652000000000
21
1247.454000000000
31
0.0
0
LINE
5
6f0
100
AcDbEntity
8
0-6戸当り
6
CONTINUOUS
62
3
100
AcDbLine
10
1556.138000000000
20
1232.754000000000
30
0.0
11
1547.652000000000
21
1237.654000000000
31
0.0
0
LINE
5
6f1
100
AcDbEntity
8
0-6戸当り
6
CONTINUOUS
62
3
100
AcDbLine
10
1547.652000000000
20
1247.454000000000
30
0.0
11
1547.652000000000
21
1237.654000000000
31
0.0
0
LINE
5
6f2
100
AcDbEntity
8
0-6戸当り
6
CONTINUOUS
62
3
100
AcDbLine
10
1556.138000000000
20
1232.754000000000
30
0.0
11
1564.626000000000
21
1237.654000000000
31
0.0
0
LINE
5
6f3
100
AcDbEntity
8
0-6戸当り
6
CONTINUOUS
62
3
100
AcDbLine
10
1556.138000000000
20
1252.354000000000
30
0.0
11
1564.626000000000
21
1247.454000000000
31
0.0
0
LINE
5
6f4
100
AcDbEntity
8
0-6戸当り
6
CONTINUOUS
62
3
100
AcDbLine
10
1564.626000000000
20
1237.654000000000
30
0.0
11
1564.626000000000
21
1247.454000000000
31
0.0
0
LINE
5
6f5
100
AcDbEntity
8
0-5基準線
6
CENTER2
62
7
100
AcDbLine
10
1556.138000000000
20
1227.554000000000
30
0.0
11
1556.138000000000
21
1257.554000000000
31
0.0
0
LINE
5
6f6
100
AcDbEntity
8
0-5基準線
6
CENTER2
62
7
100
AcDbLine
10
1541.138000000000
20
1242.554000000000
30
0.0
11
1571.138000000000
21
1242.554000000000
31
0.0
0
LINE
5
6f7
100
AcDbEntity
8
0-8寸法
6
CONTINUOUS
62
4
100
AcDbLine
10
1525.280000000000
20
1112.554000000000
30
0.0
11
1171.138000000000
21
1112.554000000000
31
0.0
0
LINE
5
6f8
100
AcDbEntity
8
0-6戸当り
6
CONTINUOUS
62
3
100
AcDbLine
10
2486.140000000000
20
1102.754000000000
30
0.0
11
2477.652000000000
21
1107.654000000000
31
0.0
0
LINE
5
6f9
100
AcDbEntity
8
0-6戸当り
6
CONTINUOUS
62
3
100
AcDbLine
10
2486.140000000000
20
1122.354000000000
30
0.0
11
2477.652000000000
21
1117.454000000000
31
0.0
0
LINE
5
6fa
100
AcDbEntity
8
0-6戸当り
6
CONTINUOUS
62
3
100
AcDbLine
10
2477.652000000000
20
1107.654000000000
30
0.0
11
2477.652000000000
21
1117.454000000000
31
0.0
0
LINE
5
6fb
100
AcDbEntity
8
0-6戸当り
6
CONTINUOUS
62
3
100
AcDbLine
10
2486.140000000000
20
1122.354000000000
30
0.0
11
2494.626000000000
21
1117.454000000000
31
0.0
0
LINE
5
6fc
100
AcDbEntity
8
0-6戸当り
6
CONTINUOUS
62
3
100
AcDbLine
10
2486.140000000000
20
1102.754000000000
30
0.0
11
2494.626000000000
21
1107.654000000000
31
0.0
0
LINE
5
6fd
100
AcDbEntity
8
0-6戸当り
6
CONTINUOUS
62
3
100
AcDbLine
10
2494.626000000000
20
1117.454000000000
30
0.0
11
2494.626000000000
21
1107.654000000000
31
0.0
0
LINE
5
6fe
100
AcDbEntity
8
0-5基準線
6
CENTER2
62
7
100
AcDbLine
10
2486.140000000000
20
1127.554000000000
30
0.0
11
2486.140000000000
21
1097.554000000000
31
0.0
0
LINE
5
6ff
100
AcDbEntity
8
0-5基準線
6
CENTER2
62
7
100
AcDbLine
10
2471.140000000000
20
1112.554000000000
30
0.0
11
2501.138000000000
21
1112.554000000000
31
0.0
0
LINE
5
700
100
AcDbEntity
8
0-6戸当り
6
CONTINUOUS
62
3
100
AcDbLine
10
1686.138000000000
20
1102.754000000000
30
0.0
11
1677.652000000000
21
1107.654000000000
31
0.0
0
LINE
5
701
100
AcDbEntity
8
0-6戸当り
6
CONTINUOUS
62
3
100
AcDbLine
10
1686.138000000000
20
1122.354000000000
30
0.0
11
1677.652000000000
21
1117.454000000000
31
0.0
0
LINE
5
702
100
AcDbEntity
8
0-6戸当り
6
CONTINUOUS
62
3
100
AcDbLine
10
1677.652000000000
20
1107.654000000000
30
0.0
11
1677.652000000000
21
1117.454000000000
31
0.0
0
LINE
5
703
100
AcDbEntity
8
0-6戸当り
6
CONTINUOUS
62
3
100
AcDbLine
10
1686.138000000000
20
1122.354000000000
30
0.0
11
1694.626000000000
21
1117.454000000000
31
0.0
0
LINE
5
704
100
AcDbEntity
8
0-6戸当り
6
CONTINUOUS
62
3
100
AcDbLine
10
1686.138000000000
20
1102.754000000000
30
0.0
11
1694.626000000000
21
1107.654000000000
31
0.0
0
LINE
5
705
100
AcDbEntity
8
0-6戸当り
6
CONTINUOUS
62
3
100
AcDbLine
10
1694.626000000000
20
1117.454000000000
30
0.0
11
1694.626000000000
21
1107.654000000000
31
0.0
0
LINE
5
706
100
AcDbEntity
8
0-5基準線
6
CENTER2
62
7
100
AcDbLine
10
1686.138000000000
20
1127.554000000000
30
0.0
11
1686.138000000000
21
1097.554000000000
31
0.0
0
LINE
5
707
100
AcDbEntity
8
0-5基準線
6
CENTER2
62
7
100
AcDbLine
10
1671.140000000000
20
1112.554000000000
30
0.0
11
1701.138000000000
21
1112.554000000000
31
0.0
0
LINE
5
708
100
AcDbEntity
8
0-8寸法
6
CONTINUOUS
62
4
100
AcDbLine
10
1556.138000000000
20
717.554000000000
30
0.0
11
1686.138000000000
21
717.554000000000
31
0.0
0
LINE
5
709
100
AcDbEntity
8
0-8寸法
6
CONTINUOUS
62
4
100
AcDbLine
10
1556.138000000000
20
1077.536000000000
30
0.0
11
1556.138000000000
21
702.554000000000
31
0.0
0
LINE
5
70a
100
AcDbEntity
8
0-8寸法
6
CONTINUOUS
62
4
100
AcDbLine
10
1686.138000000000
20
1077.536000000000
30
0.0
11
1686.138000000000
21
702.554000000000
31
0.0
0
LINE
5
70b
100
AcDbEntity
8
0-8寸法
6
CONTINUOUS
62
4
100
AcDbLine
10
1556.138000000000
20
717.554000000000
30
0.0
11
1585.116000000000
21
725.318000000000
31
0.0
0
LINE
5
70c
100
AcDbEntity
8
0-8寸法
6
CONTINUOUS
62
4
100
AcDbLine
10
1556.138000000000
20
717.554000000000
30
0.0
11
1585.116000000000
21
709.790000000000
31
0.0
0
LINE
5
70d
100
AcDbEntity
8
0-8寸法
6
CONTINUOUS
62
4
100
AcDbLine
10
1686.138000000000
20
717.554000000000
30
0.0
11
1657.162000000000
21
725.318000000000
31
0.0
0
LINE
5
70e
100
AcDbEntity
8
0-8寸法
6
CONTINUOUS
62
4
100
AcDbLine
10
1686.138000000000
20
717.554000000000
30
0.0
11
1657.162000000000
21
709.790000000000
31
0.0
0
LINE
5
70f
100
AcDbEntity
8
0-8寸法
6
CONTINUOUS
62
4
100
AcDbLine
10
1686.138000000000
20
717.554000000000
30
0.0
11
2486.140000000000
21
717.554000000000
31
0.0
0
LINE
5
710
100
AcDbEntity
8
0-8寸法
6
CONTINUOUS
62
4
100
AcDbLine
10
2486.140000000000
20
1077.536000000000
30
0.0
11
2486.140000000000
21
702.554000000000
31
0.0
0
LINE
5
711
100
AcDbEntity
8
0-8寸法
6
CONTINUOUS
62
4
100
AcDbLine
10
1686.138000000000
20
717.554000000000
30
0.0
11
1715.116000000000
21
725.318000000000
31
0.0
0
LINE
5
712
100
AcDbEntity
8
0-8寸法
6
CONTINUOUS
62
4
100
AcDbLine
10
1686.138000000000
20
717.554000000000
30
0.0
11
1715.116000000000
21
709.790000000000
31
0.0
0
LINE
5
713
100
AcDbEntity
8
0-8寸法
6
CONTINUOUS
62
4
100
AcDbLine
10
2486.140000000000
20
717.554000000000
30
0.0
11
2457.162000000000
21
725.318000000000
31
0.0
0
LINE
5
714
100
AcDbEntity
8
0-8寸法
6
CONTINUOUS
62
4
100
AcDbLine
10
2486.140000000000
20
717.554000000000
30
0.0
11
2457.162000000000
21
709.790000000000
31
0.0
0
LINE
5
715
100
AcDbEntity
8
0-8寸法
6
CONTINUOUS
62
4
100
AcDbLine
10
2486.140000000000
20
717.554000000000
30
0.0
11
2616.138000000000
21
717.554000000000
31
0.0
0
LINE
5
716
100
AcDbEntity
8
0-8寸法
6
CONTINUOUS
62
4
100
AcDbLine
10
2616.138000000000
20
1077.536000000000
30
0.0
11
2616.138000000000
21
702.554000000000
31
0.0
0
LINE
5
717
100
AcDbEntity
8
0-8寸法
6
CONTINUOUS
62
4
100
AcDbLine
10
2486.140000000000
20
717.554000000000
30
0.0
11
2515.116000000000
21
725.318000000000
31
0.0
0
LINE
5
718
100
AcDbEntity
8
0-8寸法
6
CONTINUOUS
62
4
100
AcDbLine
10
2486.140000000000
20
717.554000000000
30
0.0
11
2515.116000000000
21
709.790000000000
31
0.0
0
LINE
5
719
100
AcDbEntity
8
0-8寸法
6
CONTINUOUS
62
4
100
AcDbLine
10
2616.138000000000
20
717.554000000000
30
0.0
11
2587.162000000000
21
725.318000000000
31
0.0
0
LINE
5
71a
100
AcDbEntity
8
0-8寸法
6
CONTINUOUS
62
4
100
AcDbLine
10
2616.138000000000
20
717.554000000000
30
0.0
11
2587.162000000000
21
709.790000000000
31
0.0
0
LINE
5
71b
100
AcDbEntity
8
0-6戸当り
6
CONTINUOUS
62
3
100
AcDbLine
10
1556.138000000000
20
2052.354000000000
30
0.0
11
1547.652000000000
21
2047.454000000000
31
0.0
0
LINE
5
71c
100
AcDbEntity
8
0-6戸当り
6
CONTINUOUS
62
3
100
AcDbLine
10
1556.138000000000
20
2032.754000000000
30
0.0
11
1547.652000000000
21
2037.654000000000
31
0.0
0
LINE
5
71d
100
AcDbEntity
8
0-6戸当り
6
CONTINUOUS
62
3
100
AcDbLine
10
1547.652000000000
20
2047.454000000000
30
0.0
11
1547.652000000000
21
2037.654000000000
31
0.0
0
LINE
5
71e
100
AcDbEntity
8
0-6戸当り
6
CONTINUOUS
62
3
100
AcDbLine
10
1556.138000000000
20
2032.754000000000
30
0.0
11
1564.626000000000
21
2037.654000000000
31
0.0
0
LINE
5
71f
100
AcDbEntity
8
0-6戸当り
6
CONTINUOUS
62
3
100
AcDbLine
10
1556.138000000000
20
2052.354000000000
30
0.0
11
1564.626000000000
21
2047.454000000000
31
0.0
0
LINE
5
720
100
AcDbEntity
8
0-6戸当り
6
CONTINUOUS
62
3
100
AcDbLine
10
1564.626000000000
20
2037.654000000000
30
0.0
11
1564.626000000000
21
2047.454000000000
31
0.0
0
LINE
5
721
100
AcDbEntity
8
0-5基準線
6
CENTER2
62
7
100
AcDbLine
10
1556.138000000000
20
2027.554000000000
30
0.0
11
1556.138000000000
21
2057.554000000000
31
0.0
0
LINE
5
722
100
AcDbEntity
8
0-5基準線
6
CENTER2
62
7
100
AcDbLine
10
1541.138000000000
20
2042.554000000000
30
0.0
11
1571.138000000000
21
2042.554000000000
31
0.0
0
LINE
5
723
100
AcDbEntity
8
0-8寸法
6
CONTINUOUS
62
4
100
AcDbLine
10
1186.138000000000
20
1112.554000000000
30
0.0
11
1186.138000000000
21
1242.554000000000
31
0.0
0
LINE
5
724
100
AcDbEntity
8
0-8寸法
6
CONTINUOUS
62
4
100
AcDbLine
10
1525.280000000000
20
1242.554000000000
30
0.0
11
1171.138000000000
21
1242.554000000000
31
0.0
0
LINE
5
725
100
AcDbEntity
8
0-8寸法
6
CONTINUOUS
62
4
100
AcDbLine
10
1186.138000000000
20
1112.554000000000
30
0.0
11
1178.374000000000
21
1141.532000000000
31
0.0
0
LINE
5
726
100
AcDbEntity
8
0-8寸法
6
CONTINUOUS
62
4
100
AcDbLine
10
1186.138000000000
20
1112.554000000000
30
0.0
11
1193.904000000000
21
1141.532000000000
31
0.0
0
LINE
5
727
100
AcDbEntity
8
0-8寸法
6
CONTINUOUS
62
4
100
AcDbLine
10
1186.138000000000
20
1242.554000000000
30
0.0
11
1178.374000000000
21
1213.576000000000
31
0.0
0
LINE
5
728
100
AcDbEntity
8
0-8寸法
6
CONTINUOUS
62
4
100
AcDbLine
10
1186.138000000000
20
1242.554000000000
30
0.0
11
1193.904000000000
21
1213.576000000000
31
0.0
0
LINE
5
729
100
AcDbEntity
8
0-8寸法
6
CONTINUOUS
62
4
100
AcDbLine
10
1186.138000000000
20
1242.554000000000
30
0.0
11
1186.138000000000
21
2042.554000000000
31
0.0
0
LINE
5
72a
100
AcDbEntity
8
0-8寸法
6
CONTINUOUS
62
4
100
AcDbLine
10
1525.280000000000
20
2042.554000000000
30
0.0
11
1171.138000000000
21
2042.554000000000
31
0.0
0
LINE
5
72b
100
AcDbEntity
8
0-8寸法
6
CONTINUOUS
62
4
100
AcDbLine
10
1186.138000000000
20
1242.554000000000
30
0.0
11
1178.374000000000
21
1271.532000000000
31
0.0
0
LINE
5
72c
100
AcDbEntity
8
0-8寸法
6
CONTINUOUS
62
4
100
AcDbLine
10
1186.138000000000
20
1242.554000000000
30
0.0
11
1193.904000000000
21
1271.532000000000
31
0.0
0
LINE
5
72d
100
AcDbEntity
8
0-8寸法
6
CONTINUOUS
62
4
100
AcDbLine
10
1186.138000000000
20
2042.554000000000
30
0.0
11
1178.374000000000
21
2013.576000000000
31
0.0
0
LINE
5
72e
100
AcDbEntity
8
0-8寸法
6
CONTINUOUS
62
4
100
AcDbLine
10
1186.138000000000
20
2042.554000000000
30
0.0
11
1193.904000000000
21
2013.576000000000
31
0.0
0
LINE
5
72f
100
AcDbEntity
8
0-8寸法
6
CONTINUOUS
62
4
100
AcDbLine
10
1186.138000000000
20
2042.554000000000
30
0.0
11
1186.138000000000
21
2172.554000000000
31
0.0
0
LINE
5
730
100
AcDbEntity
8
0-8寸法
6
CONTINUOUS
62
4
100
AcDbLine
10
1525.280000000000
20
2172.554000000000
30
0.0
11
1171.138000000000
21
2172.554000000000
31
0.0
0
LINE
5
731
100
AcDbEntity
8
0-8寸法
6
CONTINUOUS
62
4
100
AcDbLine
10
1186.138000000000
20
2042.554000000000
30
0.0
11
1178.374000000000
21
2071.532000000000
31
0.0
0
LINE
5
732
100
AcDbEntity
8
0-8寸法
6
CONTINUOUS
62
4
100
AcDbLine
10
1186.138000000000
20
2042.554000000000
30
0.0
11
1193.904000000000
21
2071.532000000000
31
0.0
0
LINE
5
733
100
AcDbEntity
8
0-8寸法
6
CONTINUOUS
62
4
100
AcDbLine
10
1186.138000000000
20
2172.554000000000
30
0.0
11
1178.374000000000
21
2143.576000000000
31
0.0
0
LINE
5
734
100
AcDbEntity
8
0-8寸法
6
CONTINUOUS
62
4
100
AcDbLine
10
1186.138000000000
20
2172.554000000000
30
0.0
11
1193.904000000000
21
2143.576000000000
31
0.0
0
LINE
5
735
100
AcDbEntity
8
0-A文字
6
CONTINUOUS
62
4
100
AcDbLine
10
2164.354000000000
20
1404.208000000000
30
0.0
11
2458.676000000000
21
1404.208000000000
31
0.0
0
LINE
5
736
100
AcDbEntity
8
0-6戸当り
6
CONTINUOUS
62
3
100
AcDbLine
10
2616.140000000000
20
1852.354000000000
30
0.0
11
2624.626000000000
21
1847.454000000000
31
0.0
0
LINE
5
737
100
AcDbEntity
8
0-6戸当り
6
CONTINUOUS
62
3
100
AcDbLine
10
2616.140000000000
20
1832.754000000000
30
0.0
11
2624.626000000000
21
1837.654000000000
31
0.0
0
LINE
5
738
100
AcDbEntity
8
0-6戸当り
6
CONTINUOUS
62
3
100
AcDbLine
10
2624.626000000000
20
1847.454000000000
30
0.0
11
2624.626000000000
21
1837.654000000000
31
0.0
0
LINE
5
739
100
AcDbEntity
8
0-6戸当り
6
CONTINUOUS
62
3
100
AcDbLine
10
2616.140000000000
20
1832.754000000000
30
0.0
11
2607.652000000000
21
1837.654000000000
31
0.0
0
LINE
5
73a
100
AcDbEntity
8
0-6戸当り
6
CONTINUOUS
62
3
100
AcDbLine
10
2616.140000000000
20
1852.354000000000
30
0.0
11
2607.652000000000
21
1847.454000000000
31
0.0
0
LINE
5
73b
100
AcDbEntity
8
0-6戸当り
6
CONTINUOUS
62
3
100
AcDbLine
10
2607.652000000000
20
1837.654000000000
30
0.0
11
2607.652000000000
21
1847.454000000000
31
0.0
0
LINE
5
73c
100
AcDbEntity
8
0-5基準線
6
CENTER2
62
7
100
AcDbLine
10
2616.140000000000
20
1827.554000000000
30
0.0
11
2616.140000000000
21
1857.554000000000
31
0.0
0
LINE
5
73d
100
AcDbEntity
8
0-5基準線
6
CENTER2
62
7
100
AcDbLine
10
2631.140000000000
20
1842.554000000000
30
0.0
11
2601.140000000000
21
1842.554000000000
31
0.0
0
LINE
5
73e
100
AcDbEntity
8
0-6戸当り
6
CONTINUOUS
62
3
100
AcDbLine
10
2616.140000000000
20
1652.354000000000
30
0.0
11
2624.626000000000
21
1647.454000000000
31
0.0
0
LINE
5
73f
100
AcDbEntity
8
0-6戸当り
6
CONTINUOUS
62
3
100
AcDbLine
10
2616.140000000000
20
1632.754000000000
30
0.0
11
2624.626000000000
21
1637.654000000000
31
0.0
0
LINE
5
740
100
AcDbEntity
8
0-6戸当り
6
CONTINUOUS
62
3
100
AcDbLine
10
2624.626000000000
20
1647.454000000000
30
0.0
11
2624.626000000000
21
1637.654000000000
31
0.0
0
LINE
5
741
100
AcDbEntity
8
0-6戸当り
6
CONTINUOUS
62
3
100
AcDbLine
10
2616.140000000000
20
1632.754000000000
30
0.0
11
2607.652000000000
21
1637.654000000000
31
0.0
0
LINE
5
742
100
AcDbEntity
8
0-6戸当り
6
CONTINUOUS
62
3
100
AcDbLine
10
2616.140000000000
20
1652.354000000000
30
0.0
11
2607.652000000000
21
1647.454000000000
31
0.0
0
LINE
5
743
100
AcDbEntity
8
0-6戸当り
6
CONTINUOUS
62
3
100
AcDbLine
10
2607.652000000000
20
1637.654000000000
30
0.0
11
2607.652000000000
21
1647.454000000000
31
0.0
0
LINE
5
744
100
AcDbEntity
8
0-5基準線
6
CENTER2
62
7
100
AcDbLine
10
2616.140000000000
20
1627.554000000000
30
0.0
11
2616.140000000000
21
1657.554000000000
31
0.0
0
LINE
5
745
100
AcDbEntity
8
0-5基準線
6
CENTER2
62
7
100
AcDbLine
10
2631.140000000000
20
1642.554000000000
30
0.0
11
2601.140000000000
21
1642.554000000000
31
0.0
0
LINE
5
746
100
AcDbEntity
8
0-6戸当り
6
CONTINUOUS
62
3
100
AcDbLine
10
2616.140000000000
20
1452.354000000000
30
0.0
11
2624.626000000000
21
1447.454000000000
31
0.0
0
LINE
5
747
100
AcDbEntity
8
0-6戸当り
6
CONTINUOUS
62
3
100
AcDbLine
10
2616.140000000000
20
1432.754000000000
30
0.0
11
2624.626000000000
21
1437.654000000000
31
0.0
0
LINE
5
748
100
AcDbEntity
8
0-6戸当り
6
CONTINUOUS
62
3
100
AcDbLine
10
2624.626000000000
20
1447.454000000000
30
0.0
11
2624.626000000000
21
1437.654000000000
31
0.0
0
LINE
5
749
100
AcDbEntity
8
0-6戸当り
6
CONTINUOUS
62
3
100
AcDbLine
10
2616.140000000000
20
1432.754000000000
30
0.0
11
2607.652000000000
21
1437.654000000000
31
0.0
0
LINE
5
74a
100
AcDbEntity
8
0-6戸当り
6
CONTINUOUS
62
3
100
AcDbLine
10
2616.140000000000
20
1452.354000000000
30
0.0
11
2607.652000000000
21
1447.454000000000
31
0.0
0
LINE
5
74b
100
AcDbEntity
8
0-6戸当り
6
CONTINUOUS
62
3
100
AcDbLine
10
2607.652000000000
20
1437.654000000000
30
0.0
11
2607.652000000000
21
1447.454000000000
31
0.0
0
LINE
5
74c
100
AcDbEntity
8
0-5基準線
6
CENTER2
62
7
100
AcDbLine
10
2616.140000000000
20
1427.554000000000
30
0.0
11
2616.140000000000
21
1457.554000000000
31
0.0
0
LINE
5
74d
100
AcDbEntity
8
0-5基準線
6
CENTER2
62
7
100
AcDbLine
10
2631.140000000000
20
1442.554000000000
30
0.0
11
2601.140000000000
21
1442.554000000000
31
0.0
0
LINE
5
74e
100
AcDbEntity
8
0-6戸当り
6
CONTINUOUS
62
3
100
AcDbLine
10
2616.140000000000
20
1252.354000000000
30
0.0
11
2624.626000000000
21
1247.454000000000
31
0.0
0
LINE
5
74f
100
AcDbEntity
8
0-6戸当り
6
CONTINUOUS
62
3
100
AcDbLine
10
2616.140000000000
20
1232.754000000000
30
0.0
11
2624.626000000000
21
1237.654000000000
31
0.0
0
LINE
5
750
100
AcDbEntity
8
0-6戸当り
6
CONTINUOUS
62
3
100
AcDbLine
10
2624.626000000000
20
1247.454000000000
30
0.0
11
2624.626000000000
21
1237.654000000000
31
0.0
0
LINE
5
751
100
AcDbEntity
8
0-6戸当り
6
CONTINUOUS
62
3
100
AcDbLine
10
2616.140000000000
20
1232.754000000000
30
0.0
11
2607.652000000000
21
1237.654000000000
31
0.0
0
LINE
5
752
100
AcDbEntity
8
0-6戸当り
6
CONTINUOUS
62
3
100
AcDbLine
10
2616.140000000000
20
1252.354000000000
30
0.0
11
2607.652000000000
21
1247.454000000000
31
0.0
0
LINE
5
753
100
AcDbEntity
8
0-6戸当り
6
CONTINUOUS
62
3
100
AcDbLine
10
2607.652000000000
20
1237.654000000000
30
0.0
11
2607.652000000000
21
1247.454000000000
31
0.0
0
LINE
5
754
100
AcDbEntity
8
0-5基準線
6
CENTER2
62
7
100
AcDbLine
10
2616.140000000000
20
1227.554000000000
30
0.0
11
2616.140000000000
21
1257.554000000000
31
0.0
0
LINE
5
755
100
AcDbEntity
8
0-5基準線
6
CENTER2
62
7
100
AcDbLine
10
2631.140000000000
20
1242.554000000000
30
0.0
11
2601.140000000000
21
1242.554000000000
31
0.0
0
LINE
5
756
100
AcDbEntity
8
0-6戸当り
6
CONTINUOUS
62
3
100
AcDbLine
10
2616.140000000000
20
2052.354000000000
30
0.0
11
2624.626000000000
21
2047.454000000000
31
0.0
0
LINE
5
757
100
AcDbEntity
8
0-6戸当り
6
CONTINUOUS
62
3
100
AcDbLine
10
2616.140000000000
20
2032.754000000000
30
0.0
11
2624.626000000000
21
2037.654000000000
31
0.0
0
LINE
5
758
100
AcDbEntity
8
0-6戸当り
6
CONTINUOUS
62
3
100
AcDbLine
10
2624.626000000000
20
2047.454000000000
30
0.0
11
2624.626000000000
21
2037.654000000000
31
0.0
0
LINE
5
759
100
AcDbEntity
8
0-6戸当り
6
CONTINUOUS
62
3
100
AcDbLine
10
2616.140000000000
20
2032.754000000000
30
0.0
11
2607.652000000000
21
2037.654000000000
31
0.0
0
LINE
5
75a
100
AcDbEntity
8
0-6戸当り
6
CONTINUOUS
62
3
100
AcDbLine
10
2616.140000000000
20
2052.354000000000
30
0.0
11
2607.652000000000
21
2047.454000000000
31
0.0
0
LINE
5
75b
100
AcDbEntity
8
0-6戸当り
6
CONTINUOUS
62
3
100
AcDbLine
10
2607.652000000000
20
2037.654000000000
30
0.0
11
2607.652000000000
21
2047.454000000000
31
0.0
0
LINE
5
75c
100
AcDbEntity
8
0-5基準線
6
CENTER2
62
7
100
AcDbLine
10
2616.140000000000
20
2027.554000000000
30
0.0
11
2616.140000000000
21
2057.554000000000
31
0.0
0
LINE
5
75d
100
AcDbEntity
8
0-5基準線
6
CENTER2
62
7
100
AcDbLine
10
2631.140000000000
20
2042.554000000000
30
0.0
11
2601.140000000000
21
2042.554000000000
31
0.0
0
LINE
5
75e
100
AcDbEntity
8
0-8寸法
6
CONTINUOUS
62
4
100
AcDbLine
10
1406.138000000000
20
2782.554000000000
30
0.0
11
1406.138000000000
21
2482.554000000000
31
0.0
0
LINE
5
75f
100
AcDbEntity
8
0-8寸法
6
CONTINUOUS
62
4
100
AcDbLine
10
2936.138000000000
20
3626.452000000000
30
0.0
11
2579.688000000000
21
3484.890000000000
31
0.0
0
LINE
5
760
100
AcDbEntity
8
0-8寸法
6
CONTINUOUS
62
4
100
AcDbLine
10
2936.138000000000
20
3926.452000000000
30
0.0
11
2936.138000000000
21
3626.452000000000
31
0.0
0
LINE
5
761
100
AcDbEntity
8
0-8寸法
6
CONTINUOUS
62
4
100
AcDbLine
10
3970.120000000000
20
1092.554000000000
30
0.0
11
3787.614000000000
21
567.554000000000
31
0.0
0
LINE
5
762
100
AcDbEntity
8
0-8寸法
6
CONTINUOUS
62
4
100
AcDbLine
10
3787.614000000000
20
867.554000000000
30
0.0
11
3964.560000000000
21
1101.054000000000
31
0.0
0
LINE
5
763
100
AcDbEntity
8
0-8寸法
6
CONTINUOUS
62
4
100
AcDbLine
10
3787.614000000000
20
867.554000000000
30
0.0
11
3787.614000000000
21
717.554000000000
31
0.0
0
LINE
5
764
100
AcDbEntity
8
0-8寸法
6
CONTINUOUS
62
4
100
AcDbLine
10
3624.942000000000
20
2557.554000000000
30
0.0
11
3640.132000000000
21
2557.554000000000
31
0.0
0
LINE
5
765
100
AcDbEntity
8
0-8寸法
6
CONTINUOUS
62
4
100
AcDbLine
10
3606.992000000000
20
2572.554000000000
30
0.0
11
3658.082000000000
21
2572.554000000000
31
0.0
0
LINE
5
766
100
AcDbEntity
8
0-8寸法
6
CONTINUOUS
62
4
100
AcDbLine
10
3575.232000000000
20
2587.554000000000
30
0.0
11
3685.700000000000
21
2587.554000000000
31
0.0
0
LINE
5
767
100
AcDbEntity
8
0-8寸法
6
CONTINUOUS
62
4
100
AcDbLine
10
3544.854000000000
20
2602.554000000000
30
0.0
11
3714.698000000000
21
2602.554000000000
31
0.0
0
LINE
5
768
100
AcDbEntity
8
0-8寸法
6
CONTINUOUS
62
4
100
AcDbLine
10
3495.118000000000
20
2632.554000000000
30
0.0
11
3780.766000000000
21
2632.554000000000
31
0.0
0
LINE
5
769
100
AcDbEntity
8
0-8寸法
6
CONTINUOUS
62
4
100
AcDbLine
10
3522.760000000000
20
2617.554000000000
30
0.0
11
3746.456000000000
21
2617.554000000000
31
0.0
0
LINE
5
76a
100
AcDbEntity
8
0-9扉体
6
DOT
62
3
100
AcDbLine
10
2580.140000000000
20
1148.554000000000
30
0.0
11
1592.138000000000
21
1148.554000000000
31
0.0
0
LINE
5
76b
100
AcDbEntity
8
0-9扉体
6
DOT
62
3
100
AcDbLine
10
2090.140000000000
20
1202.554000000000
30
0.0
11
2090.140000000000
21
1148.554000000000
31
0.0
0
LINE
5
76c
100
AcDbEntity
8
0-9扉体
6
DOT
62
3
100
AcDbLine
10
2082.139999999999
20
1202.554000000000
30
0.0
11
2082.139999999999
21
1148.554000000000
31
0.0
0
LINE
5
76d
100
AcDbEntity
8
0-9扉体
6
CONTINUOUS
62
6
100
AcDbLine
10
3838.118000000000
20
1202.958000000000
30
0.0
11
3832.620000000000
21
1202.958000000000
31
0.0
0
LINE
5
76e
100
AcDbEntity
8
0-9扉体
6
CONTINUOUS
62
6
100
AcDbLine
10
3838.118000000000
20
1202.958000000000
30
0.0
11
3838.118000000000
21
1154.956000000000
31
0.0
0
LINE
5
76f
100
AcDbEntity
8
0-9扉体
6
CONTINUOUS
62
6
100
AcDbLine
10
3920.120000000000
20
1148.956000000000
30
0.0
11
3844.120000000000
21
1148.956000000000
31
0.0
0
LINE
5
770
100
AcDbEntity
8
0-9扉体
6
CONTINUOUS
62
3
100
AcDbLine
10
3832.120000000000
20
1142.958000000000
30
0.0
11
3932.120000000000
21
1142.958000000000
31
0.0
0
LINE
5
771
100
AcDbEntity
8
0-9扉体
6
CONTINUOUS
62
6
100
AcDbLine
10
3926.120000000000
20
1202.958000000000
30
0.0
11
3926.120000000000
21
1154.956000000000
31
0.0
0
LINE
5
772
100
AcDbEntity
8
0-9扉体
6
CONTINUOUS
62
6
100
AcDbLine
10
3932.120000000000
20
1202.958000000000
30
0.0
11
3926.120000000000
21
1202.958000000000
31
0.0
0
LINE
5
773
100
AcDbEntity
8
0-6戸当り
6
CONTINUOUS
62
4
100
AcDbLine
10
1751.140000000000
20
2320.054000000000
30
0.0
11
1760.140000000000
21
2320.054000000000
31
0.0
0
LINE
5
774
100
AcDbEntity
8
0-6戸当り
6
CONTINUOUS
62
4
100
AcDbLine
10
1751.140000000000
20
2255.054000000000
30
0.0
11
1751.140000000000
21
2320.054000000000
31
0.0
0
LINE
5
775
100
AcDbEntity
8
0-6戸当り
6
CONTINUOUS
62
4
100
AcDbLine
10
1760.140000000000
20
2255.054000000000
30
0.0
11
1760.140000000000
21
2320.054000000000
31
0.0
0
LINE
5
776
100
AcDbEntity
8
0-6戸当り
6
CONTINUOUS
62
4
100
AcDbLine
10
1751.140000000000
20
2255.054000000000
30
0.0
11
1760.140000000000
21
2255.054000000000
31
0.0
0
LINE
5
777
100
AcDbEntity
8
0-6戸当り
6
CONTINUOUS
62
4
100
AcDbLine
10
1751.140000000000
20
2305.054000000000
30
0.0
11
1760.140000000000
21
2305.054000000000
31
0.0
0
LINE
5
778
100
AcDbEntity
8
0-6戸当り
6
CONTINUOUS
62
4
100
AcDbLine
10
1751.140000000000
20
2270.054000000000
30
0.0
11
1760.140000000000
21
2270.054000000000
31
0.0
0
LINE
5
779
100
AcDbEntity
8
0-9扉体
6
CONTINUOUS
62
4
100
AcDbLine
10
1711.140000000000
20
2151.554000000000
30
0.0
11
1786.140000000000
21
2151.554000000000
31
0.0
0
LINE
5
77a
100
AcDbEntity
8
0-9扉体
6
CONTINUOUS
62
4
100
AcDbLine
10
1711.140000000000
20
2142.554000000000
30
0.0
11
1711.140000000000
21
2151.554000000000
31
0.0
0
POLYLINE
5
77b
100
AcDbEntity
8
0-9扉体
6
DOT
62
  4
100
AcDb2dPolyline
66
1
10
0.0
20
0.0
30
0.0
70
0
0
VERTEX
5
77c
100
AcDbEntity
8
0-9扉体
6
DOT
62
  4
100
AcDbVertex
100
AcDb2dVertex
10
1711.140000000000
20
2136.554000000000
30
0.0
0
VERTEX
5
77d
100
AcDbEntity
8
0-9扉体
6
DOT
62
  4
100
AcDbVertex
100
AcDb2dVertex
10
1711.140000000000
20
2130.554000000000
30
0.0
0
VERTEX
5
77e
100
AcDbEntity
8
0-9扉体
6
DOT
62
  4
100
AcDbVertex
100
AcDb2dVertex
10
1786.140000000000
20
2130.554000000000
30
0.0
0
SEQEND
5
77f
100
AcDbEntity
8
0-9扉体
0
LINE
5
780
100
AcDbEntity
8
0-9扉体
6
CONTINUOUS
62
4
100
AcDbLine
10
1751.140000000000
20
2226.554000000000
30
0.0
11
1751.140000000000
21
2151.554000000000
31
0.0
0
POLYLINE
5
781
100
AcDbEntity
8
0-9扉体
6
CONTINUOUS
62
  4
100
AcDb2dPolyline
66
1
10
0.0
20
0.0
30
0.0
70
0
0
VERTEX
5
782
100
AcDbEntity
8
0-9扉体
6
CONTINUOUS
62
  4
100
AcDbVertex
100
AcDb2dVertex
10
1751.140000000000
20
2226.554000000000
30
0.0
0
VERTEX
5
783
100
AcDbEntity
8
0-9扉体
6
CONTINUOUS
62
  4
100
AcDbVertex
100
AcDb2dVertex
10
1760.140000000000
20
2226.554000000000
30
0.0
0
VERTEX
5
784
100
AcDbEntity
8
0-9扉体
6
CONTINUOUS
62
  4
100
AcDbVertex
100
AcDb2dVertex
10
1760.140000000000
20
2151.554000000000
30
0.0
0
SEQEND
5
785
100
AcDbEntity
8
0-9扉体
0
LINE
5
786
100
AcDbEntity
8
0-9扉体
6
CONTINUOUS
62
4
100
AcDbLine
10
1736.140000000000
20
2187.554000000000
30
0.0
11
1736.140000000000
21
2207.554000000000
31
0.0
0
LINE
5
787
100
AcDbEntity
8
0-9扉体
6
CONTINUOUS
62
4
100
AcDbLine
10
1747.940000000000
20
2217.554000000000
30
0.0
11
1747.940000000000
21
2177.554000000000
31
0.0
0
LINE
5
788
100
AcDbEntity
8
0-9扉体
6
CONTINUOUS
62
4
100
AcDbLine
10
1747.940000000000
20
2217.554000000000
30
0.0
11
1751.140000000000
21
2217.554000000000
31
0.0
0
LINE
5
789
100
AcDbEntity
8
0-9扉体
6
CONTINUOUS
62
4
100
AcDbLine
10
1747.940000000000
20
2177.554000000000
30
0.0
11
1751.140000000000
21
2177.554000000000
31
0.0
0
LINE
5
78a
100
AcDbEntity
8
0-9扉体
6
CONTINUOUS
62
4
100
AcDbLine
10
1736.140000000000
20
2187.554000000000
30
0.0
11
1747.940000000000
21
2187.554000000000
31
0.0
0
LINE
5
78b
100
AcDbEntity
8
0-9扉体
6
CONTINUOUS
62
4
100
AcDbLine
10
1736.140000000000
20
2207.554000000000
30
0.0
11
1747.940000000000
21
2207.554000000000
31
0.0
0
LINE
5
78c
100
AcDbEntity
8
0-5基準線
6
CENTER2
62
7
100
AcDbLine
10
1729.632000000000
20
2197.554000000000
30
0.0
11
1786.140000000000
21
2197.554000000000
31
0.0
0
LINE
5
78d
100
AcDbEntity
8
0-5基準線
6
CENTER2
62
7
100
AcDbLine
10
1729.632000000000
20
2287.554000000000
30
0.0
11
1786.140000000000
21
2287.554000000000
31
0.0
0
LINE
5
78e
100
AcDbEntity
8
0-9扉体
6
CONTINUOUS
62
4
100
AcDbLine
10
1736.140000000000
20
2277.554000000000
30
0.0
11
1736.140000000000
21
2297.554000000000
31
0.0
0
LINE
5
78f
100
AcDbEntity
8
0-9扉体
6
CONTINUOUS
62
4
100
AcDbLine
10
1747.940000000000
20
2307.554000000000
30
0.0
11
1747.940000000000
21
2267.554000000000
31
0.0
0
LINE
5
790
100
AcDbEntity
8
0-9扉体
6
CONTINUOUS
62
4
100
AcDbLine
10
1747.940000000000
20
2307.554000000000
30
0.0
11
1751.140000000000
21
2307.554000000000
31
0.0
0
LINE
5
791
100
AcDbEntity
8
0-9扉体
6
CONTINUOUS
62
4
100
AcDbLine
10
1747.940000000000
20
2267.554000000000
30
0.0
11
1751.140000000000
21
2267.554000000000
31
0.0
0
LINE
5
792
100
AcDbEntity
8
0-9扉体
6
CONTINUOUS
62
4
100
AcDbLine
10
1736.140000000000
20
2277.554000000000
30
0.0
11
1747.940000000000
21
2277.554000000000
31
0.0
0
LINE
5
793
100
AcDbEntity
8
0-9扉体
6
CONTINUOUS
62
4
100
AcDbLine
10
1736.140000000000
20
2297.554000000000
30
0.0
11
1747.940000000000
21
2297.554000000000
31
0.0
0
LINE
5
794
100
AcDbEntity
8
0-6戸当り
6
CONTINUOUS
62
4
100
AcDbLine
10
1821.140000000000
20
2320.054000000000
30
0.0
11
1812.140000000000
21
2320.054000000000
31
0.0
0
LINE
5
795
100
AcDbEntity
8
0-6戸当り
6
CONTINUOUS
62
4
100
AcDbLine
10
1821.140000000000
20
2255.054000000000
30
0.0
11
1821.140000000000
21
2320.054000000000
31
0.0
0
LINE
5
796
100
AcDbEntity
8
0-6戸当り
6
CONTINUOUS
62
4
100
AcDbLine
10
1812.140000000000
20
2255.054000000000
30
0.0
11
1812.140000000000
21
2320.054000000000
31
0.0
0
LINE
5
797
100
AcDbEntity
8
0-6戸当り
6
CONTINUOUS
62
4
100
AcDbLine
10
1821.140000000000
20
2255.054000000000
30
0.0
11
1812.140000000000
21
2255.054000000000
31
0.0
0
LINE
5
798
100
AcDbEntity
8
0-6戸当り
6
CONTINUOUS
62
4
100
AcDbLine
10
1821.140000000000
20
2305.054000000000
30
0.0
11
1812.140000000000
21
2305.054000000000
31
0.0
0
LINE
5
799
100
AcDbEntity
8
0-6戸当り
6
CONTINUOUS
62
4
100
AcDbLine
10
1821.140000000000
20
2270.054000000000
30
0.0
11
1812.140000000000
21
2270.054000000000
31
0.0
0
LINE
5
79a
100
AcDbEntity
8
0-9扉体
6
CONTINUOUS
62
4
100
AcDbLine
10
1861.140000000000
20
2151.554000000000
30
0.0
11
1786.140000000000
21
2151.554000000000
31
0.0
0
LINE
5
79b
100
AcDbEntity
8
0-9扉体
6
CONTINUOUS
62
4
100
AcDbLine
10
1861.140000000000
20
2142.554000000000
30
0.0
11
1861.140000000000
21
2151.554000000000
31
0.0
0
POLYLINE
5
79c
100
AcDbEntity
8
0-9扉体
6
DOT
62
  4
100
AcDb2dPolyline
66
1
10
0.0
20
0.0
30
0.0
70
0
0
VERTEX
5
79d
100
AcDbEntity
8
0-9扉体
6
DOT
62
  4
100
AcDbVertex
100
AcDb2dVertex
10
1861.140000000000
20
2136.554000000000
30
0.0
0
VERTEX
5
79e
100
AcDbEntity
8
0-9扉体
6
DOT
62
  4
100
AcDbVertex
100
AcDb2dVertex
10
1861.140000000000
20
2130.554000000000
30
0.0
0
VERTEX
5
79f
100
AcDbEntity
8
0-9扉体
6
DOT
62
  4
100
AcDbVertex
100
AcDb2dVertex
10
1786.140000000000
20
2130.554000000000
30
0.0
0
SEQEND
5
7a0
100
AcDbEntity
8
0-9扉体
0
LINE
5
7a1
100
AcDbEntity
8
0-9扉体
6
CONTINUOUS
62
4
100
AcDbLine
10
1821.140000000000
20
2226.554000000000
30
0.0
11
1821.140000000000
21
2151.554000000000
31
0.0
0
POLYLINE
5
7a2
100
AcDbEntity
8
0-9扉体
6
CONTINUOUS
62
  4
100
AcDb2dPolyline
66
1
10
0.0
20
0.0
30
0.0
70
0
0
VERTEX
5
7a3
100
AcDbEntity
8
0-9扉体
6
CONTINUOUS
62
  4
100
AcDbVertex
100
AcDb2dVertex
10
1821.140000000000
20
2226.554000000000
30
0.0
0
VERTEX
5
7a4
100
AcDbEntity
8
0-9扉体
6
CONTINUOUS
62
  4
100
AcDbVertex
100
AcDb2dVertex
10
1812.140000000000
20
2226.554000000000
30
0.0
0
VERTEX
5
7a5
100
AcDbEntity
8
0-9扉体
6
CONTINUOUS
62
  4
100
AcDbVertex
100
AcDb2dVertex
10
1812.140000000000
20
2151.554000000000
30
0.0
0
SEQEND
5
7a6
100
AcDbEntity
8
0-9扉体
0
LINE
5
7a7
100
AcDbEntity
8
0-9扉体
6
CONTINUOUS
62
4
100
AcDbLine
10
1836.140000000000
20
2187.554000000000
30
0.0
11
1836.140000000000
21
2207.554000000000
31
0.0
0
LINE
5
7a8
100
AcDbEntity
8
0-9扉体
6
CONTINUOUS
62
4
100
AcDbLine
10
1824.340000000000
20
2217.554000000000
30
0.0
11
1824.340000000000
21
2177.554000000000
31
0.0
0
LINE
5
7a9
100
AcDbEntity
8
0-9扉体
6
CONTINUOUS
62
4
100
AcDbLine
10
1824.340000000000
20
2217.554000000000
30
0.0
11
1821.140000000000
21
2217.554000000000
31
0.0
0
LINE
5
7aa
100
AcDbEntity
8
0-9扉体
6
CONTINUOUS
62
4
100
AcDbLine
10
1824.340000000000
20
2177.554000000000
30
0.0
11
1821.140000000000
21
2177.554000000000
31
0.0
0
LINE
5
7ab
100
AcDbEntity
8
0-9扉体
6
CONTINUOUS
62
4
100
AcDbLine
10
1836.140000000000
20
2187.554000000000
30
0.0
11
1824.340000000000
21
2187.554000000000
31
0.0
0
LINE
5
7ac
100
AcDbEntity
8
0-9扉体
6
CONTINUOUS
62
4
100
AcDbLine
10
1836.140000000000
20
2207.554000000000
30
0.0
11
1824.340000000000
21
2207.554000000000
31
0.0
0
LINE
5
7ad
100
AcDbEntity
8
0-5基準線
6
CENTER2
62
7
100
AcDbLine
10
1842.648000000000
20
2197.554000000000
30
0.0
11
1786.140000000000
21
2197.554000000000
31
0.0
0
LINE
5
7ae
100
AcDbEntity
8
0-5基準線
6
CENTER2
62
7
100
AcDbLine
10
1842.648000000000
20
2287.554000000000
30
0.0
11
1786.140000000000
21
2287.554000000000
31
0.0
0
LINE
5
7af
100
AcDbEntity
8
0-9扉体
6
CONTINUOUS
62
4
100
AcDbLine
10
1836.140000000000
20
2277.554000000000
30
0.0
11
1836.140000000000
21
2297.554000000000
31
0.0
0
LINE
5
7b0
100
AcDbEntity
8
0-9扉体
6
CONTINUOUS
62
4
100
AcDbLine
10
1824.340000000000
20
2307.554000000000
30
0.0
11
1824.340000000000
21
2267.554000000000
31
0.0
0
LINE
5
7b1
100
AcDbEntity
8
0-9扉体
6
CONTINUOUS
62
4
100
AcDbLine
10
1824.340000000000
20
2307.554000000000
30
0.0
11
1821.140000000000
21
2307.554000000000
31
0.0
0
LINE
5
7b2
100
AcDbEntity
8
0-9扉体
6
CONTINUOUS
62
4
100
AcDbLine
10
1824.340000000000
20
2267.554000000000
30
0.0
11
1821.140000000000
21
2267.554000000000
31
0.0
0
LINE
5
7b3
100
AcDbEntity
8
0-9扉体
6
CONTINUOUS
62
4
100
AcDbLine
10
1836.140000000000
20
2277.554000000000
30
0.0
11
1824.340000000000
21
2277.554000000000
31
0.0
0
LINE
5
7b4
100
AcDbEntity
8
0-9扉体
6
CONTINUOUS
62
4
100
AcDbLine
10
1836.140000000000
20
2297.554000000000
30
0.0
11
1824.340000000000
21
2297.554000000000
31
0.0
0
LINE
5
7b5
100
AcDbEntity
8
0-9扉体
6
CONTINUOUS
62
3
100
AcDbLine
10
1762.140000000000
20
2267.554000000000
30
0.0
11
1762.140000000000
21
2307.554000000000
31
0.0
0
LINE
5
7b6
100
AcDbEntity
8
0-9扉体
6
CONTINUOUS
62
3
100
AcDbLine
10
1810.140000000000
20
2267.554000000000
30
0.0
11
1810.140000000000
21
2307.554000000000
31
0.0
0
LINE
5
7b7
100
AcDbEntity
8
0-9扉体
6
CONTINUOUS
62
4
100
AcDbLine
10
1760.140000000000
20
2297.554000000000
30
0.0
11
1762.140000000000
21
2297.554000000000
31
0.0
0
LINE
5
7b8
100
AcDbEntity
8
0-9扉体
6
CONTINUOUS
62
4
100
AcDbLine
10
1760.140000000000
20
2277.554000000000
30
0.0
11
1762.140000000000
21
2277.554000000000
31
0.0
0
LINE
5
7b9
100
AcDbEntity
8
0-9扉体
6
CONTINUOUS
62
4
100
AcDbLine
10
1812.140000000000
20
2277.554000000000
30
0.0
11
1810.140000000000
21
2277.554000000000
31
0.0
0
LINE
5
7ba
100
AcDbEntity
8
0-9扉体
6
CONTINUOUS
62
4
100
AcDbLine
10
1812.140000000000
20
2297.554000000000
30
0.0
11
1810.140000000000
21
2297.554000000000
31
0.0
0
LINE
5
7bb
100
AcDbEntity
8
0-9扉体
6
CONTINUOUS
62
3
100
AcDbLine
10
1778.140000000000
20
2267.554000000000
30
0.0
11
1762.140000000000
21
2267.554000000000
31
0.0
0
LINE
5
7bc
100
AcDbEntity
8
0-9扉体
6
CONTINUOUS
62
3
100
AcDbLine
10
1778.140000000000
20
2307.554000000000
30
0.0
11
1762.140000000000
21
2307.554000000000
31
0.0
0
LINE
5
7bd
100
AcDbEntity
8
0-9扉体
6
CONTINUOUS
62
3
100
AcDbLine
10
1810.140000000000
20
2267.554000000000
30
0.0
11
1794.140000000000
21
2267.554000000000
31
0.0
0
LINE
5
7be
100
AcDbEntity
8
0-9扉体
6
CONTINUOUS
62
3
100
AcDbLine
10
1794.140000000000
20
2167.554000000000
30
0.0
11
1794.140000000000
21
2317.554000000000
31
0.0
0
LINE
5
7bf
100
AcDbEntity
8
0-9扉体
6
CONTINUOUS
62
3
100
AcDbLine
10
1778.140000000000
20
2167.554000000000
30
0.0
11
1778.140000000000
21
2317.554000000000
31
0.0
0
LINE
5
7c0
100
AcDbEntity
8
0-9扉体
6
CONTINUOUS
62
4
100
AcDbLine
10
1778.140000000000
20
2167.554000000000
30
0.0
11
1794.140000000000
21
2167.554000000000
31
0.0
0
LINE
5
7c1
100
AcDbEntity
8
0-9扉体
6
CONTINUOUS
62
3
100
AcDbLine
10
1762.140000000000
20
2177.554000000000
30
0.0
11
1762.140000000000
21
2217.554000000000
31
0.0
0
LINE
5
7c2
100
AcDbEntity
8
0-9扉体
6
CONTINUOUS
62
3
100
AcDbLine
10
1810.140000000000
20
2177.554000000000
30
0.0
11
1810.140000000000
21
2217.554000000000
31
0.0
0
LINE
5
7c3
100
AcDbEntity
8
0-9扉体
6
CONTINUOUS
62
3
100
AcDbLine
10
1794.140000000000
20
2177.554000000000
30
0.0
11
1810.140000000000
21
2177.554000000000
31
0.0
0
LINE
5
7c4
100
AcDbEntity
8
0-9扉体
6
CONTINUOUS
62
3
100
AcDbLine
10
1794.140000000000
20
2217.554000000000
30
0.0
11
1810.140000000000
21
2217.554000000000
31
0.0
0
LINE
5
7c5
100
AcDbEntity
8
0-9扉体
6
CONTINUOUS
62
3
100
AcDbLine
10
1762.140000000000
20
2217.554000000000
30
0.0
11
1778.140000000000
21
2217.554000000000
31
0.0
0
LINE
5
7c6
100
AcDbEntity
8
0-9扉体
6
CONTINUOUS
62
3
100
AcDbLine
10
1762.140000000000
20
2177.554000000000
30
0.0
11
1778.140000000000
21
2177.554000000000
31
0.0
0
LINE
5
7c7
100
AcDbEntity
8
0-9扉体
6
CONTINUOUS
62
4
100
AcDbLine
10
1760.140000000000
20
2187.554000000000
30
0.0
11
1762.140000000000
21
2187.554000000000
31
0.0
0
LINE
5
7c8
100
AcDbEntity
8
0-9扉体
6
CONTINUOUS
62
4
100
AcDbLine
10
1760.140000000000
20
2207.554000000000
30
0.0
11
1762.140000000000
21
2207.554000000000
31
0.0
0
LINE
5
7c9
100
AcDbEntity
8
0-9扉体
6
CONTINUOUS
62
4
100
AcDbLine
10
1812.140000000000
20
2207.554000000000
30
0.0
11
1810.140000000000
21
2207.554000000000
31
0.0
0
LINE
5
7ca
100
AcDbEntity
8
0-9扉体
6
CONTINUOUS
62
4
100
AcDbLine
10
1812.140000000000
20
2187.554000000000
30
0.0
11
1810.140000000000
21
2187.554000000000
31
0.0
0
LINE
5
7cb
100
AcDbEntity
8
0-6戸当り
6
CONTINUOUS
62
4
100
AcDbLine
10
1861.140000000000
20
2192.554000000000
30
0.0
11
1861.140000000000
21
2332.554000000000
31
0.0
0
LINE
5
7cc
100
AcDbEntity
8
0-6戸当り
6
CONTINUOUS
62
6
100
AcDbLine
10
1536.138000000000
20
2192.554000000000
30
0.0
11
1736.140000000000
21
2192.554000000000
31
0.0
0
LINE
5
7cd
100
AcDbEntity
8
0-9扉体
6
CONTINUOUS
62
7
100
AcDbLine
10
1721.640000000000
20
2166.854000000000
30
0.0
11
1740.640000000000
21
2166.854000000000
31
0.0
0
LINE
5
7ce
100
AcDbEntity
8
0-9扉体
6
CONTINUOUS
62
7
100
AcDbLine
10
1721.640000000000
20
2166.854000000000
30
0.0
11
1720.170000000000
21
2166.006000000000
31
0.0
0
LINE
5
7cf
100
AcDbEntity
8
0-9扉体
6
CONTINUOUS
62
7
100
AcDbLine
10
1740.640000000000
20
2166.854000000000
30
0.0
11
1742.108000000000
21
2166.006000000000
31
0.0
0
LINE
5
7d0
100
AcDbEntity
8
0-9扉体
6
CONTINUOUS
62
3
100
AcDbLine
10
1744.140000000000
20
2153.854000000000
30
0.0
11
1718.140000000000
21
2153.854000000000
31
0.0
0
LINE
5
7d1
100
AcDbEntity
8
0-9扉体
6
CONTINUOUS
62
3
100
AcDbLine
10
1718.140000000000
20
2151.554000000000
30
0.0
11
1718.140000000000
21
2153.854000000000
31
0.0
0
LINE
5
7d2
100
AcDbEntity
8
0-9扉体
6
CONTINUOUS
62
3
100
AcDbLine
10
1744.140000000000
20
2151.554000000000
30
0.0
11
1744.140000000000
21
2153.854000000000
31
0.0
0
LINE
5
7d3
100
AcDbEntity
8
0-9扉体
6
CONTINUOUS
62
7
100
AcDbLine
10
1725.654000000000
20
2156.854000000000
30
0.0
11
1725.654000000000
21
2166.006000000000
31
0.0
0
LINE
5
7d4
100
AcDbEntity
8
0-9扉体
6
CONTINUOUS
62
7
100
AcDbLine
10
1736.624000000000
20
2156.854000000000
30
0.0
11
1736.624000000000
21
2166.006000000000
31
0.0
0
LINE
5
7d5
100
AcDbEntity
8
0-9扉体
6
CONTINUOUS
62
3
100
AcDbLine
10
1720.388000000000
20
2153.854000000000
30
0.0
11
1720.388000000000
21
2156.854000000000
31
0.0
0
LINE
5
7d6
100
AcDbEntity
8
0-9扉体
6
CONTINUOUS
62
3
100
AcDbLine
10
1741.890000000000
20
2153.854000000000
30
0.0
11
1741.890000000000
21
2156.854000000000
31
0.0
0
LINE
5
7d7
100
AcDbEntity
8
0-9扉体
6
CONTINUOUS
62
3
100
AcDbLine
10
1731.140000000000
20
2153.854000000000
30
0.0
11
1734.140000000000
21
2156.854000000000
31
0.0
0
LINE
5
7d8
100
AcDbEntity
8
0-9扉体
6
CONTINUOUS
62
3
100
AcDbLine
10
1728.140000000000
20
2153.854000000000
30
0.0
11
1731.140000000000
21
2156.854000000000
31
0.0
0
LINE
5
7d9
100
AcDbEntity
8
0-9扉体
6
CONTINUOUS
62
7
100
AcDbLine
10
1720.170000000000
20
2156.854000000000
30
0.0
11
1720.170000000000
21
2166.006000000000
31
0.0
0
LINE
5
7da
100
AcDbEntity
8
0-9扉体
6
CONTINUOUS
62
3
100
AcDbLine
10
1742.108000000000
20
2156.854000000000
30
0.0
11
1720.170000000000
21
2156.854000000000
31
0.0
0
LINE
5
7db
100
AcDbEntity
8
0-9扉体
6
CONTINUOUS
62
7
100
AcDbLine
10
1742.108000000000
20
2156.854000000000
30
0.0
11
1742.108000000000
21
2166.006000000000
31
0.0
0
LINE
5
7dc
100
AcDbEntity
8
0-9扉体
6
CONTINUOUS
62
3
100
AcDbLine
10
1737.140000000000
20
2170.554000000000
30
0.0
11
1725.140000000000
21
2170.554000000000
31
0.0
0
LINE
5
7dd
100
AcDbEntity
8
0-9扉体
6
CONTINUOUS
62
3
100
AcDbLine
10
1725.140000000000
20
2166.854000000000
30
0.0
11
1725.140000000000
21
2170.554000000000
31
0.0
0
LINE
5
7de
100
AcDbEntity
8
0-9扉体
6
CONTINUOUS
62
3
100
AcDbLine
10
1737.140000000000
20
2166.854000000000
30
0.0
11
1737.140000000000
21
2170.554000000000
31
0.0
0
LINE
5
7df
100
AcDbEntity
8
0-9扉体
6
CONTINUOUS
62
3
100
AcDbLine
10
1726.140000000000
20
2166.854000000000
30
0.0
11
1726.140000000000
21
2170.554000000000
31
0.0
0
LINE
5
7e0
100
AcDbEntity
8
0-9扉体
6
CONTINUOUS
62
3
100
AcDbLine
10
1736.138000000000
20
2166.854000000000
30
0.0
11
1736.138000000000
21
2170.554000000000
31
0.0
0
LINE
5
7e1
100
AcDbEntity
8
0-9扉体
6
CONTINUOUS
62
3
100
AcDbLine
10
1810.140000000000
20
2307.554000000000
30
0.0
11
1794.140000000000
21
2307.554000000000
31
0.0
0
LINE
5
7e2
100
AcDbEntity
8
0-9扉体
6
CONTINUOUS
62
4
100
AcDbLine
10
1778.140000000000
20
2302.554000000000
30
0.0
11
1794.140000000000
21
2302.554000000000
31
0.0
0
LINE
5
7e3
100
AcDbEntity
8
0-9扉体
6
CONTINUOUS
62
4
100
AcDbLine
10
1794.140000000000
20
2317.554000000000
30
0.0
11
1778.140000000000
21
2317.554000000000
31
0.0
0
LINE
5
7e4
100
AcDbEntity
8
0-9扉体
6
CONTINUOUS
62
4
100
AcDbLine
10
1794.140000000000
20
2182.554000000000
30
0.0
11
1778.140000000000
21
2182.554000000000
31
0.0
0
LINE
5
7e5
100
AcDbEntity
8
0-9扉体
6
DOT
62
7
100
AcDbLine
10
1740.640000000000
20
2122.554000000000
30
0.0
11
1721.640000000000
21
2122.554000000000
31
0.0
0
LINE
5
7e6
100
AcDbEntity
8
0-9扉体
6
DOT
62
7
100
AcDbLine
10
1740.640000000000
20
2122.554000000000
30
0.0
11
1742.108000000000
21
2123.402000000000
31
0.0
0
LINE
5
7e7
100
AcDbEntity
8
0-9扉体
6
DOT
62
7
100
AcDbLine
10
1721.640000000000
20
2122.554000000000
30
0.0
11
1720.170000000000
21
2123.402000000000
31
0.0
0
LINE
5
7e8
100
AcDbEntity
8
0-9扉体
6
DOT
62
7
100
AcDbLine
10
1736.624000000000
20
2130.554000000000
30
0.0
11
1736.624000000000
21
2123.402000000000
31
0.0
0
LINE
5
7e9
100
AcDbEntity
8
0-9扉体
6
DOT
62
7
100
AcDbLine
10
1725.654000000000
20
2130.554000000000
30
0.0
11
1725.654000000000
21
2123.402000000000
31
0.0
0
LINE
5
7ea
100
AcDbEntity
8
0-9扉体
6
DOT
62
7
100
AcDbLine
10
1742.108000000000
20
2130.554000000000
30
0.0
11
1742.108000000000
21
2123.402000000000
31
0.0
0
LINE
5
7eb
100
AcDbEntity
8
0-9扉体
6
DOT
62
7
100
AcDbLine
10
1720.170000000000
20
2130.554000000000
30
0.0
11
1720.170000000000
21
2123.402000000000
31
0.0
0
LINE
5
7ec
100
AcDbEntity
8
0-5基準線
6
CENTER2
62
7
100
AcDbLine
10
1731.140000000000
20
2118.210000000000
30
0.0
11
1731.140000000000
21
2176.290000000000
31
0.0
0
LINE
5
7ed
100
AcDbEntity
8
0-9扉体
6
CONTINUOUS
62
7
100
AcDbLine
10
1850.640000000000
20
2166.854000000000
30
0.0
11
1831.640000000000
21
2166.854000000000
31
0.0
0
LINE
5
7ee
100
AcDbEntity
8
0-9扉体
6
CONTINUOUS
62
7
100
AcDbLine
10
1850.640000000000
20
2166.854000000000
30
0.0
11
1852.110000000000
21
2166.006000000000
31
0.0
0
LINE
5
7ef
100
AcDbEntity
8
0-9扉体
6
CONTINUOUS
62
7
100
AcDbLine
10
1831.640000000000
20
2166.854000000000
30
0.0
11
1830.170000000000
21
2166.006000000000
31
0.0
0
LINE
5
7f0
100
AcDbEntity
8
0-9扉体
6
CONTINUOUS
62
3
100
AcDbLine
10
1828.140000000000
20
2153.854000000000
30
0.0
11
1854.140000000000
21
2153.854000000000
31
0.0
0
LINE
5
7f1
100
AcDbEntity
8
0-9扉体
6
CONTINUOUS
62
3
100
AcDbLine
10
1854.140000000000
20
2151.554000000000
30
0.0
11
1854.140000000000
21
2153.854000000000
31
0.0
0
LINE
5
7f2
100
AcDbEntity
8
0-9扉体
6
CONTINUOUS
62
3
100
AcDbLine
10
1828.140000000000
20
2151.554000000000
30
0.0
11
1828.140000000000
21
2153.854000000000
31
0.0
0
LINE
5
7f3
100
AcDbEntity
8
0-9扉体
6
CONTINUOUS
62
7
100
AcDbLine
10
1846.624000000000
20
2156.854000000000
30
0.0
11
1846.624000000000
21
2166.006000000000
31
0.0
0
LINE
5
7f4
100
AcDbEntity
8
0-9扉体
6
CONTINUOUS
62
7
100
AcDbLine
10
1835.656000000000
20
2156.854000000000
30
0.0
11
1835.656000000000
21
2166.006000000000
31
0.0
0
LINE
5
7f5
100
AcDbEntity
8
0-9扉体
6
CONTINUOUS
62
3
100
AcDbLine
10
1851.890000000000
20
2153.854000000000
30
0.0
11
1851.890000000000
21
2156.854000000000
31
0.0
0
LINE
5
7f6
100
AcDbEntity
8
0-9扉体
6
CONTINUOUS
62
3
100
AcDbLine
10
1830.390000000000
20
2153.854000000000
30
0.0
11
1830.390000000000
21
2156.854000000000
31
0.0
0
LINE
5
7f7
100
AcDbEntity
8
0-9扉体
6
CONTINUOUS
62
3
100
AcDbLine
10
1841.140000000000
20
2153.854000000000
30
0.0
11
1838.140000000000
21
2156.854000000000
31
0.0
0
LINE
5
7f8
100
AcDbEntity
8
0-9扉体
6
CONTINUOUS
62
3
100
AcDbLine
10
1844.140000000000
20
2153.854000000000
30
0.0
11
1841.140000000000
21
2156.854000000000
31
0.0
0
LINE
5
7f9
100
AcDbEntity
8
0-9扉体
6
CONTINUOUS
62
7
100
AcDbLine
10
1852.110000000000
20
2156.854000000000
30
0.0
11
1852.110000000000
21
2166.006000000000
31
0.0
0
LINE
5
7fa
100
AcDbEntity
8
0-9扉体
6
CONTINUOUS
62
3
100
AcDbLine
10
1830.170000000000
20
2156.854000000000
30
0.0
11
1852.110000000000
21
2156.854000000000
31
0.0
0
LINE
5
7fb
100
AcDbEntity
8
0-9扉体
6
CONTINUOUS
62
7
100
AcDbLine
10
1830.170000000000
20
2156.854000000000
30
0.0
11
1830.170000000000
21
2166.006000000000
31
0.0
0
LINE
5
7fc
100
AcDbEntity
8
0-9扉体
6
CONTINUOUS
62
3
100
AcDbLine
10
1835.140000000000
20
2170.554000000000
30
0.0
11
1847.140000000000
21
2170.554000000000
31
0.0
0
LINE
5
7fd
100
AcDbEntity
8
0-9扉体
6
CONTINUOUS
62
3
100
AcDbLine
10
1847.140000000000
20
2166.854000000000
30
0.0
11
1847.140000000000
21
2170.554000000000
31
0.0
0
LINE
5
7fe
100
AcDbEntity
8
0-9扉体
6
CONTINUOUS
62
3
100
AcDbLine
10
1835.140000000000
20
2166.854000000000
30
0.0
11
1835.140000000000
21
2170.554000000000
31
0.0
0
LINE
5
7ff
100
AcDbEntity
8
0-9扉体
6
CONTINUOUS
62
3
100
AcDbLine
10
1846.140000000000
20
2166.854000000000
30
0.0
11
1846.140000000000
21
2170.554000000000
31
0.0
0
LINE
5
800
100
AcDbEntity
8
0-9扉体
6
CONTINUOUS
62
3
100
AcDbLine
10
1836.140000000000
20
2166.854000000000
30
0.0
11
1836.140000000000
21
2170.554000000000
31
0.0
0
LINE
5
801
100
AcDbEntity
8
0-9扉体
6
DOT
62
7
100
AcDbLine
10
1831.640000000000
20
2122.554000000000
30
0.0
11
1850.640000000000
21
2122.554000000000
31
0.0
0
LINE
5
802
100
AcDbEntity
8
0-9扉体
6
DOT
62
7
100
AcDbLine
10
1831.640000000000
20
2122.554000000000
30
0.0
11
1830.170000000000
21
2123.402000000000
31
0.0
0
LINE
5
803
100
AcDbEntity
8
0-9扉体
6
DOT
62
7
100
AcDbLine
10
1850.640000000000
20
2122.554000000000
30
0.0
11
1852.110000000000
21
2123.402000000000
31
0.0
0
LINE
5
804
100
AcDbEntity
8
0-9扉体
6
DOT
62
7
100
AcDbLine
10
1835.656000000000
20
2130.554000000000
30
0.0
11
1835.656000000000
21
2123.402000000000
31
0.0
0
LINE
5
805
100
AcDbEntity
8
0-9扉体
6
DOT
62
7
100
AcDbLine
10
1846.624000000000
20
2130.554000000000
30
0.0
11
1846.624000000000
21
2123.402000000000
31
0.0
0
LINE
5
806
100
AcDbEntity
8
0-9扉体
6
DOT
62
7
100
AcDbLine
10
1830.170000000000
20
2130.554000000000
30
0.0
11
1830.170000000000
21
2123.402000000000
31
0.0
0
LINE
5
807
100
AcDbEntity
8
0-9扉体
6
DOT
62
7
100
AcDbLine
10
1852.110000000000
20
2130.554000000000
30
0.0
11
1852.110000000000
21
2123.402000000000
31
0.0
0
LINE
5
808
100
AcDbEntity
8
0-5基準線
6
CENTER2
62
7
100
AcDbLine
10
1841.140000000000
20
2118.210000000000
30
0.0
11
1841.140000000000
21
2176.290000000000
31
0.0
0
LINE
5
809
100
AcDbEntity
8
0-5基準線
6
CENTER2
62
7
100
AcDbLine
10
1786.140000000000
20
2118.210000000000
30
0.0
11
1786.140000000000
21
2342.554000000000
31
0.0
0
LINE
5
80a
100
AcDbEntity
8
0-6戸当り
6
CONTINUOUS
62
7
100
AcDbLine
10
1735.638000000000
20
2323.038000000000
30
0.0
11
1726.140000000000
21
2328.524000000000
31
0.0
0
LINE
5
80b
100
AcDbEntity
8
0-6戸当り
6
CONTINUOUS
62
7
100
AcDbLine
10
1735.638000000000
20
2323.038000000000
30
0.0
11
1735.638000000000
21
2312.068000000000
31
0.0
0
LINE
5
80c
100
AcDbEntity
8
0-6戸当り
6
CONTINUOUS
62
7
100
AcDbLine
10
1726.140000000000
20
2306.584000000000
30
0.0
11
1735.638000000000
21
2312.068000000000
31
0.0
0
POLYLINE
5
80d
100
AcDbEntity
8
0-6戸当り
6
CONTINUOUS
62
  7
100
AcDb2dPolyline
66
1
10
0.0
20
0.0
30
0.0
70
0
0
VERTEX
5
80e
100
AcDbEntity
8
0-6戸当り
6
CONTINUOUS
62
  7
100
AcDbVertex
100
AcDb2dVertex
10
1726.140000000000
20
2306.584000000000
30
0.0
0
VERTEX
5
80f
100
AcDbEntity
8
0-6戸当り
6
CONTINUOUS
62
  7
100
AcDbVertex
100
AcDb2dVertex
10
1716.640000000000
20
2312.068000000000
30
0.0
0
VERTEX
5
810
100
AcDbEntity
8
0-6戸当り
6
CONTINUOUS
62
  7
100
AcDbVertex
100
AcDb2dVertex
10
1716.640000000000
20
2323.038000000000
30
0.0
0
VERTEX
5
811
100
AcDbEntity
8
0-6戸当り
6
CONTINUOUS
62
  7
100
AcDbVertex
100
AcDb2dVertex
10
1726.140000000000
20
2328.524000000000
30
0.0
0
SEQEND
5
812
100
AcDbEntity
8
0-6戸当り
0
LINE
5
813
100
AcDbEntity
8
0-5基準線
6
CENTER2
62
7
100
AcDbLine
10
1726.140000000000
20
2335.554000000000
30
0.0
11
1726.140000000000
21
2299.554000000000
31
0.0
0
LINE
5
814
100
AcDbEntity
8
0-5基準線
6
CENTER2
62
7
100
AcDbLine
10
1708.140000000000
20
2317.554000000000
30
0.0
11
1744.140000000000
21
2317.554000000000
31
0.0
0
LINE
5
815
100
AcDbEntity
8
0-6戸当り
6
CONTINUOUS
62
7
100
AcDbLine
10
1836.640000000000
20
2323.038000000000
30
0.0
11
1846.140000000000
21
2328.524000000000
31
0.0
0
LINE
5
816
100
AcDbEntity
8
0-6戸当り
6
CONTINUOUS
62
7
100
AcDbLine
10
1836.640000000000
20
2323.038000000000
30
0.0
11
1836.640000000000
21
2312.068000000000
31
0.0
0
LINE
5
817
100
AcDbEntity
8
0-6戸当り
6
CONTINUOUS
62
7
100
AcDbLine
10
1846.140000000000
20
2306.584000000000
30
0.0
11
1836.640000000000
21
2312.068000000000
31
0.0
0
POLYLINE
5
818
100
AcDbEntity
8
0-6戸当り
6
CONTINUOUS
62
  7
100
AcDb2dPolyline
66
1
10
0.0
20
0.0
30
0.0
70
0
0
VERTEX
5
819
100
AcDbEntity
8
0-6戸当り
6
CONTINUOUS
62
  7
100
AcDbVertex
100
AcDb2dVertex
10
1846.140000000000
20
2306.584000000000
30
0.0
0
VERTEX
5
81a
100
AcDbEntity
8
0-6戸当り
6
CONTINUOUS
62
  7
100
AcDbVertex
100
AcDb2dVertex
10
1855.640000000000
20
2312.068000000000
30
0.0
0
VERTEX
5
81b
100
AcDbEntity
8
0-6戸当り
6
CONTINUOUS
62
  7
100
AcDbVertex
100
AcDb2dVertex
10
1855.640000000000
20
2323.038000000000
30
0.0
0
VERTEX
5
81c
100
AcDbEntity
8
0-6戸当り
6
CONTINUOUS
62
  7
100
AcDbVertex
100
AcDb2dVertex
10
1846.140000000000
20
2328.524000000000
30
0.0
0
SEQEND
5
81d
100
AcDbEntity
8
0-6戸当り
0
LINE
5
81e
100
AcDbEntity
8
0-5基準線
6
CENTER2
62
7
100
AcDbLine
10
1846.140000000000
20
2335.554000000000
30
0.0
11
1846.140000000000
21
2299.554000000000
31
0.0
0
LINE
5
81f
100
AcDbEntity
8
0-5基準線
6
CENTER2
62
7
100
AcDbLine
10
1864.140000000000
20
2317.554000000000
30
0.0
11
1828.140000000000
21
2317.554000000000
31
0.0
0
LINE
5
820
100
AcDbEntity
8
0-6戸当り
6
CONTINUOUS
62
7
100
AcDbLine
10
1735.638000000000
20
2233.038000000000
30
0.0
11
1726.140000000000
21
2238.524000000000
31
0.0
0
LINE
5
821
100
AcDbEntity
8
0-6戸当り
6
CONTINUOUS
62
7
100
AcDbLine
10
1735.638000000000
20
2233.038000000000
30
0.0
11
1735.638000000000
21
2222.070000000000
31
0.0
0
LINE
5
822
100
AcDbEntity
8
0-6戸当り
6
CONTINUOUS
62
7
100
AcDbLine
10
1726.140000000000
20
2216.584000000000
30
0.0
11
1735.638000000000
21
2222.070000000000
31
0.0
0
POLYLINE
5
823
100
AcDbEntity
8
0-6戸当り
6
CONTINUOUS
62
  7
100
AcDb2dPolyline
66
1
10
0.0
20
0.0
30
0.0
70
0
0
VERTEX
5
824
100
AcDbEntity
8
0-6戸当り
6
CONTINUOUS
62
  7
100
AcDbVertex
100
AcDb2dVertex
10
1726.140000000000
20
2216.584000000000
30
0.0
0
VERTEX
5
825
100
AcDbEntity
8
0-6戸当り
6
CONTINUOUS
62
  7
100
AcDbVertex
100
AcDb2dVertex
10
1716.640000000000
20
2222.070000000000
30
0.0
0
VERTEX
5
826
100
AcDbEntity
8
0-6戸当り
6
CONTINUOUS
62
  7
100
AcDbVertex
100
AcDb2dVertex
10
1716.640000000000
20
2233.038000000000
30
0.0
0
VERTEX
5
827
100
AcDbEntity
8
0-6戸当り
6
CONTINUOUS
62
  7
100
AcDbVertex
100
AcDb2dVertex
10
1726.140000000000
20
2238.524000000000
30
0.0
0
SEQEND
5
828
100
AcDbEntity
8
0-6戸当り
0
LINE
5
829
100
AcDbEntity
8
0-5基準線
6
CENTER2
62
7
100
AcDbLine
10
1726.140000000000
20
2245.554000000000
30
0.0
11
1726.140000000000
21
2209.554000000000
31
0.0
0
LINE
5
82a
100
AcDbEntity
8
0-5基準線
6
CENTER2
62
7
100
AcDbLine
10
1708.140000000000
20
2227.554000000000
30
0.0
11
1744.140000000000
21
2227.554000000000
31
0.0
0
LINE
5
82b
100
AcDbEntity
8
0-6戸当り
6
CONTINUOUS
62
7
100
AcDbLine
10
1836.640000000000
20
2233.038000000000
30
0.0
11
1846.140000000000
21
2238.524000000000
31
0.0
0
LINE
5
82c
100
AcDbEntity
8
0-6戸当り
6
CONTINUOUS
62
7
100
AcDbLine
10
1836.640000000000
20
2233.038000000000
30
0.0
11
1836.640000000000
21
2222.070000000000
31
0.0
0
LINE
5
82d
100
AcDbEntity
8
0-6戸当り
6
CONTINUOUS
62
7
100
AcDbLine
10
1846.140000000000
20
2216.584000000000
30
0.0
11
1836.640000000000
21
2222.070000000000
31
0.0
0
POLYLINE
5
82e
100
AcDbEntity
8
0-6戸当り
6
CONTINUOUS
62
  7
100
AcDb2dPolyline
66
1
10
0.0
20
0.0
30
0.0
70
0
0
VERTEX
5
82f
100
AcDbEntity
8
0-6戸当り
6
CONTINUOUS
62
  7
100
AcDbVertex
100
AcDb2dVertex
10
1846.140000000000
20
2216.584000000000
30
0.0
0
VERTEX
5
830
100
AcDbEntity
8
0-6戸当り
6
CONTINUOUS
62
  7
100
AcDbVertex
100
AcDb2dVertex
10
1855.640000000000
20
2222.070000000000
30
0.0
0
VERTEX
5
831
100
AcDbEntity
8
0-6戸当り
6
CONTINUOUS
62
  7
100
AcDbVertex
100
AcDb2dVertex
10
1855.640000000000
20
2233.038000000000
30
0.0
0
VERTEX
5
832
100
AcDbEntity
8
0-6戸当り
6
CONTINUOUS
62
  7
100
AcDbVertex
100
AcDb2dVertex
10
1846.140000000000
20
2238.524000000000
30
0.0
0
SEQEND
5
833
100
AcDbEntity
8
0-6戸当り
0
LINE
5
834
100
AcDbEntity
8
0-5基準線
6
CENTER2
62
7
100
AcDbLine
10
1846.140000000000
20
2245.554000000000
30
0.0
11
1846.140000000000
21
2209.554000000000
31
0.0
0
LINE
5
835
100
AcDbEntity
8
0-5基準線
6
CENTER2
62
7
100
AcDbLine
10
1864.140000000000
20
2227.554000000000
30
0.0
11
1828.140000000000
21
2227.554000000000
31
0.0
0
LINE
5
836
100
AcDbEntity
8
0-8寸法
6
CONTINUOUS
62
4
100
AcDbLine
10
1786.140000000000
20
2782.554000000000
30
0.0
11
1815.118000000000
21
2790.318000000000
31
0.0
0
LINE
5
837
100
AcDbEntity
8
0-8寸法
6
CONTINUOUS
62
4
100
AcDbLine
10
1786.140000000000
20
2782.554000000000
30
0.0
11
1815.118000000000
21
2774.790000000000
31
0.0
0
LINE
5
838
100
AcDbEntity
8
0-6戸当り
6
CONTINUOUS
62
4
100
AcDbLine
10
1711.140000000000
20
2192.554000000000
30
0.0
11
1711.140000000000
21
2332.554000000000
31
0.0
0
LINE
5
839
100
AcDbEntity
8
0-6戸当り
6
CONTINUOUS
62
4
100
AcDbLine
10
1861.140000000000
20
2332.554000000000
30
0.0
11
1711.140000000000
21
2332.554000000000
31
0.0
0
LINE
5
83a
100
AcDbEntity
8
0-8寸法
6
CONTINUOUS
62
4
100
AcDbLine
10
1786.140000000000
20
2353.346000000000
30
0.0
11
1786.140000000000
21
2797.554000000000
31
0.0
0
LINE
5
83b
100
AcDbEntity
8
0-8寸法
6
CONTINUOUS
62
4
100
AcDbLine
10
1406.138000000000
20
2482.554000000000
30
0.0
11
1754.204000000000
21
2262.924000000000
31
0.0
0
LINE
5
83c
100
AcDbEntity
8
0-6戸当り
6
CONTINUOUS
62
6
100
AcDbLine
10
2436.140000000000
20
2192.554000000000
30
0.0
11
2636.140000000000
21
2192.554000000000
31
0.0
0
LINE
5
83d
100
AcDbEntity
8
0-6戸当り
6
CONTINUOUS
62
4
100
AcDbLine
10
2421.138000000000
20
2320.054000000000
30
0.0
11
2412.138000000000
21
2320.054000000000
31
0.0
0
LINE
5
83e
100
AcDbEntity
8
0-6戸当り
6
CONTINUOUS
62
4
100
AcDbLine
10
2421.138000000000
20
2255.054000000000
30
0.0
11
2421.138000000000
21
2320.054000000000
31
0.0
0
LINE
5
83f
100
AcDbEntity
8
0-6戸当り
6
CONTINUOUS
62
4
100
AcDbLine
10
2412.138000000000
20
2255.054000000000
30
0.0
11
2412.138000000000
21
2320.054000000000
31
0.0
0
LINE
5
840
100
AcDbEntity
8
0-6戸当り
6
CONTINUOUS
62
4
100
AcDbLine
10
2421.138000000000
20
2255.054000000000
30
0.0
11
2412.138000000000
21
2255.054000000000
31
0.0
0
LINE
5
841
100
AcDbEntity
8
0-6戸当り
6
CONTINUOUS
62
4
100
AcDbLine
10
2421.138000000000
20
2305.054000000000
30
0.0
11
2412.138000000000
21
2305.054000000000
31
0.0
0
LINE
5
842
100
AcDbEntity
8
0-6戸当り
6
CONTINUOUS
62
4
100
AcDbLine
10
2421.138000000000
20
2270.054000000000
30
0.0
11
2412.138000000000
21
2270.054000000000
31
0.0
0
LINE
5
843
100
AcDbEntity
8
0-9扉体
6
CONTINUOUS
62
4
100
AcDbLine
10
2461.138000000000
20
2151.554000000000
30
0.0
11
2386.138000000000
21
2151.554000000000
31
0.0
0
LINE
5
844
100
AcDbEntity
8
0-9扉体
6
CONTINUOUS
62
4
100
AcDbLine
10
2461.138000000000
20
2142.554000000000
30
0.0
11
2461.138000000000
21
2151.554000000000
31
0.0
0
POLYLINE
5
845
100
AcDbEntity
8
0-9扉体
6
DOT
62
  4
100
AcDb2dPolyline
66
1
10
0.0
20
0.0
30
0.0
70
0
0
VERTEX
5
846
100
AcDbEntity
8
0-9扉体
6
DOT
62
  4
100
AcDbVertex
100
AcDb2dVertex
10
2461.138000000000
20
2136.554000000000
30
0.0
0
VERTEX
5
847
100
AcDbEntity
8
0-9扉体
6
DOT
62
  4
100
AcDbVertex
100
AcDb2dVertex
10
2461.138000000000
20
2130.554000000000
30
0.0
0
VERTEX
5
848
100
AcDbEntity
8
0-9扉体
6
DOT
62
  4
100
AcDbVertex
100
AcDb2dVertex
10
2386.138000000000
20
2130.554000000000
30
0.0
0
SEQEND
5
849
100
AcDbEntity
8
0-9扉体
0
LINE
5
84a
100
AcDbEntity
8
0-9扉体
6
CONTINUOUS
62
4
100
AcDbLine
10
2421.138000000000
20
2226.554000000000
30
0.0
11
2421.138000000000
21
2151.554000000000
31
0.0
0
POLYLINE
5
84b
100
AcDbEntity
8
0-9扉体
6
CONTINUOUS
62
  4
100
AcDb2dPolyline
66
1
10
0.0
20
0.0
30
0.0
70
0
0
VERTEX
5
84c
100
AcDbEntity
8
0-9扉体
6
CONTINUOUS
62
  4
100
AcDbVertex
100
AcDb2dVertex
10
2421.138000000000
20
2226.554000000000
30
0.0
0
VERTEX
5
84d
100
AcDbEntity
8
0-9扉体
6
CONTINUOUS
62
  4
100
AcDbVertex
100
AcDb2dVertex
10
2412.138000000000
20
2226.554000000000
30
0.0
0
VERTEX
5
84e
100
AcDbEntity
8
0-9扉体
6
CONTINUOUS
62
  4
100
AcDbVertex
100
AcDb2dVertex
10
2412.138000000000
20
2151.554000000000
30
0.0
0
SEQEND
5
84f
100
AcDbEntity
8
0-9扉体
0
LINE
5
850
100
AcDbEntity
8
0-9扉体
6
CONTINUOUS
62
4
100
AcDbLine
10
2436.138000000000
20
2187.554000000000
30
0.0
11
2436.138000000000
21
2207.554000000000
31
0.0
0
LINE
5
851
100
AcDbEntity
8
0-9扉体
6
CONTINUOUS
62
4
100
AcDbLine
10
2424.338000000000
20
2217.554000000000
30
0.0
11
2424.338000000000
21
2177.554000000000
31
0.0
0
LINE
5
852
100
AcDbEntity
8
0-9扉体
6
CONTINUOUS
62
4
100
AcDbLine
10
2424.338000000000
20
2217.554000000000
30
0.0
11
2421.138000000000
21
2217.554000000000
31
0.0
0
LINE
5
853
100
AcDbEntity
8
0-9扉体
6
CONTINUOUS
62
4
100
AcDbLine
10
2424.338000000000
20
2177.554000000000
30
0.0
11
2421.138000000000
21
2177.554000000000
31
0.0
0
LINE
5
854
100
AcDbEntity
8
0-9扉体
6
CONTINUOUS
62
4
100
AcDbLine
10
2436.138000000000
20
2187.554000000000
30
0.0
11
2424.338000000000
21
2187.554000000000
31
0.0
0
LINE
5
855
100
AcDbEntity
8
0-9扉体
6
CONTINUOUS
62
4
100
AcDbLine
10
2436.138000000000
20
2207.554000000000
30
0.0
11
2424.338000000000
21
2207.554000000000
31
0.0
0
LINE
5
856
100
AcDbEntity
8
0-5基準線
6
CENTER2
62
7
100
AcDbLine
10
2442.646000000000
20
2197.554000000000
30
0.0
11
2386.138000000000
21
2197.554000000000
31
0.0
0
LINE
5
857
100
AcDbEntity
8
0-5基準線
6
CENTER2
62
7
100
AcDbLine
10
2442.646000000000
20
2287.554000000000
30
0.0
11
2386.138000000000
21
2287.554000000000
31
0.0
0
LINE
5
858
100
AcDbEntity
8
0-9扉体
6
CONTINUOUS
62
4
100
AcDbLine
10
2436.138000000000
20
2277.554000000000
30
0.0
11
2436.138000000000
21
2297.554000000000
31
0.0
0
LINE
5
859
100
AcDbEntity
8
0-9扉体
6
CONTINUOUS
62
4
100
AcDbLine
10
2424.338000000000
20
2307.554000000000
30
0.0
11
2424.338000000000
21
2267.554000000000
31
0.0
0
LINE
5
85a
100
AcDbEntity
8
0-6戸当り
6
CONTINUOUS
62
4
100
AcDbLine
10
2424.338000000000
20
2307.554000000000
30
0.0
11
2421.138000000000
21
2307.554000000000
31
0.0
0
LINE
5
85b
100
AcDbEntity
8
0-9扉体
6
CONTINUOUS
62
4
100
AcDbLine
10
2424.338000000000
20
2267.554000000000
30
0.0
11
2421.138000000000
21
2267.554000000000
31
0.0
0
LINE
5
85c
100
AcDbEntity
8
0-9扉体
6
CONTINUOUS
62
4
100
AcDbLine
10
2436.138000000000
20
2277.554000000000
30
0.0
11
2424.338000000000
21
2277.554000000000
31
0.0
0
LINE
5
85d
100
AcDbEntity
8
0-9扉体
6
CONTINUOUS
62
4
100
AcDbLine
10
2436.138000000000
20
2297.554000000000
30
0.0
11
2424.338000000000
21
2297.554000000000
31
0.0
0
LINE
5
85e
100
AcDbEntity
8
0-6戸当り
6
CONTINUOUS
62
4
100
AcDbLine
10
2351.138000000000
20
2320.054000000000
30
0.0
11
2360.138000000000
21
2320.054000000000
31
0.0
0
LINE
5
85f
100
AcDbEntity
8
0-6戸当り
6
CONTINUOUS
62
4
100
AcDbLine
10
2351.138000000000
20
2255.054000000000
30
0.0
11
2351.138000000000
21
2320.054000000000
31
0.0
0
LINE
5
860
100
AcDbEntity
8
0-6戸当り
6
CONTINUOUS
62
4
100
AcDbLine
10
2360.138000000000
20
2255.054000000000
30
0.0
11
2360.138000000000
21
2320.054000000000
31
0.0
0
LINE
5
861
100
AcDbEntity
8
0-6戸当り
6
CONTINUOUS
62
4
100
AcDbLine
10
2351.138000000000
20
2255.054000000000
30
0.0
11
2360.138000000000
21
2255.054000000000
31
0.0
0
LINE
5
862
100
AcDbEntity
8
0-6戸当り
6
CONTINUOUS
62
4
100
AcDbLine
10
2351.138000000000
20
2305.054000000000
30
0.0
11
2360.138000000000
21
2305.054000000000
31
0.0
0
LINE
5
863
100
AcDbEntity
8
0-6戸当り
6
CONTINUOUS
62
4
100
AcDbLine
10
2351.138000000000
20
2270.054000000000
30
0.0
11
2360.138000000000
21
2270.054000000000
31
0.0
0
LINE
5
864
100
AcDbEntity
8
0-9扉体
6
CONTINUOUS
62
4
100
AcDbLine
10
2311.138000000000
20
2151.554000000000
30
0.0
11
2386.138000000000
21
2151.554000000000
31
0.0
0
LINE
5
865
100
AcDbEntity
8
0-9扉体
6
CONTINUOUS
62
4
100
AcDbLine
10
2311.138000000000
20
2142.554000000000
30
0.0
11
2311.138000000000
21
2151.554000000000
31
0.0
0
POLYLINE
5
866
100
AcDbEntity
8
0-9扉体
6
DOT
62
  4
100
AcDb2dPolyline
66
1
10
0.0
20
0.0
30
0.0
70
0
0
VERTEX
5
867
100
AcDbEntity
8
0-9扉体
6
DOT
62
  4
100
AcDbVertex
100
AcDb2dVertex
10
2311.138000000000
20
2136.554000000000
30
0.0
0
VERTEX
5
868
100
AcDbEntity
8
0-9扉体
6
DOT
62
  4
100
AcDbVertex
100
AcDb2dVertex
10
2311.138000000000
20
2130.554000000000
30
0.0
0
VERTEX
5
869
100
AcDbEntity
8
0-9扉体
6
DOT
62
  4
100
AcDbVertex
100
AcDb2dVertex
10
2386.138000000000
20
2130.554000000000
30
0.0
0
SEQEND
5
86a
100
AcDbEntity
8
0-9扉体
0
LINE
5
86b
100
AcDbEntity
8
0-9扉体
6
CONTINUOUS
62
4
100
AcDbLine
10
2351.138000000000
20
2226.554000000000
30
0.0
11
2351.138000000000
21
2151.554000000000
31
0.0
0
POLYLINE
5
86c
100
AcDbEntity
8
0-9扉体
6
CONTINUOUS
62
  4
100
AcDb2dPolyline
66
1
10
0.0
20
0.0
30
0.0
70
0
0
VERTEX
5
86d
100
AcDbEntity
8
0-9扉体
6
CONTINUOUS
62
  4
100
AcDbVertex
100
AcDb2dVertex
10
2351.138000000000
20
2226.554000000000
30
0.0
0
VERTEX
5
86e
100
AcDbEntity
8
0-9扉体
6
CONTINUOUS
62
  4
100
AcDbVertex
100
AcDb2dVertex
10
2360.138000000000
20
2226.554000000000
30
0.0
0
VERTEX
5
86f
100
AcDbEntity
8
0-9扉体
6
CONTINUOUS
62
  4
100
AcDbVertex
100
AcDb2dVertex
10
2360.138000000000
20
2151.554000000000
30
0.0
0
SEQEND
5
870
100
AcDbEntity
8
0-9扉体
0
LINE
5
871
100
AcDbEntity
8
0-9扉体
6
CONTINUOUS
62
4
100
AcDbLine
10
2336.138000000000
20
2187.554000000000
30
0.0
11
2336.138000000000
21
2207.554000000000
31
0.0
0
LINE
5
872
100
AcDbEntity
8
0-9扉体
6
CONTINUOUS
62
4
100
AcDbLine
10
2347.938000000000
20
2217.554000000000
30
0.0
11
2347.938000000000
21
2177.554000000000
31
0.0
0
LINE
5
873
100
AcDbEntity
8
0-9扉体
6
CONTINUOUS
62
4
100
AcDbLine
10
2347.938000000000
20
2217.554000000000
30
0.0
11
2351.138000000000
21
2217.554000000000
31
0.0
0
LINE
5
874
100
AcDbEntity
8
0-9扉体
6
CONTINUOUS
62
4
100
AcDbLine
10
2347.938000000000
20
2177.554000000000
30
0.0
11
2351.138000000000
21
2177.554000000000
31
0.0
0
LINE
5
875
100
AcDbEntity
8
0-9扉体
6
CONTINUOUS
62
4
100
AcDbLine
10
2336.138000000000
20
2187.554000000000
30
0.0
11
2347.938000000000
21
2187.554000000000
31
0.0
0
LINE
5
876
100
AcDbEntity
8
0-9扉体
6
CONTINUOUS
62
4
100
AcDbLine
10
2336.138000000000
20
2207.554000000000
30
0.0
11
2347.938000000000
21
2207.554000000000
31
0.0
0
LINE
5
877
100
AcDbEntity
8
0-5基準線
6
CENTER2
62
7
100
AcDbLine
10
2329.630000000000
20
2197.554000000000
30
0.0
11
2386.138000000000
21
2197.554000000000
31
0.0
0
LINE
5
878
100
AcDbEntity
8
0-5基準線
6
CENTER2
62
7
100
AcDbLine
10
2329.630000000000
20
2287.554000000000
30
0.0
11
2386.138000000000
21
2287.554000000000
31
0.0
0
LINE
5
879
100
AcDbEntity
8
0-9扉体
6
CONTINUOUS
62
4
100
AcDbLine
10
2336.138000000000
20
2277.554000000000
30
0.0
11
2336.138000000000
21
2297.554000000000
31
0.0
0
LINE
5
87a
100
AcDbEntity
8
0-9扉体
6
CONTINUOUS
62
4
100
AcDbLine
10
2347.938000000000
20
2307.554000000000
30
0.0
11
2347.938000000000
21
2267.554000000000
31
0.0
0
LINE
5
87b
100
AcDbEntity
8
0-9扉体
6
CONTINUOUS
62
4
100
AcDbLine
10
2347.938000000000
20
2307.554000000000
30
0.0
11
2351.138000000000
21
2307.554000000000
31
0.0
0
LINE
5
87c
100
AcDbEntity
8
0-9扉体
6
CONTINUOUS
62
4
100
AcDbLine
10
2347.938000000000
20
2267.554000000000
30
0.0
11
2351.138000000000
21
2267.554000000000
31
0.0
0
LINE
5
87d
100
AcDbEntity
8
0-9扉体
6
CONTINUOUS
62
4
100
AcDbLine
10
2336.138000000000
20
2277.554000000000
30
0.0
11
2347.938000000000
21
2277.554000000000
31
0.0
0
LINE
5
87e
100
AcDbEntity
8
0-9扉体
6
CONTINUOUS
62
4
100
AcDbLine
10
2336.138000000000
20
2297.554000000000
30
0.0
11
2347.938000000000
21
2297.554000000000
31
0.0
0
LINE
5
87f
100
AcDbEntity
8
0-9扉体
6
CONTINUOUS
62
3
100
AcDbLine
10
2410.138000000000
20
2267.554000000000
30
0.0
11
2410.138000000000
21
2307.554000000000
31
0.0
0
LINE
5
880
100
AcDbEntity
8
0-9扉体
6
CONTINUOUS
62
3
100
AcDbLine
10
2362.138000000000
20
2267.554000000000
30
0.0
11
2362.138000000000
21
2307.554000000000
31
0.0
0
LINE
5
881
100
AcDbEntity
8
0-9扉体
6
CONTINUOUS
62
4
100
AcDbLine
10
2412.138000000000
20
2297.554000000000
30
0.0
11
2410.138000000000
21
2297.554000000000
31
0.0
0
LINE
5
882
100
AcDbEntity
8
0-9扉体
6
CONTINUOUS
62
4
100
AcDbLine
10
2412.138000000000
20
2277.554000000000
30
0.0
11
2410.138000000000
21
2277.554000000000
31
0.0
0
LINE
5
883
100
AcDbEntity
8
0-9扉体
6
CONTINUOUS
62
4
100
AcDbLine
10
2360.138000000000
20
2277.554000000000
30
0.0
11
2362.138000000000
21
2277.554000000000
31
0.0
0
LINE
5
884
100
AcDbEntity
8
0-9扉体
6
CONTINUOUS
62
4
100
AcDbLine
10
2360.138000000000
20
2297.554000000000
30
0.0
11
2362.138000000000
21
2297.554000000000
31
0.0
0
LINE
5
885
100
AcDbEntity
8
0-9扉体
6
CONTINUOUS
62
3
100
AcDbLine
10
2394.138000000000
20
2267.554000000000
30
0.0
11
2410.138000000000
21
2267.554000000000
31
0.0
0
LINE
5
886
100
AcDbEntity
8
0-9扉体
6
CONTINUOUS
62
3
100
AcDbLine
10
2394.138000000000
20
2307.554000000000
30
0.0
11
2410.138000000000
21
2307.554000000000
31
0.0
0
LINE
5
887
100
AcDbEntity
8
0-9扉体
6
CONTINUOUS
62
3
100
AcDbLine
10
2362.138000000000
20
2267.554000000000
30
0.0
11
2378.138000000000
21
2267.554000000000
31
0.0
0
LINE
5
888
100
AcDbEntity
8
0-9扉体
6
CONTINUOUS
62
3
100
AcDbLine
10
2378.138000000000
20
2167.554000000000
30
0.0
11
2378.138000000000
21
2317.554000000000
31
0.0
0
LINE
5
889
100
AcDbEntity
8
0-9扉体
6
CONTINUOUS
62
3
100
AcDbLine
10
2394.138000000000
20
2167.554000000000
30
0.0
11
2394.138000000000
21
2317.554000000000
31
0.0
0
LINE
5
88a
100
AcDbEntity
8
0-9扉体
6
CONTINUOUS
62
4
100
AcDbLine
10
2394.138000000000
20
2167.554000000000
30
0.0
11
2378.138000000000
21
2167.554000000000
31
0.0
0
LINE
5
88b
100
AcDbEntity
8
0-9扉体
6
CONTINUOUS
62
3
100
AcDbLine
10
2410.138000000000
20
2177.554000000000
30
0.0
11
2410.138000000000
21
2217.554000000000
31
0.0
0
LINE
5
88c
100
AcDbEntity
8
0-9扉体
6
CONTINUOUS
62
3
100
AcDbLine
10
2362.138000000000
20
2177.554000000000
30
0.0
11
2362.138000000000
21
2217.554000000000
31
0.0
0
LINE
5
88d
100
AcDbEntity
8
0-9扉体
6
CONTINUOUS
62
3
100
AcDbLine
10
2378.138000000000
20
2177.554000000000
30
0.0
11
2362.138000000000
21
2177.554000000000
31
0.0
0
LINE
5
88e
100
AcDbEntity
8
0-9扉体
6
CONTINUOUS
62
3
100
AcDbLine
10
2378.138000000000
20
2217.554000000000
30
0.0
11
2362.138000000000
21
2217.554000000000
31
0.0
0
LINE
5
88f
100
AcDbEntity
8
0-9扉体
6
CONTINUOUS
62
3
100
AcDbLine
10
2410.138000000000
20
2217.554000000000
30
0.0
11
2394.138000000000
21
2217.554000000000
31
0.0
0
LINE
5
890
100
AcDbEntity
8
0-9扉体
6
CONTINUOUS
62
3
100
AcDbLine
10
2410.138000000000
20
2177.554000000000
30
0.0
11
2394.138000000000
21
2177.554000000000
31
0.0
0
LINE
5
891
100
AcDbEntity
8
0-9扉体
6
CONTINUOUS
62
4
100
AcDbLine
10
2412.138000000000
20
2187.554000000000
30
0.0
11
2410.138000000000
21
2187.554000000000
31
0.0
0
LINE
5
892
100
AcDbEntity
8
0-9扉体
6
CONTINUOUS
62
4
100
AcDbLine
10
2412.138000000000
20
2207.554000000000
30
0.0
11
2410.138000000000
21
2207.554000000000
31
0.0
0
LINE
5
893
100
AcDbEntity
8
0-9扉体
6
CONTINUOUS
62
4
100
AcDbLine
10
2360.138000000000
20
2207.554000000000
30
0.0
11
2362.138000000000
21
2207.554000000000
31
0.0
0
LINE
5
894
100
AcDbEntity
8
0-9扉体
6
CONTINUOUS
62
4
100
AcDbLine
10
2360.138000000000
20
2187.554000000000
30
0.0
11
2362.138000000000
21
2187.554000000000
31
0.0
0
LINE
5
895
100
AcDbEntity
8
0-6戸当り
6
CONTINUOUS
62
4
100
AcDbLine
10
2311.138000000000
20
2192.554000000000
30
0.0
11
2311.138000000000
21
2332.554000000000
31
0.0
0
LINE
5
896
100
AcDbEntity
8
0-9扉体
6
CONTINUOUS
62
7
100
AcDbLine
10
2450.638000000000
20
2166.854000000000
30
0.0
11
2431.638000000000
21
2166.854000000000
31
0.0
0
LINE
5
897
100
AcDbEntity
8
0-9扉体
6
CONTINUOUS
62
7
100
AcDbLine
10
2450.638000000000
20
2166.854000000000
30
0.0
11
2452.108000000000
21
2166.006000000000
31
0.0
0
LINE
5
898
100
AcDbEntity
8
0-9扉体
6
CONTINUOUS
62
7
100
AcDbLine
10
2431.638000000000
20
2166.854000000000
30
0.0
11
2430.170000000000
21
2166.006000000000
31
0.0
0
LINE
5
899
100
AcDbEntity
8
0-9扉体
6
CONTINUOUS
62
3
100
AcDbLine
10
2428.138000000000
20
2153.854000000000
30
0.0
11
2454.138000000000
21
2153.854000000000
31
0.0
0
LINE
5
89a
100
AcDbEntity
8
0-9扉体
6
CONTINUOUS
62
3
100
AcDbLine
10
2454.138000000000
20
2151.554000000000
30
0.0
11
2454.138000000000
21
2153.854000000000
31
0.0
0
LINE
5
89b
100
AcDbEntity
8
0-9扉体
6
CONTINUOUS
62
3
100
AcDbLine
10
2428.138000000000
20
2151.554000000000
30
0.0
11
2428.138000000000
21
2153.854000000000
31
0.0
0
LINE
5
89c
100
AcDbEntity
8
0-9扉体
6
CONTINUOUS
62
7
100
AcDbLine
10
2446.624000000000
20
2156.854000000000
30
0.0
11
2446.624000000000
21
2166.006000000000
31
0.0
0
LINE
5
89d
100
AcDbEntity
8
0-9扉体
6
CONTINUOUS
62
7
100
AcDbLine
10
2435.654000000000
20
2156.854000000000
30
0.0
11
2435.654000000000
21
2166.006000000000
31
0.0
0
LINE
5
89e
100
AcDbEntity
8
0-9扉体
6
CONTINUOUS
62
3
100
AcDbLine
10
2451.890000000000
20
2153.854000000000
30
0.0
11
2451.890000000000
21
2156.854000000000
31
0.0
0
LINE
5
89f
100
AcDbEntity
8
0-9扉体
6
CONTINUOUS
62
3
100
AcDbLine
10
2430.388000000000
20
2153.854000000000
30
0.0
11
2430.388000000000
21
2156.854000000000
31
0.0
0
LINE
5
8a0
100
AcDbEntity
8
0-9扉体
6
CONTINUOUS
62
3
100
AcDbLine
10
2441.138000000000
20
2153.854000000000
30
0.0
11
2438.138000000000
21
2156.854000000000
31
0.0
0
LINE
5
8a1
100
AcDbEntity
8
0-9扉体
6
CONTINUOUS
62
3
100
AcDbLine
10
2444.138000000000
20
2153.854000000000
30
0.0
11
2441.138000000000
21
2156.854000000000
31
0.0
0
LINE
5
8a2
100
AcDbEntity
8
0-9扉体
6
CONTINUOUS
62
7
100
AcDbLine
10
2452.108000000000
20
2156.854000000000
30
0.0
11
2452.108000000000
21
2166.006000000000
31
0.0
0
LINE
5
8a3
100
AcDbEntity
8
0-9扉体
6
CONTINUOUS
62
3
100
AcDbLine
10
2430.170000000000
20
2156.854000000000
30
0.0
11
2452.108000000000
21
2156.854000000000
31
0.0
0
LINE
5
8a4
100
AcDbEntity
8
0-9扉体
6
CONTINUOUS
62
7
100
AcDbLine
10
2430.170000000000
20
2156.854000000000
30
0.0
11
2430.170000000000
21
2166.006000000000
31
0.0
0
LINE
5
8a5
100
AcDbEntity
8
0-9扉体
6
CONTINUOUS
62
3
100
AcDbLine
10
2435.138000000000
20
2170.554000000000
30
0.0
11
2447.138000000000
21
2170.554000000000
31
0.0
0
LINE
5
8a6
100
AcDbEntity
8
0-9扉体
6
CONTINUOUS
62
3
100
AcDbLine
10
2447.138000000000
20
2166.854000000000
30
0.0
11
2447.138000000000
21
2170.554000000000
31
0.0
0
LINE
5
8a7
100
AcDbEntity
8
0-9扉体
6
CONTINUOUS
62
3
100
AcDbLine
10
2435.138000000000
20
2166.854000000000
30
0.0
11
2435.138000000000
21
2170.554000000000
31
0.0
0
LINE
5
8a8
100
AcDbEntity
8
0-9扉体
6
CONTINUOUS
62
3
100
AcDbLine
10
2446.138000000000
20
2166.854000000000
30
0.0
11
2446.138000000000
21
2170.554000000000
31
0.0
0
LINE
5
8a9
100
AcDbEntity
8
0-9扉体
6
CONTINUOUS
62
3
100
AcDbLine
10
2436.140000000000
20
2166.854000000000
30
0.0
11
2436.140000000000
21
2170.554000000000
31
0.0
0
LINE
5
8aa
100
AcDbEntity
8
0-9扉体
6
CONTINUOUS
62
3
100
AcDbLine
10
2362.138000000000
20
2307.554000000000
30
0.0
11
2378.138000000000
21
2307.554000000000
31
0.0
0
LINE
5
8ab
100
AcDbEntity
8
0-9扉体
6
CONTINUOUS
62
4
100
AcDbLine
10
2394.138000000000
20
2302.554000000000
30
0.0
11
2378.138000000000
21
2302.554000000000
31
0.0
0
LINE
5
8ac
100
AcDbEntity
8
0-9扉体
6
CONTINUOUS
62
4
100
AcDbLine
10
2378.138000000000
20
2317.554000000000
30
0.0
11
2394.138000000000
21
2317.554000000000
31
0.0
0
LINE
5
8ad
100
AcDbEntity
8
0-9扉体
6
CONTINUOUS
62
4
100
AcDbLine
10
2378.138000000000
20
2182.554000000000
30
0.0
11
2394.138000000000
21
2182.554000000000
31
0.0
0
LINE
5
8ae
100
AcDbEntity
8
0-9扉体
6
DOT
62
7
100
AcDbLine
10
2431.638000000000
20
2122.554000000000
30
0.0
11
2450.638000000000
21
2122.554000000000
31
0.0
0
LINE
5
8af
100
AcDbEntity
8
0-9扉体
6
DOT
62
7
100
AcDbLine
10
2431.638000000000
20
2122.554000000000
30
0.0
11
2430.170000000000
21
2123.402000000000
31
0.0
0
LINE
5
8b0
100
AcDbEntity
8
0-9扉体
6
DOT
62
7
100
AcDbLine
10
2450.638000000000
20
2122.554000000000
30
0.0
11
2452.108000000000
21
2123.402000000000
31
0.0
0
LINE
5
8b1
100
AcDbEntity
8
0-9扉体
6
DOT
62
7
100
AcDbLine
10
2435.654000000000
20
2130.554000000000
30
0.0
11
2435.654000000000
21
2123.402000000000
31
0.0
0
LINE
5
8b2
100
AcDbEntity
8
0-9扉体
6
DOT
62
7
100
AcDbLine
10
2446.624000000000
20
2130.554000000000
30
0.0
11
2446.624000000000
21
2123.402000000000
31
0.0
0
LINE
5
8b3
100
AcDbEntity
8
0-9扉体
6
DOT
62
7
100
AcDbLine
10
2430.170000000000
20
2130.554000000000
30
0.0
11
2430.170000000000
21
2123.402000000000
31
0.0
0
LINE
5
8b4
100
AcDbEntity
8
0-9扉体
6
DOT
62
7
100
AcDbLine
10
2452.108000000000
20
2130.554000000000
30
0.0
11
2452.108000000000
21
2123.402000000000
31
0.0
0
LINE
5
8b5
100
AcDbEntity
8
0-5基準線
6
CENTER2
62
7
100
AcDbLine
10
2441.138000000000
20
2118.210000000000
30
0.0
11
2441.138000000000
21
2176.290000000000
31
0.0
0
LINE
5
8b6
100
AcDbEntity
8
0-9扉体
6
CONTINUOUS
62
7
100
AcDbLine
10
2321.638000000000
20
2166.854000000000
30
0.0
11
2340.638000000000
21
2166.854000000000
31
0.0
0
LINE
5
8b7
100
AcDbEntity
8
0-9扉体
6
CONTINUOUS
62
7
100
AcDbLine
10
2321.638000000000
20
2166.854000000000
30
0.0
11
2320.168000000000
21
2166.006000000000
31
0.0
0
LINE
5
8b8
100
AcDbEntity
8
0-9扉体
6
CONTINUOUS
62
7
100
AcDbLine
10
2340.638000000000
20
2166.854000000000
30
0.0
11
2342.108000000000
21
2166.006000000000
31
0.0
0
LINE
5
8b9
100
AcDbEntity
8
0-9扉体
6
CONTINUOUS
62
3
100
AcDbLine
10
2344.138000000000
20
2153.854000000000
30
0.0
11
2318.138000000000
21
2153.854000000000
31
0.0
0
LINE
5
8ba
100
AcDbEntity
8
0-9扉体
6
CONTINUOUS
62
3
100
AcDbLine
10
2318.138000000000
20
2151.554000000000
30
0.0
11
2318.138000000000
21
2153.854000000000
31
0.0
0
LINE
5
8bb
100
AcDbEntity
8
0-9扉体
6
CONTINUOUS
62
3
100
AcDbLine
10
2344.138000000000
20
2151.554000000000
30
0.0
11
2344.138000000000
21
2153.854000000000
31
0.0
0
LINE
5
8bc
100
AcDbEntity
8
0-9扉体
6
CONTINUOUS
62
7
100
AcDbLine
10
2325.654000000000
20
2156.854000000000
30
0.0
11
2325.654000000000
21
2166.006000000000
31
0.0
0
LINE
5
8bd
100
AcDbEntity
8
0-9扉体
6
CONTINUOUS
62
7
100
AcDbLine
10
2336.622000000000
20
2156.854000000000
30
0.0
11
2336.622000000000
21
2166.006000000000
31
0.0
0
LINE
5
8be
100
AcDbEntity
8
0-9扉体
6
CONTINUOUS
62
3
100
AcDbLine
10
2320.388000000000
20
2153.854000000000
30
0.0
11
2320.388000000000
21
2156.854000000000
31
0.0
0
LINE
5
8bf
100
AcDbEntity
8
0-9扉体
6
CONTINUOUS
62
3
100
AcDbLine
10
2341.888000000000
20
2153.854000000000
30
0.0
11
2341.888000000000
21
2156.854000000000
31
0.0
0
LINE
5
8c0
100
AcDbEntity
8
0-9扉体
6
CONTINUOUS
62
3
100
AcDbLine
10
2331.138000000000
20
2153.854000000000
30
0.0
11
2334.138000000000
21
2156.854000000000
31
0.0
0
LINE
5
8c1
100
AcDbEntity
8
0-9扉体
6
CONTINUOUS
62
3
100
AcDbLine
10
2328.138000000000
20
2153.854000000000
30
0.0
11
2331.138000000000
21
2156.854000000000
31
0.0
0
LINE
5
8c2
100
AcDbEntity
8
0-9扉体
6
CONTINUOUS
62
7
100
AcDbLine
10
2320.168000000000
20
2156.854000000000
30
0.0
11
2320.168000000000
21
2166.006000000000
31
0.0
0
LINE
5
8c3
100
AcDbEntity
8
0-9扉体
6
CONTINUOUS
62
3
100
AcDbLine
10
2342.108000000000
20
2156.854000000000
30
0.0
11
2320.168000000000
21
2156.854000000000
31
0.0
0
LINE
5
8c4
100
AcDbEntity
8
0-9扉体
6
CONTINUOUS
62
7
100
AcDbLine
10
2342.108000000000
20
2156.854000000000
30
0.0
11
2342.108000000000
21
2166.006000000000
31
0.0
0
LINE
5
8c5
100
AcDbEntity
8
0-9扉体
6
CONTINUOUS
62
3
100
AcDbLine
10
2337.138000000000
20
2170.554000000000
30
0.0
11
2325.138000000000
21
2170.554000000000
31
0.0
0
LINE
5
8c6
100
AcDbEntity
8
0-9扉体
6
CONTINUOUS
62
3
100
AcDbLine
10
2325.138000000000
20
2166.854000000000
30
0.0
11
2325.138000000000
21
2170.554000000000
31
0.0
0
LINE
5
8c7
100
AcDbEntity
8
0-9扉体
6
CONTINUOUS
62
3
100
AcDbLine
10
2337.138000000000
20
2166.854000000000
30
0.0
11
2337.138000000000
21
2170.554000000000
31
0.0
0
LINE
5
8c8
100
AcDbEntity
8
0-9扉体
6
CONTINUOUS
62
3
100
AcDbLine
10
2326.138000000000
20
2166.854000000000
30
0.0
11
2326.138000000000
21
2170.554000000000
31
0.0
0
LINE
5
8c9
100
AcDbEntity
8
0-9扉体
6
CONTINUOUS
62
3
100
AcDbLine
10
2336.138000000000
20
2166.854000000000
30
0.0
11
2336.138000000000
21
2170.554000000000
31
0.0
0
LINE
5
8ca
100
AcDbEntity
8
0-9扉体
6
DOT
62
7
100
AcDbLine
10
2340.638000000000
20
2122.554000000000
30
0.0
11
2321.638000000000
21
2122.554000000000
31
0.0
0
LINE
5
8cb
100
AcDbEntity
8
0-9扉体
6
DOT
62
7
100
AcDbLine
10
2340.638000000000
20
2122.554000000000
30
0.0
11
2342.108000000000
21
2123.402000000000
31
0.0
0
LINE
5
8cc
100
AcDbEntity
8
0-9扉体
6
DOT
62
7
100
AcDbLine
10
2321.638000000000
20
2122.554000000000
30
0.0
11
2320.168000000000
21
2123.402000000000
31
0.0
0
LINE
5
8cd
100
AcDbEntity
8
0-9扉体
6
DOT
62
7
100
AcDbLine
10
2336.622000000000
20
2130.554000000000
30
0.0
11
2336.622000000000
21
2123.402000000000
31
0.0
0
LINE
5
8ce
100
AcDbEntity
8
0-9扉体
6
DOT
62
7
100
AcDbLine
10
2325.654000000000
20
2130.554000000000
30
0.0
11
2325.654000000000
21
2123.402000000000
31
0.0
0
LINE
5
8cf
100
AcDbEntity
8
0-9扉体
6
DOT
62
7
100
AcDbLine
10
2342.108000000000
20
2130.554000000000
30
0.0
11
2342.108000000000
21
2123.402000000000
31
0.0
0
LINE
5
8d0
100
AcDbEntity
8
0-9扉体
6
DOT
62
7
100
AcDbLine
10
2320.168000000000
20
2130.554000000000
30
0.0
11
2320.168000000000
21
2123.402000000000
31
0.0
0
LINE
5
8d1
100
AcDbEntity
8
0-5基準線
6
CENTER2
62
7
100
AcDbLine
10
2331.138000000000
20
2118.210000000000
30
0.0
11
2331.138000000000
21
2176.290000000000
31
0.0
0
LINE
5
8d2
100
AcDbEntity
8
0-5基準線
6
CENTER2
62
7
100
AcDbLine
10
2386.138000000000
20
2118.210000000000
30
0.0
11
2386.138000000000
21
2342.554000000000
31
0.0
0
LINE
5
8d3
100
AcDbEntity
8
0-6戸当り
6
CONTINUOUS
62
7
100
AcDbLine
10
2436.640000000000
20
2323.038000000000
30
0.0
11
2446.138000000000
21
2328.524000000000
31
0.0
0
LINE
5
8d4
100
AcDbEntity
8
0-6戸当り
6
CONTINUOUS
62
7
100
AcDbLine
10
2436.640000000000
20
2323.038000000000
30
0.0
11
2436.640000000000
21
2312.068000000000
31
0.0
0
LINE
5
8d5
100
AcDbEntity
8
0-6戸当り
6
CONTINUOUS
62
7
100
AcDbLine
10
2446.138000000000
20
2306.584000000000
30
0.0
11
2436.640000000000
21
2312.068000000000
31
0.0
0
POLYLINE
5
8d6
100
AcDbEntity
8
0-6戸当り
6
CONTINUOUS
62
  7
100
AcDb2dPolyline
66
1
10
0.0
20
0.0
30
0.0
70
0
0
VERTEX
5
8d7
100
AcDbEntity
8
0-6戸当り
6
CONTINUOUS
62
  7
100
AcDbVertex
100
AcDb2dVertex
10
2446.138000000000
20
2306.584000000000
30
0.0
0
VERTEX
5
8d8
100
AcDbEntity
8
0-6戸当り
6
CONTINUOUS
62
  7
100
AcDbVertex
100
AcDb2dVertex
10
2455.638000000000
20
2312.068000000000
30
0.0
0
VERTEX
5
8d9
100
AcDbEntity
8
0-6戸当り
6
CONTINUOUS
62
  7
100
AcDbVertex
100
AcDb2dVertex
10
2455.638000000000
20
2323.038000000000
30
0.0
0
VERTEX
5
8da
100
AcDbEntity
8
0-6戸当り
6
CONTINUOUS
62
  7
100
AcDbVertex
100
AcDb2dVertex
10
2446.138000000000
20
2328.524000000000
30
0.0
0
SEQEND
5
8db
100
AcDbEntity
8
0-6戸当り
0
LINE
5
8dc
100
AcDbEntity
8
0-5基準線
6
CENTER2
62
7
100
AcDbLine
10
2446.138000000000
20
2335.554000000000
30
0.0
11
2446.138000000000
21
2299.554000000000
31
0.0
0
LINE
5
8dd
100
AcDbEntity
8
0-5基準線
6
CENTER2
62
7
100
AcDbLine
10
2464.138000000000
20
2317.554000000000
30
0.0
11
2428.138000000000
21
2317.554000000000
31
0.0
0
LINE
5
8de
100
AcDbEntity
8
0-6戸当り
6
CONTINUOUS
62
7
100
AcDbLine
10
2335.638000000000
20
2323.038000000000
30
0.0
11
2326.138000000000
21
2328.524000000000
31
0.0
0
LINE
5
8df
100
AcDbEntity
8
0-6戸当り
6
CONTINUOUS
62
7
100
AcDbLine
10
2335.638000000000
20
2323.038000000000
30
0.0
11
2335.638000000000
21
2312.068000000000
31
0.0
0
LINE
5
8e0
100
AcDbEntity
8
0-6戸当り
6
CONTINUOUS
62
7
100
AcDbLine
10
2326.138000000000
20
2306.584000000000
30
0.0
11
2335.638000000000
21
2312.068000000000
31
0.0
0
POLYLINE
5
8e1
100
AcDbEntity
8
0-6戸当り
6
CONTINUOUS
62
  7
100
AcDb2dPolyline
66
1
10
0.0
20
0.0
30
0.0
70
0
0
VERTEX
5
8e2
100
AcDbEntity
8
0-6戸当り
6
CONTINUOUS
62
  7
100
AcDbVertex
100
AcDb2dVertex
10
2326.138000000000
20
2306.584000000000
30
0.0
0
VERTEX
5
8e3
100
AcDbEntity
8
0-6戸当り
6
CONTINUOUS
62
  7
100
AcDbVertex
100
AcDb2dVertex
10
2316.638000000000
20
2312.068000000000
30
0.0
0
VERTEX
5
8e4
100
AcDbEntity
8
0-6戸当り
6
CONTINUOUS
62
  7
100
AcDbVertex
100
AcDb2dVertex
10
2316.638000000000
20
2323.038000000000
30
0.0
0
VERTEX
5
8e5
100
AcDbEntity
8
0-6戸当り
6
CONTINUOUS
62
  7
100
AcDbVertex
100
AcDb2dVertex
10
2326.138000000000
20
2328.524000000000
30
0.0
0
SEQEND
5
8e6
100
AcDbEntity
8
0-6戸当り
0
LINE
5
8e7
100
AcDbEntity
8
0-5基準線
6
CENTER2
62
7
100
AcDbLine
10
2326.138000000000
20
2335.554000000000
30
0.0
11
2326.138000000000
21
2299.554000000000
31
0.0
0
LINE
5
8e8
100
AcDbEntity
8
0-5基準線
6
CENTER2
62
7
100
AcDbLine
10
2308.138000000000
20
2317.554000000000
30
0.0
11
2344.138000000000
21
2317.554000000000
31
0.0
0
LINE
5
8e9
100
AcDbEntity
8
0-6戸当り
6
CONTINUOUS
62
7
100
AcDbLine
10
2436.640000000000
20
2233.038000000000
30
0.0
11
2446.138000000000
21
2238.524000000000
31
0.0
0
LINE
5
8ea
100
AcDbEntity
8
0-6戸当り
6
CONTINUOUS
62
7
100
AcDbLine
10
2436.640000000000
20
2233.038000000000
30
0.0
11
2436.640000000000
21
2222.070000000000
31
0.0
0
LINE
5
8eb
100
AcDbEntity
8
0-6戸当り
6
CONTINUOUS
62
7
100
AcDbLine
10
2446.138000000000
20
2216.584000000000
30
0.0
11
2436.640000000000
21
2222.070000000000
31
0.0
0
POLYLINE
5
8ec
100
AcDbEntity
8
0-6戸当り
6
CONTINUOUS
62
  7
100
AcDb2dPolyline
66
1
10
0.0
20
0.0
30
0.0
70
0
0
VERTEX
5
8ed
100
AcDbEntity
8
0-6戸当り
6
CONTINUOUS
62
  7
100
AcDbVertex
100
AcDb2dVertex
10
2446.138000000000
20
2216.584000000000
30
0.0
0
VERTEX
5
8ee
100
AcDbEntity
8
0-6戸当り
6
CONTINUOUS
62
  7
100
AcDbVertex
100
AcDb2dVertex
10
2455.638000000000
20
2222.070000000000
30
0.0
0
VERTEX
5
8ef
100
AcDbEntity
8
0-6戸当り
6
CONTINUOUS
62
  7
100
AcDbVertex
100
AcDb2dVertex
10
2455.638000000000
20
2233.038000000000
30
0.0
0
VERTEX
5
8f0
100
AcDbEntity
8
0-6戸当り
6
CONTINUOUS
62
  7
100
AcDbVertex
100
AcDb2dVertex
10
2446.138000000000
20
2238.524000000000
30
0.0
0
SEQEND
5
8f1
100
AcDbEntity
8
0-6戸当り
0
LINE
5
8f2
100
AcDbEntity
8
0-5基準線
6
CENTER2
62
7
100
AcDbLine
10
2446.138000000000
20
2245.554000000000
30
0.0
11
2446.138000000000
21
2209.554000000000
31
0.0
0
LINE
5
8f3
100
AcDbEntity
8
0-5基準線
6
CENTER2
62
7
100
AcDbLine
10
2464.138000000000
20
2227.554000000000
30
0.0
11
2428.138000000000
21
2227.554000000000
31
0.0
0
LINE
5
8f4
100
AcDbEntity
8
0-6戸当り
6
CONTINUOUS
62
7
100
AcDbLine
10
2335.638000000000
20
2233.038000000000
30
0.0
11
2326.138000000000
21
2238.524000000000
31
0.0
0
LINE
5
8f5
100
AcDbEntity
8
0-6戸当り
6
CONTINUOUS
62
7
100
AcDbLine
10
2335.638000000000
20
2233.038000000000
30
0.0
11
2335.638000000000
21
2222.070000000000
31
0.0
0
LINE
5
8f6
100
AcDbEntity
8
0-6戸当り
6
CONTINUOUS
62
7
100
AcDbLine
10
2326.138000000000
20
2216.584000000000
30
0.0
11
2335.638000000000
21
2222.070000000000
31
0.0
0
POLYLINE
5
8f7
100
AcDbEntity
8
0-6戸当り
6
CONTINUOUS
62
  7
100
AcDb2dPolyline
66
1
10
0.0
20
0.0
30
0.0
70
0
0
VERTEX
5
8f8
100
AcDbEntity
8
0-6戸当り
6
CONTINUOUS
62
  7
100
AcDbVertex
100
AcDb2dVertex
10
2326.138000000000
20
2216.584000000000
30
0.0
0
VERTEX
5
8f9
100
AcDbEntity
8
0-6戸当り
6
CONTINUOUS
62
  7
100
AcDbVertex
100
AcDb2dVertex
10
2316.638000000000
20
2222.070000000000
30
0.0
0
VERTEX
5
8fa
100
AcDbEntity
8
0-6戸当り
6
CONTINUOUS
62
  7
100
AcDbVertex
100
AcDb2dVertex
10
2316.638000000000
20
2233.038000000000
30
0.0
0
VERTEX
5
8fb
100
AcDbEntity
8
0-6戸当り
6
CONTINUOUS
62
  7
100
AcDbVertex
100
AcDb2dVertex
10
2326.138000000000
20
2238.524000000000
30
0.0
0
SEQEND
5
8fc
100
AcDbEntity
8
0-6戸当り
0
LINE
5
8fd
100
AcDbEntity
8
0-5基準線
6
CENTER2
62
7
100
AcDbLine
10
2326.138000000000
20
2245.554000000000
30
0.0
11
2326.138000000000
21
2209.554000000000
31
0.0
0
LINE
5
8fe
100
AcDbEntity
8
0-5基準線
6
CENTER2
62
7
100
AcDbLine
10
2308.138000000000
20
2227.554000000000
30
0.0
11
2344.138000000000
21
2227.554000000000
31
0.0
0
LINE
5
8ff
100
AcDbEntity
8
0-8寸法
6
CONTINUOUS
62
4
100
AcDbLine
10
2326.138000000000
20
2482.554000000000
30
0.0
11
2446.138000000000
21
2482.554000000000
31
0.0
0
LINE
5
900
100
AcDbEntity
8
0-8寸法
6
CONTINUOUS
62
4
100
AcDbLine
10
2326.138000000000
20
2339.976000000000
30
0.0
11
2326.138000000000
21
2497.554000000000
31
0.0
0
LINE
5
901
100
AcDbEntity
8
0-8寸法
6
CONTINUOUS
62
4
100
AcDbLine
10
2446.138000000000
20
2339.976000000000
30
0.0
11
2446.138000000000
21
2497.554000000000
31
0.0
0
LINE
5
902
100
AcDbEntity
8
0-8寸法
6
CONTINUOUS
62
4
100
AcDbLine
10
2326.138000000000
20
2482.554000000000
30
0.0
11
2355.116000000000
21
2490.318000000000
31
0.0
0
LINE
5
903
100
AcDbEntity
8
0-8寸法
6
CONTINUOUS
62
4
100
AcDbLine
10
2326.138000000000
20
2482.554000000000
30
0.0
11
2355.116000000000
21
2474.790000000000
31
0.0
0
LINE
5
904
100
AcDbEntity
8
0-8寸法
6
CONTINUOUS
62
4
100
AcDbLine
10
2446.138000000000
20
2482.554000000000
30
0.0
11
2417.160000000000
21
2490.318000000000
31
0.0
0
LINE
5
905
100
AcDbEntity
8
0-8寸法
6
CONTINUOUS
62
4
100
AcDbLine
10
2446.138000000000
20
2482.554000000000
30
0.0
11
2417.160000000000
21
2474.790000000000
31
0.0
0
LINE
5
906
100
AcDbEntity
8
0-8寸法
6
CONTINUOUS
62
4
100
AcDbLine
10
2311.138000000000
20
2632.554000000000
30
0.0
11
2461.138000000000
21
2632.554000000000
31
0.0
0
LINE
5
907
100
AcDbEntity
8
0-8寸法
6
CONTINUOUS
62
4
100
AcDbLine
10
2311.138000000000
20
2339.976000000000
30
0.0
11
2311.138000000000
21
2647.554000000000
31
0.0
0
LINE
5
908
100
AcDbEntity
8
0-8寸法
6
CONTINUOUS
62
4
100
AcDbLine
10
2461.138000000000
20
2339.976000000000
30
0.0
11
2461.138000000000
21
2647.554000000000
31
0.0
0
LINE
5
909
100
AcDbEntity
8
0-8寸法
6
CONTINUOUS
62
4
100
AcDbLine
10
2311.138000000000
20
2632.554000000000
30
0.0
11
2340.116000000000
21
2640.318000000000
31
0.0
0
LINE
5
90a
100
AcDbEntity
8
0-8寸法
6
CONTINUOUS
62
4
100
AcDbLine
10
2311.138000000000
20
2632.554000000000
30
0.0
11
2340.116000000000
21
2624.790000000000
31
0.0
0
LINE
5
90b
100
AcDbEntity
8
0-8寸法
6
CONTINUOUS
62
4
100
AcDbLine
10
2461.138000000000
20
2632.554000000000
30
0.0
11
2432.160000000000
21
2640.318000000000
31
0.0
0
LINE
5
90c
100
AcDbEntity
8
0-8寸法
6
CONTINUOUS
62
4
100
AcDbLine
10
2461.138000000000
20
2632.554000000000
30
0.0
11
2432.160000000000
21
2624.790000000000
31
0.0
0
LINE
5
90d
100
AcDbEntity
8
0-8寸法
6
CONTINUOUS
62
4
100
AcDbLine
10
2386.138000000000
20
2782.554000000000
30
0.0
11
2357.160000000000
21
2790.318000000000
31
0.0
0
LINE
5
90e
100
AcDbEntity
8
0-8寸法
6
CONTINUOUS
62
4
100
AcDbLine
10
2386.138000000000
20
2782.554000000000
30
0.0
11
2357.160000000000
21
2774.790000000000
31
0.0
0
LINE
5
90f
100
AcDbEntity
8
0-6戸当り
6
CONTINUOUS
62
4
100
AcDbLine
10
2311.138000000000
20
2332.554000000000
30
0.0
11
2461.138000000000
21
2332.554000000000
31
0.0
0
LINE
5
910
100
AcDbEntity
8
0-6戸当り
6
CONTINUOUS
62
4
100
AcDbLine
10
2461.138000000000
20
2192.554000000000
30
0.0
11
2461.138000000000
21
2332.554000000000
31
0.0
0
LINE
5
911
100
AcDbEntity
8
0-8寸法
6
CONTINUOUS
62
4
100
AcDbLine
10
2386.138000000000
20
2720.096000000000
30
0.0
11
2386.138000000000
21
2797.554000000000
31
0.0
0
LINE
5
912
100
AcDbEntity
8
0-8寸法
6
CONTINUOUS
62
4
100
AcDbLine
10
2386.138000000000
20
2353.346000000000
30
0.0
11
2386.138000000000
21
2460.892000000000
31
0.0
0
LINE
5
913
100
AcDbEntity
8
0-8寸法
6
CONTINUOUS
62
4
100
AcDbLine
10
2386.138000000000
20
2569.168000000000
30
0.0
11
2386.138000000000
21
2618.382000000000
31
0.0
0
LINE
5
914
100
AcDbEntity
8
0-8寸法
6
CONTINUOUS
62
4
100
AcDbLine
10
2766.138000000000
20
2782.554000000000
30
0.0
11
2415.188000000000
21
2222.294000000000
31
0.0
0
LINE
5
915
100
AcDbEntity
8
0-6戸当り
6
CONTINUOUS
62
6
100
AcDbLine
10
1836.140000000000
20
2192.554000000000
30
0.0
11
2053.640000000000
21
2192.554000000000
31
0.0
0
LINE
5
916
100
AcDbEntity
8
0-8寸法
6
CONTINUOUS
62
4
100
AcDbLine
10
1786.140000000000
20
2782.554000000000
30
0.0
11
2386.138000000000
21
2782.554000000000
31
0.0
0
LINE
5
917
100
AcDbEntity
8
0-9扉体
6
CONTINUOUS
62
4
100
AcDbLine
10
1736.140000000000
20
3437.452000000000
30
0.0
11
1736.140000000000
21
3457.452000000000
31
0.0
0
LINE
5
918
100
AcDbEntity
8
0-9扉体
6
CONTINUOUS
62
4
100
AcDbLine
10
1711.140000000000
20
3375.950000000000
30
0.0
11
1711.140000000000
21
3450.952000000000
31
0.0
0
LINE
5
919
100
AcDbEntity
8
0-9扉体
6
CONTINUOUS
62
4
100
AcDbLine
10
1861.140000000000
20
3375.950000000000
30
0.0
11
1711.140000000000
21
3375.950000000000
31
0.0
0
LINE
5
91a
100
AcDbEntity
8
0-9扉体
6
CONTINUOUS
62
4
100
AcDbLine
10
1760.140000000000
20
3417.452000000000
30
0.0
11
1751.140000000000
21
3417.452000000000
31
0.0
0
LINE
5
91b
100
AcDbEntity
8
0-9扉体
6
CONTINUOUS
62
4
100
AcDbLine
10
1760.140000000000
20
3375.950000000000
30
0.0
11
1760.140000000000
21
3416.438000000000
31
0.0
0
LINE
5
91c
100
AcDbEntity
8
0-9扉体
6
CONTINUOUS
62
4
100
AcDbLine
10
1751.140000000000
20
3375.950000000000
30
0.0
11
1751.140000000000
21
3416.438000000000
31
0.0
0
LINE
5
91d
100
AcDbEntity
8
0-9扉体
6
CONTINUOUS
62
4
100
AcDbLine
10
1748.140000000000
20
3427.452000000000
30
0.0
11
1748.140000000000
21
3467.452000000000
31
0.0
0
LINE
5
91e
100
AcDbEntity
8
0-9扉体
6
CONTINUOUS
62
4
100
AcDbLine
10
1748.140000000000
20
3457.452000000000
30
0.0
11
1736.140000000000
21
3457.452000000000
31
0.0
0
LINE
5
91f
100
AcDbEntity
8
0-9扉体
6
CONTINUOUS
62
4
100
AcDbLine
10
1748.140000000000
20
3437.452000000000
30
0.0
11
1736.140000000000
21
3437.452000000000
31
0.0
0
LINE
5
920
100
AcDbEntity
8
0-9扉体
6
CONTINUOUS
62
4
100
AcDbLine
10
1751.140000000000
20
3427.452000000000
30
0.0
11
1748.140000000000
21
3427.452000000000
31
0.0
0
LINE
5
921
100
AcDbEntity
8
0-9扉体
6
CONTINUOUS
62
4
100
AcDbLine
10
1836.140000000000
20
3437.452000000000
30
0.0
11
1836.140000000000
21
3457.452000000000
31
0.0
0
LINE
5
922
100
AcDbEntity
8
0-9扉体
6
CONTINUOUS
62
4
100
AcDbLine
10
1812.140000000000
20
3417.452000000000
30
0.0
11
1821.140000000000
21
3417.452000000000
31
0.0
0
LINE
5
923
100
AcDbEntity
8
0-9扉体
6
CONTINUOUS
62
4
100
AcDbLine
10
1812.140000000000
20
3375.950000000000
30
0.0
11
1812.140000000000
21
3416.438000000000
31
0.0
0
LINE
5
924
100
AcDbEntity
8
0-9扉体
6
CONTINUOUS
62
4
100
AcDbLine
10
1821.140000000000
20
3375.950000000000
30
0.0
11
1821.140000000000
21
3416.438000000000
31
0.0
0
LINE
5
925
100
AcDbEntity
8
0-9扉体
6
CONTINUOUS
62
4
100
AcDbLine
10
1824.140000000000
20
3457.452000000000
30
0.0
11
1836.140000000000
21
3457.452000000000
31
0.0
0
LINE
5
926
100
AcDbEntity
8
0-9扉体
6
CONTINUOUS
62
4
100
AcDbLine
10
1821.140000000000
20
3427.452000000000
30
0.0
11
1824.140000000000
21
3427.452000000000
31
0.0
0
LINE
5
927
100
AcDbEntity
8
0-9扉体
6
CONTINUOUS
62
4
100
AcDbLine
10
1861.140000000000
20
3450.952000000000
30
0.0
11
1861.140000000000
21
3375.950000000000
31
0.0
0
LINE
5
928
100
AcDbEntity
8
0-9扉体
6
CONTINUOUS
62
4
100
AcDbLine
10
1824.140000000000
20
3427.452000000000
30
0.0
11
1824.140000000000
21
3467.452000000000
31
0.0
0
LINE
5
929
100
AcDbEntity
8
0-9扉体
6
CONTINUOUS
62
4
100
AcDbLine
10
1824.140000000000
20
3437.452000000000
30
0.0
11
1836.140000000000
21
3437.452000000000
31
0.0
0
LINE
5
92a
100
AcDbEntity
8
0-5基準線
6
CENTER2
62
7
100
AcDbLine
10
1786.140000000000
20
3366.076000000000
30
0.0
11
1786.140000000000
21
3584.940000000000
31
0.0
0
LINE
5
92b
100
AcDbEntity
8
0-5基準線
6
CENTER2
62
7
100
AcDbLine
10
1841.140000000000
20
3447.452000000000
30
0.0
11
1731.140000000000
21
3447.452000000000
31
0.0
0
LINE
5
92c
100
AcDbEntity
8
0-9扉体
6
CONTINUOUS
62
3
100
AcDbLine
10
1762.140000000000
20
3427.452000000000
30
0.0
11
1762.140000000000
21
3467.452000000000
31
0.0
0
LINE
5
92d
100
AcDbEntity
8
0-9扉体
6
CONTINUOUS
62
3
100
AcDbLine
10
1810.140000000000
20
3427.452000000000
30
0.0
11
1810.140000000000
21
3467.452000000000
31
0.0
0
LINE
5
92e
100
AcDbEntity
8
0-9扉体
6
CONTINUOUS
62
3
100
AcDbLine
10
1794.140000000000
20
3422.452000000000
30
0.0
11
1794.140000000000
21
3472.452000000000
31
0.0
0
LINE
5
92f
100
AcDbEntity
8
0-9扉体
6
CONTINUOUS
62
3
100
AcDbLine
10
1778.140000000000
20
3422.452000000000
30
0.0
11
1778.140000000000
21
3472.452000000000
31
0.0
0
LINE
5
930
100
AcDbEntity
8
0-9扉体
6
CONTINUOUS
62
3
100
AcDbLine
10
1810.140000000000
20
3457.452000000000
30
0.0
11
1812.140000000000
21
3457.452000000000
31
0.0
0
LINE
5
931
100
AcDbEntity
8
0-9扉体
6
CONTINUOUS
62
3
100
AcDbLine
10
1810.140000000000
20
3437.452000000000
30
0.0
11
1812.140000000000
21
3437.452000000000
31
0.0
0
LINE
5
932
100
AcDbEntity
8
0-9扉体
6
CONTINUOUS
62
3
100
AcDbLine
10
1762.140000000000
20
3457.452000000000
30
0.0
11
1760.140000000000
21
3457.452000000000
31
0.0
0
LINE
5
933
100
AcDbEntity
8
0-9扉体
6
CONTINUOUS
62
3
100
AcDbLine
10
1762.140000000000
20
3437.452000000000
30
0.0
11
1760.140000000000
21
3437.452000000000
31
0.0
0
LINE
5
934
100
AcDbEntity
8
0-9扉体
6
CONTINUOUS
62
3
100
AcDbLine
10
1778.140000000000
20
3427.452000000000
30
0.0
11
1762.140000000000
21
3427.452000000000
31
0.0
0
LINE
5
935
100
AcDbEntity
8
0-9扉体
6
CONTINUOUS
62
3
100
AcDbLine
10
1810.140000000000
20
3427.452000000000
30
0.0
11
1794.140000000000
21
3427.452000000000
31
0.0
0
LINE
5
936
100
AcDbEntity
8
0-9扉体
6
CONTINUOUS
62
4
100
AcDbLine
10
1751.140000000000
20
3417.452000000000
30
0.0
11
1751.140000000000
21
3489.452000000000
31
0.0
0
LINE
5
937
100
AcDbEntity
8
0-9扉体
6
CONTINUOUS
62
4
100
AcDbLine
10
1760.140000000000
20
3417.452000000000
30
0.0
11
1760.140000000000
21
3489.452000000000
31
0.0
0
LINE
5
938
100
AcDbEntity
8
0-9扉体
6
CONTINUOUS
62
4
100
AcDbLine
10
1812.140000000000
20
3417.452000000000
30
0.0
11
1812.140000000000
21
3489.452000000000
31
0.0
0
LINE
5
939
100
AcDbEntity
8
0-9扉体
6
CONTINUOUS
62
4
100
AcDbLine
10
1821.140000000000
20
3417.452000000000
30
0.0
11
1821.140000000000
21
3489.452000000000
31
0.0
0
LINE
5
93a
100
AcDbEntity
8
0-9扉体
6
CONTINUOUS
62
7
100
AcDbLine
10
1740.640000000000
20
3418.936000000000
30
0.0
11
1731.140000000000
21
3424.420000000000
31
0.0
0
LINE
5
93b
100
AcDbEntity
8
0-9扉体
6
CONTINUOUS
62
7
100
AcDbLine
10
1740.640000000000
20
3418.936000000000
30
0.0
11
1740.640000000000
21
3407.966000000000
31
0.0
0
LINE
5
93c
100
AcDbEntity
8
0-9扉体
6
CONTINUOUS
62
7
100
AcDbLine
10
1731.140000000000
20
3402.482000000000
30
0.0
11
1740.640000000000
21
3407.966000000000
31
0.0
0
POLYLINE
5
93d
100
AcDbEntity
8
0-9扉体
6
CONTINUOUS
62
  7
100
AcDb2dPolyline
66
1
10
0.0
20
0.0
30
0.0
70
0
0
VERTEX
5
93e
100
AcDbEntity
8
0-9扉体
6
CONTINUOUS
62
  7
100
AcDbVertex
100
AcDb2dVertex
10
1731.140000000000
20
3402.482000000000
30
0.0
0
VERTEX
5
93f
100
AcDbEntity
8
0-9扉体
6
CONTINUOUS
62
  7
100
AcDbVertex
100
AcDb2dVertex
10
1721.640000000000
20
3407.966000000000
30
0.0
0
VERTEX
5
940
100
AcDbEntity
8
0-9扉体
6
CONTINUOUS
62
  7
100
AcDbVertex
100
AcDb2dVertex
10
1721.640000000000
20
3418.936000000000
30
0.0
0
VERTEX
5
941
100
AcDbEntity
8
0-9扉体
6
CONTINUOUS
62
  7
100
AcDbVertex
100
AcDb2dVertex
10
1731.140000000000
20
3424.420000000000
30
0.0
0
SEQEND
5
942
100
AcDbEntity
8
0-9扉体
0
LINE
5
943
100
AcDbEntity
8
0-5基準線
6
CENTER2
62
7
100
AcDbLine
10
1731.140000000000
20
3431.452000000000
30
0.0
11
1731.140000000000
21
3395.450000000000
31
0.0
0
LINE
5
944
100
AcDbEntity
8
0-5基準線
6
CENTER2
62
7
100
AcDbLine
10
1713.140000000000
20
3413.450000000000
30
0.0
11
1749.140000000000
21
3413.450000000000
31
0.0
0
LINE
5
945
100
AcDbEntity
8
0-9扉体
6
CONTINUOUS
62
7
100
AcDbLine
10
1831.640000000000
20
3418.936000000000
30
0.0
11
1841.140000000000
21
3424.420000000000
31
0.0
0
LINE
5
946
100
AcDbEntity
8
0-9扉体
6
CONTINUOUS
62
7
100
AcDbLine
10
1831.640000000000
20
3418.936000000000
30
0.0
11
1831.640000000000
21
3407.966000000000
31
0.0
0
LINE
5
947
100
AcDbEntity
8
0-9扉体
6
CONTINUOUS
62
7
100
AcDbLine
10
1841.140000000000
20
3402.482000000000
30
0.0
11
1831.640000000000
21
3407.966000000000
31
0.0
0
POLYLINE
5
948
100
AcDbEntity
8
0-9扉体
6
CONTINUOUS
62
  7
100
AcDb2dPolyline
66
1
10
0.0
20
0.0
30
0.0
70
0
0
VERTEX
5
949
100
AcDbEntity
8
0-9扉体
6
CONTINUOUS
62
  7
100
AcDbVertex
100
AcDb2dVertex
10
1841.140000000000
20
3402.482000000000
30
0.0
0
VERTEX
5
94a
100
AcDbEntity
8
0-9扉体
6
CONTINUOUS
62
  7
100
AcDbVertex
100
AcDb2dVertex
10
1850.640000000000
20
3407.966000000000
30
0.0
0
VERTEX
5
94b
100
AcDbEntity
8
0-9扉体
6
CONTINUOUS
62
  7
100
AcDbVertex
100
AcDb2dVertex
10
1850.640000000000
20
3418.936000000000
30
0.0
0
VERTEX
5
94c
100
AcDbEntity
8
0-9扉体
6
CONTINUOUS
62
  7
100
AcDbVertex
100
AcDb2dVertex
10
1841.140000000000
20
3424.420000000000
30
0.0
0
SEQEND
5
94d
100
AcDbEntity
8
0-9扉体
0
LINE
5
94e
100
AcDbEntity
8
0-5基準線
6
CENTER2
62
7
100
AcDbLine
10
1841.140000000000
20
3431.452000000000
30
0.0
11
1841.140000000000
21
3395.450000000000
31
0.0
0
LINE
5
94f
100
AcDbEntity
8
0-5基準線
6
CENTER2
62
7
100
AcDbLine
10
1859.140000000000
20
3413.450000000000
30
0.0
11
1823.140000000000
21
3413.450000000000
31
0.0
0
LINE
5
950
100
AcDbEntity
8
0-6戸当り
6
CONTINUOUS
62
6
100
AcDbLine
10
1861.140000000000
20
3489.452000000000
30
0.0
11
1861.140000000000
21
3501.452000000000
31
0.0
0
LINE
5
951
100
AcDbEntity
8
0-6戸当り
6
CONTINUOUS
62
6
100
AcDbLine
10
1711.140000000000
20
3489.452000000000
30
0.0
11
1711.140000000000
21
3501.452000000000
31
0.0
0
LINE
5
952
100
AcDbEntity
8
0-6戸当り
6
CONTINUOUS
62
3
100
AcDbLine
10
1739.140000000000
20
3487.152000000000
30
0.0
11
1713.140000000000
21
3487.152000000000
31
0.0
0
LINE
5
953
100
AcDbEntity
8
0-6戸当り
6
CONTINUOUS
62
3
100
AcDbLine
10
1713.140000000000
20
3489.452000000000
30
0.0
11
1713.140000000000
21
3487.152000000000
31
0.0
0
LINE
5
954
100
AcDbEntity
8
0-6戸当り
6
CONTINUOUS
62
3
100
AcDbLine
10
1739.140000000000
20
3489.452000000000
30
0.0
11
1739.140000000000
21
3487.152000000000
31
0.0
0
LINE
5
955
100
AcDbEntity
8
0-6戸当り
6
CONTINUOUS
62
3
100
AcDbLine
10
1833.140000000000
20
3487.152000000000
30
0.0
11
1859.140000000000
21
3487.152000000000
31
0.0
0
LINE
5
956
100
AcDbEntity
8
0-6戸当り
6
CONTINUOUS
62
3
100
AcDbLine
10
1859.140000000000
20
3489.452000000000
30
0.0
11
1859.140000000000
21
3487.152000000000
31
0.0
0
LINE
5
957
100
AcDbEntity
8
0-6戸当り
6
CONTINUOUS
62
3
100
AcDbLine
10
1833.140000000000
20
3489.452000000000
30
0.0
11
1833.140000000000
21
3487.152000000000
31
0.0
0
LINE
5
958
100
AcDbEntity
8
0-9扉体
6
CONTINUOUS
62
4
100
AcDbLine
10
1751.140000000000
20
3467.452000000000
30
0.0
11
1748.140000000000
21
3467.452000000000
31
0.0
0
LINE
5
959
100
AcDbEntity
8
0-9扉体
6
CONTINUOUS
62
4
100
AcDbLine
10
1821.140000000000
20
3467.452000000000
30
0.0
11
1824.140000000000
21
3467.452000000000
31
0.0
0
LINE
5
95a
100
AcDbEntity
8
0-9扉体
6
CONTINUOUS
62
3
100
AcDbLine
10
1778.140000000000
20
3467.452000000000
30
0.0
11
1762.140000000000
21
3467.452000000000
31
0.0
0
LINE
5
95b
100
AcDbEntity
8
0-9扉体
6
CONTINUOUS
62
3
100
AcDbLine
10
1810.140000000000
20
3467.452000000000
30
0.0
11
1794.140000000000
21
3467.452000000000
31
0.0
0
LINE
5
95c
100
AcDbEntity
8
0-9扉体
6
CONTINUOUS
62
4
100
AcDbLine
10
1794.140000000000
20
3472.452000000000
30
0.0
11
1778.140000000000
21
3472.452000000000
31
0.0
0
LINE
5
95d
100
AcDbEntity
8
0-9扉体
6
CONTINUOUS
62
4
100
AcDbLine
10
1794.140000000000
20
3422.452000000000
30
0.0
11
1778.140000000000
21
3422.452000000000
31
0.0
0
LINE
5
95e
100
AcDbEntity
8
0-9扉体
6
CONTINUOUS
62
3
100
AcDbLine
10
1794.140000000000
20
3457.452000000000
30
0.0
11
1778.140000000000
21
3457.452000000000
31
0.0
0
LINE
5
95f
100
AcDbEntity
8
0-9扉体
6
CONTINUOUS
62
3
100
AcDbLine
10
1794.140000000000
20
3437.452000000000
30
0.0
11
1778.140000000000
21
3437.452000000000
31
0.0
0
LINE
5
960
100
AcDbEntity
8
0-9扉体
6
CONTINUOUS
62
6
100
AcDbLine
10
1740.194000000000
20
3469.452000000000
30
0.0
11
1751.140000000000
21
3480.396000000000
31
0.0
0
LINE
5
961
100
AcDbEntity
8
0-9扉体
6
CONTINUOUS
62
6
100
AcDbLine
10
1742.316000000000
20
3469.452000000000
30
0.0
11
1751.140000000000
21
3478.276000000000
31
0.0
0
LINE
5
962
100
AcDbEntity
8
0-9扉体
6
CONTINUOUS
62
6
100
AcDbLine
10
1760.140000000000
20
3487.274000000000
30
0.0
11
1762.316000000000
21
3489.452000000000
31
0.0
0
LINE
5
963
100
AcDbEntity
8
0-9扉体
6
CONTINUOUS
62
6
100
AcDbLine
10
1821.138000000000
20
3486.756000000000
30
0.0
11
1823.834000000000
21
3489.452000000000
31
0.0
0
LINE
5
964
100
AcDbEntity
8
0-9扉体
6
CONTINUOUS
62
6
100
AcDbLine
10
1821.138000000000
20
3484.634000000000
30
0.0
11
1825.956000000000
21
3489.452000000000
31
0.0
0
LINE
5
965
100
AcDbEntity
8
0-6戸当り
6
CONTINUOUS
62
7
100
AcDbLine
10
3970.118000000000
20
2221.554000000000
30
0.0
11
4067.118000000000
21
2221.554000000000
31
0.0
0
POLYLINE
5
966
100
AcDbEntity
8
0-6戸当り
6
CONTINUOUS
62
  7
100
AcDb2dPolyline
66
1
10
0.0
20
0.0
30
0.0
70
0
0
VERTEX
5
967
100
AcDbEntity
8
0-6戸当り
6
CONTINUOUS
62
  7
100
AcDbVertex
100
AcDb2dVertex
10
3970.118000000000
20
2233.554000000000
30
0.0
0
VERTEX
5
968
100
AcDbEntity
8
0-6戸当り
6
CONTINUOUS
62
  7
100
AcDbVertex
100
AcDb2dVertex
10
4055.528000000000
20
2233.554000000000
30
0.0
0
VERTEX
5
969
100
AcDbEntity
8
0-6戸当り
6
CONTINUOUS
62
  7
100
AcDbVertex
100
AcDb2dVertex
10
4067.030000000000
20
2221.710000000000
30
0.0
0
SEQEND
5
96a
100
AcDbEntity
8
0-6戸当り
0
LINE
5
96b
100
AcDbEntity
8
0-6戸当り
6
CONTINUOUS
62
7
100
AcDbLine
10
3970.118000000000
20
2232.054000000000
30
0.0
11
4055.528000000000
21
2232.054000000000
31
0.0
0
LINE
5
96c
100
AcDbEntity
8
0-6戸当り
6
CONTINUOUS
62
7
100
AcDbLine
10
3970.118000000000
20
2223.054000000000
30
0.0
11
4065.726000000000
21
2223.054000000000
31
0.0
0
LINE
5
96d
100
AcDbEntity
8
0-6戸当り
6
CONTINUOUS
62
7
100
AcDbLine
10
4055.528000000000
20
2232.054000000000
30
0.0
11
4056.728000000000
21
2232.054000000000
31
0.0
0
LINE
5
96e
100
AcDbEntity
8
0-6戸当り
6
CONTINUOUS
62
7
100
AcDbLine
10
3970.122000000000
20
2322.054000000000
30
0.0
11
4055.194000000000
21
2322.054000000000
31
0.0
0
LINE
5
96f
100
AcDbEntity
8
0-6戸当り
6
CONTINUOUS
62
7
100
AcDbLine
10
3970.118000000000
20
2311.554000000000
30
0.0
11
4067.118000000000
21
2311.554000000000
31
0.0
0
LINE
5
970
100
AcDbEntity
8
0-6戸当り
6
CONTINUOUS
62
7
100
AcDbLine
10
3970.122000000000
20
2323.554000000000
30
0.0
11
4055.194000000000
21
2323.554000000000
31
0.0
0
LINE
5
971
100
AcDbEntity
8
0-6戸当り
6
CONTINUOUS
62
7
100
AcDbLine
10
4067.118000000000
20
2311.628000000000
30
0.0
11
4055.194000000000
21
2323.554000000000
31
0.0
0
LINE
5
972
100
AcDbEntity
8
0-6戸当り
6
CONTINUOUS
62
7
100
AcDbLine
10
3970.118000000000
20
2313.054000000000
30
0.0
11
4065.694000000000
21
2313.054000000000
31
0.0
0
LINE
5
973
100
AcDbEntity
8
0-6戸当り
6
CONTINUOUS
62
7
100
AcDbLine
10
4055.194000000000
20
2322.054000000000
30
0.0
11
4056.728000000000
21
2322.054000000000
31
0.0
0
LINE
5
974
100
AcDbEntity
8
0-9扉体
6
CONTINUOUS
62
7
100
AcDbLine
10
2053.640000000000
20
2142.554000000000
30
0.0
11
2053.640000000000
21
2192.554000000000
31
0.0
0
LINE
5
975
100
AcDbEntity
8
0-9扉体
6
CONTINUOUS
62
7
100
AcDbLine
10
2118.640000000000
20
2192.554000000000
30
0.0
11
2118.640000000000
21
2142.554000000000
31
0.0
0
LINE
5
976
100
AcDbEntity
8
F-F_J_ADD
6
HIDDEN
62
7
100
AcDbLine
10
2053.640000000000
20
2142.554000000000
30
0.0
11
2118.640000000000
21
2142.554000000000
31
0.0
0
LINE
5
977
100
AcDbEntity
8
0-5基準線
6
CENTER2
62
7
100
AcDbLine
10
2035.688000000000
20
2175.054000000000
30
0.0
11
2136.590000000000
21
2175.054000000000
31
0.0
0
LINE
5
978
100
AcDbEntity
8
0-6戸当り
6
CONTINUOUS
62
6
100
AcDbLine
10
2118.640000000000
20
2192.554000000000
30
0.0
11
2336.140000000000
21
2192.554000000000
31
0.0
0
LINE
5
979
100
AcDbEntity
8
0-6戸当り
6
CONTINUOUS
62
7
100
AcDbLine
10
1732.140000000000
20
3501.452000000000
30
0.0
11
1732.140000000000
21
3598.452000000000
31
0.0
0
POLYLINE
5
97a
100
AcDbEntity
8
0-6戸当り
6
CONTINUOUS
62
  7
100
AcDb2dPolyline
66
1
10
0.0
20
0.0
30
0.0
70
0
0
VERTEX
5
97b
100
AcDbEntity
8
0-6戸当り
6
CONTINUOUS
62
  7
100
AcDbVertex
100
AcDb2dVertex
10
1720.140000000000
20
3501.452000000000
30
0.0
0
VERTEX
5
97c
100
AcDbEntity
8
0-6戸当り
6
CONTINUOUS
62
  7
100
AcDbVertex
100
AcDb2dVertex
10
1720.140000000000
20
3586.862000000000
30
0.0
0
VERTEX
5
97d
100
AcDbEntity
8
0-6戸当り
6
CONTINUOUS
62
  7
100
AcDbVertex
100
AcDb2dVertex
10
1731.984000000000
20
3598.364000000000
30
0.0
0
SEQEND
5
97e
100
AcDbEntity
8
0-6戸当り
0
LINE
5
97f
100
AcDbEntity
8
0-6戸当り
6
CONTINUOUS
62
7
100
AcDbLine
10
1721.640000000000
20
3501.452000000000
30
0.0
11
1721.640000000000
21
3586.862000000000
31
0.0
0
LINE
5
980
100
AcDbEntity
8
0-6戸当り
6
CONTINUOUS
62
7
100
AcDbLine
10
1730.640000000000
20
3501.452000000000
30
0.0
11
1730.640000000000
21
3597.058000000000
31
0.0
0
LINE
5
981
100
AcDbEntity
8
0-6戸当り
6
CONTINUOUS
62
7
100
AcDbLine
10
1721.640000000000
20
3586.862000000000
30
0.0
11
1721.640000000000
21
3588.062000000000
31
0.0
0
LINE
5
982
100
AcDbEntity
8
0-6戸当り
6
CONTINUOUS
62
7
100
AcDbLine
10
1852.140000000000
20
3501.452000000000
30
0.0
11
1852.140000000000
21
3598.452000000000
31
0.0
0
POLYLINE
5
983
100
AcDbEntity
8
0-6戸当り
6
CONTINUOUS
62
  7
100
AcDb2dPolyline
66
1
10
0.0
20
0.0
30
0.0
70
0
0
VERTEX
5
984
100
AcDbEntity
8
0-6戸当り
6
CONTINUOUS
62
  7
100
AcDbVertex
100
AcDb2dVertex
10
1840.140000000000
20
3501.452000000000
30
0.0
0
VERTEX
5
985
100
AcDbEntity
8
0-6戸当り
6
CONTINUOUS
62
  7
100
AcDbVertex
100
AcDb2dVertex
10
1840.140000000000
20
3586.862000000000
30
0.0
0
VERTEX
5
986
100
AcDbEntity
8
0-6戸当り
6
CONTINUOUS
62
  7
100
AcDbVertex
100
AcDb2dVertex
10
1851.982000000000
20
3598.364000000000
30
0.0
0
SEQEND
5
987
100
AcDbEntity
8
0-6戸当り
0
LINE
5
988
100
AcDbEntity
8
0-6戸当り
6
CONTINUOUS
62
7
100
AcDbLine
10
1841.640000000000
20
3501.452000000000
30
0.0
11
1841.640000000000
21
3586.862000000000
31
0.0
0
LINE
5
989
100
AcDbEntity
8
0-6戸当り
6
CONTINUOUS
62
7
100
AcDbLine
10
1850.640000000000
20
3501.452000000000
30
0.0
11
1850.640000000000
21
3597.058000000000
31
0.0
0
LINE
5
98a
100
AcDbEntity
8
0-6戸当り
6
CONTINUOUS
62
7
100
AcDbLine
10
1841.640000000000
20
3586.862000000000
30
0.0
11
1841.640000000000
21
3588.062000000000
31
0.0
0
LINE
5
98b
100
AcDbEntity
8
F-F_J_ADD
6
HIDDEN
62
6
100
AcDbLine
10
2636.140000000000
20
2092.554000000000
30
0.0
11
2586.140000000000
21
2092.554000000000
31
0.0
0
LINE
5
98c
100
AcDbEntity
8
F-F_J_ADD
6
HIDDEN
62
6
100
AcDbLine
10
1586.138000000000
20
2092.554000000000
30
0.0
11
1536.140000000000
21
2092.554000000000
31
0.0
0
CIRCLE
5
98d
100
AcDbEntity
8
0-9扉体
6
CONTINUOUS
62
3
100
AcDbCircle
10
3916.118000000000
20
2287.778000000000
30
0.0
40
11.000000000000
0
CIRCLE
5
98e
100
AcDbEntity
8
0-9扉体
6
CONTINUOUS
62
3
100
AcDbCircle
10
3916.118000000000
20
2197.778000000000
30
0.0
40
11.000000000000
0
CIRCLE
5
98f
100
AcDbEntity
8
0-9扉体
6
CONTINUOUS
62
4
100
AcDbCircle
10
3916.118000000000
20
2287.778000000000
30
0.0
40
20.000000000000
0
CIRCLE
5
990
100
AcDbEntity
8
0-9扉体
6
CONTINUOUS
62
4
100
AcDbCircle
10
3916.118000000000
20
2197.778000000000
30
0.0
40
20.000000000000
0
ARC
5
991
100
AcDbEntity
8
0-9扉体
6
CONTINUOUS
62
7
100
AcDbCircle
10
3930.438000000000
20
1182.554000000000
30
0.0
40
12.420000000000
100
AcDbArc
50
162.412000000000
51
197.588000000000
0
ARC
5
992
100
AcDbEntity
8
0-9扉体
6
CONTINUOUS
62
7
100
AcDbCircle
10
3921.342000000000
20
1176.924000000000
30
0.0
40
3.322000000000
100
AcDbArc
50
145.615000000000
51
205.614000000000
0
ARC
5
993
100
AcDbEntity
8
0-9扉体
6
CONTINUOUS
62
7
100
AcDbCircle
10
3921.342000000000
20
1188.184000000000
30
0.0
40
3.322000000000
100
AcDbArc
50
154.386000000000
51
214.385000000000
0
CIRCLE
5
994
100
AcDbEntity
8
0-9扉体
6
CONTINUOUS
62
6
100
AcDbCircle
10
3948.120000000000
20
1152.554000000000
30
0.0
40
5.000000000000
0
ARC
5
995
100
AcDbEntity
8
0-9扉体
6
CONTINUOUS
62
6
100
AcDbCircle
10
3948.120000000000
20
1152.554000000000
30
0.0
40
10.000000000000
100
AcDbArc
50
180.000000000000
51
450.000000000000
0
ARC
5
996
100
AcDbEntity
8
0-9扉体
6
CONTINUOUS
62
7
100
AcDbCircle
10
3930.438000000000
20
2102.554000000000
30
0.0
40
12.420000000000
100
AcDbArc
50
162.412000000000
51
197.588000000000
0
ARC
5
997
100
AcDbEntity
8
0-9扉体
6
CONTINUOUS
62
7
100
AcDbCircle
10
3921.342000000000
20
2108.182000000000
30
0.0
40
3.322000000000
100
AcDbArc
50
154.386000000000
51
214.385000000000
0
ARC
5
998
100
AcDbEntity
8
0-9扉体
6
CONTINUOUS
62
7
100
AcDbCircle
10
3921.342000000000
20
2096.924000000000
30
0.0
40
3.322000000000
100
AcDbArc
50
145.615000000000
51
205.614000000000
0
CIRCLE
5
999
100
AcDbEntity
8
0-9扉体
6
CONTINUOUS
62
6
100
AcDbCircle
10
3948.120000000000
20
2132.554000000000
30
0.0
40
5.000000000000
0
ARC
5
99a
100
AcDbEntity
8
0-9扉体
6
CONTINUOUS
62
6
100
AcDbCircle
10
3948.120000000000
20
2132.554000000000
30
0.0
40
10.000000000000
100
AcDbArc
50
270.000000000000
51
540.000000000000
0
ARC
5
99b
100
AcDbEntity
8
0-9扉体
6
CONTINUOUS
62
6
100
AcDbCircle
10
3844.118000000000
20
2130.778000000000
30
0.0
40
6.000000000000
100
AcDbArc
50
90.000000000000
51
180.000000000000
0
ARC
5
99c
100
AcDbEntity
8
0-9扉体
6
CONTINUOUS
62
6
100
AcDbCircle
10
3920.118000000000
20
2130.778000000000
30
0.0
40
6.000000000000
100
AcDbArc
50
0.000000000000
51
90.000000000000
0
ARC
5
99d
100
AcDbEntity
8
0-9扉体
6
CONTINUOUS
62
6
100
AcDbCircle
10
3926.618000000000
20
2083.276000000000
30
0.0
40
0.500000000000
100
AcDbArc
50
180.000000000000
51
270.000000000000
0
ARC
5
99e
100
AcDbEntity
8
0-9扉体
6
CONTINUOUS
62
6
100
AcDbCircle
10
3837.618000000000
20
2083.276000000000
30
0.0
40
0.500000000000
100
AcDbArc
50
270.000000000000
51
360.000000000000
0
ARC
5
99f
100
AcDbEntity
8
0-9扉体
6
CONTINUOUS
62
6
100
AcDbCircle
10
3832.618000000000
20
2083.276000000000
30
0.0
40
0.500000000000
100
AcDbArc
50
180.000000000000
51
270.000000000000
0
ARC
5
9a0
100
AcDbEntity
8
0-9扉体
6
CONTINUOUS
62
6
100
AcDbCircle
10
3931.618000000000
20
2083.276000000000
30
0.0
40
0.500000000000
100
AcDbArc
50
270.000000000000
51
360.000000000000
0
ARC
5
9a1
100
AcDbEntity
8
0-9扉体
6
CONTINUOUS
62
6
100
AcDbCircle
10
3844.118000000000
20
1570.554000000000
30
0.0
40
6.000000000000
100
AcDbArc
50
90.000000000000
51
180.000000000000
0
ARC
5
9a2
100
AcDbEntity
8
0-9扉体
6
CONTINUOUS
62
6
100
AcDbCircle
10
3920.118000000000
20
1570.554000000000
30
0.0
40
6.000000000000
100
AcDbArc
50
0.000000000000
51
90.000000000000
0
ARC
5
9a3
100
AcDbEntity
8
0-9扉体
6
CONTINUOUS
62
6
100
AcDbCircle
10
3926.618000000000
20
1523.054000000000
30
0.0
40
0.500000000000
100
AcDbArc
50
180.000000000000
51
270.000000000000
0
ARC
5
9a4
100
AcDbEntity
8
0-9扉体
6
CONTINUOUS
62
6
100
AcDbCircle
10
3837.618000000000
20
1523.054000000000
30
0.0
40
0.500000000000
100
AcDbArc
50
270.000000000000
51
360.000000000000
0
ARC
5
9a5
100
AcDbEntity
8
0-9扉体
6
CONTINUOUS
62
6
100
AcDbCircle
10
3832.620000000000
20
1523.054000000000
30
0.0
40
0.500000000000
100
AcDbArc
50
180.000000000000
51
270.000000000000
0
ARC
5
9a6
100
AcDbEntity
8
0-9扉体
6
CONTINUOUS
62
6
100
AcDbCircle
10
3931.618000000000
20
1523.054000000000
30
0.0
40
0.500000000000
100
AcDbArc
50
270.000000000000
51
360.000000000000
0
ARC
5
9a7
100
AcDbEntity
8
0-6戸当り
6
CONTINUOUS
62
7
100
AcDbCircle
10
2616.140000000000
20
3496.092000000000
30
0.0
40
16.242000000000
100
AcDbArc
50
252.412000000000
51
287.588000000000
0
ARC
5
9a8
100
AcDbEntity
8
0-6戸当り
6
CONTINUOUS
62
7
100
AcDbCircle
10
2608.778000000000
20
3484.196000000000
30
0.0
40
4.344000000000
100
AcDbArc
50
244.383000000000
51
304.383000000000
0
ARC
5
9a9
100
AcDbEntity
8
0-6戸当り
6
CONTINUOUS
62
7
100
AcDbCircle
10
2623.500000000000
20
3484.196000000000
30
0.0
40
4.344000000000
100
AcDbArc
50
235.616000000000
51
295.616000000000
0
ARC
5
9aa
100
AcDbEntity
8
0-6戸当り
6
CONTINUOUS
62
2
100
AcDbCircle
10
2616.140000000000
20
3494.530000000000
30
0.0
40
20.000000000000
100
AcDbArc
50
255.522000000000
51
284.478000000000
0
CIRCLE
5
9ab
100
AcDbEntity
8
0-6戸当り
6
CONTINUOUS
62
3
100
AcDbCircle
10
1556.138000000000
20
2172.554000000000
30
0.0
40
11.000000000000
0
CIRCLE
5
9ac
100
AcDbEntity
8
0-6戸当り
6
CONTINUOUS
62
3
100
AcDbCircle
10
1556.138000000000
20
2172.554000000000
30
0.0
40
5.000000000000
0
CIRCLE
5
9ad
100
AcDbEntity
8
0-6戸当り
6
CONTINUOUS
62
3
100
AcDbCircle
10
1556.138000000000
20
2172.554000000000
30
0.0
40
4.000000000000
0
CIRCLE
5
9ae
100
AcDbEntity
8
0-6戸当り
6
CONTINUOUS
62
3
100
AcDbCircle
10
1556.138000000000
20
2172.554000000000
30
0.0
40
8.488000000000
0
CIRCLE
5
9af
100
AcDbEntity
8
0-6戸当り
6
CONTINUOUS
62
3
100
AcDbCircle
10
1556.138000000000
20
1112.554000000000
30
0.0
40
11.000000000000
0
CIRCLE
5
9b0
100
AcDbEntity
8
0-6戸当り
6
CONTINUOUS
62
3
100
AcDbCircle
10
1556.138000000000
20
1112.554000000000
30
0.0
40
5.000000000000
0
CIRCLE
5
9b1
100
AcDbEntity
8
0-6戸当り
6
CONTINUOUS
62
3
100
AcDbCircle
10
1556.138000000000
20
1112.554000000000
30
0.0
40
4.000000000000
0
CIRCLE
5
9b2
100
AcDbEntity
8
0-6戸当り
6
CONTINUOUS
62
3
100
AcDbCircle
10
1556.138000000000
20
1112.554000000000
30
0.0
40
8.488000000000
0
CIRCLE
5
9b3
100
AcDbEntity
8
0-6戸当り
6
CONTINUOUS
62
3
100
AcDbCircle
10
2616.138000000000
20
2172.554000000000
30
0.0
40
11.000000000000
0
CIRCLE
5
9b4
100
AcDbEntity
8
0-6戸当り
6
CONTINUOUS
62
3
100
AcDbCircle
10
2616.138000000000
20
2172.554000000000
30
0.0
40
5.000000000000
0
CIRCLE
5
9b5
100
AcDbEntity
8
0-6戸当り
6
CONTINUOUS
62
3
100
AcDbCircle
10
2616.138000000000
20
2172.554000000000
30
0.0
40
4.000000000000
0
CIRCLE
5
9b6
100
AcDbEntity
8
0-6戸当り
6
CONTINUOUS
62
3
100
AcDbCircle
10
2616.138000000000
20
2172.554000000000
30
0.0
40
8.488000000000
0
CIRCLE
5
9b7
100
AcDbEntity
8
0-6戸当り
6
CONTINUOUS
62
3
100
AcDbCircle
10
2616.138000000000
20
1112.554000000000
30
0.0
40
11.000000000000
0
CIRCLE
5
9b8
100
AcDbEntity
8
0-6戸当り
6
CONTINUOUS
62
3
100
AcDbCircle
10
2616.138000000000
20
1112.554000000000
30
0.0
40
5.000000000000
0
CIRCLE
5
9b9
100
AcDbEntity
8
0-6戸当り
6
CONTINUOUS
62
3
100
AcDbCircle
10
2616.138000000000
20
1112.554000000000
30
0.0
40
4.000000000000
0
CIRCLE
5
9ba
100
AcDbEntity
8
0-6戸当り
6
CONTINUOUS
62
3
100
AcDbCircle
10
2616.138000000000
20
1112.554000000000
30
0.0
40
8.488000000000
0
CIRCLE
5
9bb
100
AcDbEntity
8
0-6戸当り
6
CONTINUOUS
62
3
100
AcDbCircle
10
1886.138000000000
20
1112.554000000000
30
0.0
40
11.000000000000
0
CIRCLE
5
9bc
100
AcDbEntity
8
0-6戸当り
6
CONTINUOUS
62
3
100
AcDbCircle
10
1886.138000000000
20
1112.554000000000
30
0.0
40
5.000000000000
0
CIRCLE
5
9bd
100
AcDbEntity
8
0-6戸当り
6
CONTINUOUS
62
3
100
AcDbCircle
10
1886.138000000000
20
1112.554000000000
30
0.0
40
4.000000000000
0
CIRCLE
5
9be
100
AcDbEntity
8
0-6戸当り
6
CONTINUOUS
62
3
100
AcDbCircle
10
1886.138000000000
20
1112.554000000000
30
0.0
40
8.488000000000
0
CIRCLE
5
9bf
100
AcDbEntity
8
0-6戸当り
6
CONTINUOUS
62
3
100
AcDbCircle
10
2086.140000000000
20
1112.554000000000
30
0.0
40
11.000000000000
0
CIRCLE
5
9c0
100
AcDbEntity
8
0-6戸当り
6
CONTINUOUS
62
3
100
AcDbCircle
10
2086.140000000000
20
1112.554000000000
30
0.0
40
5.000000000000
0
CIRCLE
5
9c1
100
AcDbEntity
8
0-6戸当り
6
CONTINUOUS
62
3
100
AcDbCircle
10
2086.140000000000
20
1112.554000000000
30
0.0
40
4.000000000000
0
CIRCLE
5
9c2
100
AcDbEntity
8
0-6戸当り
6
CONTINUOUS
62
3
100
AcDbCircle
10
2086.140000000000
20
1112.554000000000
30
0.0
40
8.488000000000
0
CIRCLE
5
9c3
100
AcDbEntity
8
0-6戸当り
6
CONTINUOUS
62
3
100
AcDbCircle
10
2286.140000000000
20
1112.554000000000
30
0.0
40
11.000000000000
0
CIRCLE
5
9c4
100
AcDbEntity
8
0-6戸当り
6
CONTINUOUS
62
3
100
AcDbCircle
10
2286.140000000000
20
1112.554000000000
30
0.0
40
5.000000000000
0
CIRCLE
5
9c5
100
AcDbEntity
8
0-6戸当り
6
CONTINUOUS
62
3
100
AcDbCircle
10
2286.140000000000
20
1112.554000000000
30
0.0
40
4.000000000000
0
CIRCLE
5
9c6
100
AcDbEntity
8
0-6戸当り
6
CONTINUOUS
62
3
100
AcDbCircle
10
2286.140000000000
20
1112.554000000000
30
0.0
40
8.488000000000
0
CIRCLE
5
9c7
100
AcDbEntity
8
0-6戸当り
6
CONTINUOUS
62
3
100
AcDbCircle
10
2086.140000000000
20
2172.554000000000
30
0.0
40
11.000000000000
0
CIRCLE
5
9c8
100
AcDbEntity
8
0-6戸当り
6
CONTINUOUS
62
3
100
AcDbCircle
10
2086.140000000000
20
2172.554000000000
30
0.0
40
5.000000000000
0
CIRCLE
5
9c9
100
AcDbEntity
8
0-6戸当り
6
CONTINUOUS
62
3
100
AcDbCircle
10
2086.140000000000
20
2172.554000000000
30
0.0
40
4.000000000000
0
CIRCLE
5
9ca
100
AcDbEntity
8
0-6戸当り
6
CONTINUOUS
62
3
100
AcDbCircle
10
2086.140000000000
20
2172.554000000000
30
0.0
40
8.488000000000
0
CIRCLE
5
9cb
100
AcDbEntity
8
0-6戸当り
6
CONTINUOUS
62
3
100
AcDbCircle
10
1676.140000000000
20
2172.554000000000
30
0.0
40
11.000000000000
0
CIRCLE
5
9cc
100
AcDbEntity
8
0-6戸当り
6
CONTINUOUS
62
3
100
AcDbCircle
10
1676.140000000000
20
2172.554000000000
30
0.0
40
5.000000000000
0
CIRCLE
5
9cd
100
AcDbEntity
8
0-6戸当り
6
CONTINUOUS
62
3
100
AcDbCircle
10
1676.140000000000
20
2172.554000000000
30
0.0
40
8.488000000000
0
CIRCLE
5
9ce
100
AcDbEntity
8
0-6戸当り
6
CONTINUOUS
62
3
100
AcDbCircle
10
2496.138000000000
20
2172.554000000000
30
0.0
40
11.000000000000
0
CIRCLE
5
9cf
100
AcDbEntity
8
0-6戸当り
6
CONTINUOUS
62
3
100
AcDbCircle
10
2496.138000000000
20
2172.554000000000
30
0.0
40
5.000000000000
0
CIRCLE
5
9d0
100
AcDbEntity
8
0-6戸当り
6
CONTINUOUS
62
3
100
AcDbCircle
10
2496.138000000000
20
2172.554000000000
30
0.0
40
4.000000000000
0
CIRCLE
5
9d1
100
AcDbEntity
8
0-6戸当り
6
CONTINUOUS
62
3
100
AcDbCircle
10
2496.138000000000
20
2172.554000000000
30
0.0
40
8.488000000000
0
ARC
5
9d2
100
AcDbEntity
8
0-9扉体
6
CONTINUOUS
62
7
100
AcDbCircle
10
2546.140000000000
20
3461.770000000000
30
0.0
40
12.420000000000
100
AcDbArc
50
252.412000000000
51
287.588000000000
0
ARC
5
9d3
100
AcDbEntity
8
0-9扉体
6
CONTINUOUS
62
7
100
AcDbCircle
10
2551.768000000000
20
3452.674000000000
30
0.0
40
3.322000000000
100
AcDbArc
50
235.615000000000
51
295.614000000000
0
ARC
5
9d4
100
AcDbEntity
8
0-9扉体
6
CONTINUOUS
62
7
100
AcDbCircle
10
2540.510000000000
20
3452.674000000000
30
0.0
40
3.322000000000
100
AcDbArc
50
244.386000000000
51
304.385000000000
0
CIRCLE
5
9d5
100
AcDbEntity
8
0-9扉体
6
CONTINUOUS
62
6
100
AcDbCircle
10
2576.140000000000
20
3479.452000000000
30
0.0
40
5.000000000000
0
ARC
5
9d6
100
AcDbEntity
8
0-9扉体
6
CONTINUOUS
62
6
100
AcDbCircle
10
2576.140000000000
20
3479.452000000000
30
0.0
40
10.000000000000
100
AcDbArc
50
270.000000000000
51
540.000000000000
0
ARC
5
9d7
100
AcDbEntity
8
0-9扉体
6
CONTINUOUS
62
6
100
AcDbCircle
10
2574.140000000000
20
3451.452000000000
30
0.0
40
6.000000000000
100
AcDbArc
50
0.000000000000
51
90.000000000000
0
ARC
5
9d8
100
AcDbEntity
8
0-9扉体
6
CONTINUOUS
62
6
100
AcDbCircle
10
2574.140000000000
20
3375.452000000000
30
0.0
40
6.000000000000
100
AcDbArc
50
270.000000000000
51
360.000000000000
0
ARC
5
9d9
100
AcDbEntity
8
0-9扉体
6
CONTINUOUS
62
6
100
AcDbCircle
10
2526.638000000000
20
3368.952000000000
30
0.0
40
0.500000000000
100
AcDbArc
50
90.000000000000
51
180.000000000000
0
ARC
5
9da
100
AcDbEntity
8
0-9扉体
6
CONTINUOUS
62
6
100
AcDbCircle
10
2526.638000000000
20
3457.952000000000
30
0.0
40
0.500000000000
100
AcDbArc
50
180.000000000000
51
270.000000000000
0
ARC
5
9db
100
AcDbEntity
8
0-9扉体
6
CONTINUOUS
62
6
100
AcDbCircle
10
2526.638000000000
20
3462.952000000000
30
0.0
40
0.500000000000
100
AcDbArc
50
90.000000000000
51
180.000000000000
0
ARC
5
9dc
100
AcDbEntity
8
0-9扉体
6
CONTINUOUS
62
6
100
AcDbCircle
10
2526.638000000000
20
3363.952000000000
30
0.0
40
0.500000000000
100
AcDbArc
50
180.000000000000
51
270.000000000000
0
ARC
5
9dd
100
AcDbEntity
8
0-6戸当り
6
CONTINUOUS
62
7
100
AcDbCircle
10
1556.138000000000
20
3496.092000000000
30
0.0
40
16.242000000000
100
AcDbArc
50
252.412000000000
51
287.588000000000
0
ARC
5
9de
100
AcDbEntity
8
0-6戸当り
6
CONTINUOUS
62
7
100
AcDbCircle
10
1563.500000000000
20
3484.196000000000
30
0.0
40
4.344000000000
100
AcDbArc
50
235.617000000000
51
295.617000000000
0
ARC
5
9df
100
AcDbEntity
8
0-6戸当り
6
CONTINUOUS
62
7
100
AcDbCircle
10
1548.778000000000
20
3484.196000000000
30
0.0
40
4.344000000000
100
AcDbArc
50
244.384000000000
51
304.384000000000
0
ARC
5
9e0
100
AcDbEntity
8
0-6戸当り
6
CONTINUOUS
62
2
100
AcDbCircle
10
1556.138000000000
20
3494.530000000000
30
0.0
40
20.000000000000
100
AcDbArc
50
255.522000000000
51
284.478000000000
0
ARC
5
9e1
100
AcDbEntity
8
0-9扉体
6
CONTINUOUS
62
6
100
AcDbCircle
10
1596.138000000000
20
3479.452000000000
30
0.0
40
10.000000000000
100
AcDbArc
50
90.000000000000
51
270.000000000000
0
ARC
5
9e2
100
AcDbEntity
8
0-9扉体
6
CONTINUOUS
62
7
100
AcDbCircle
10
3882.118000000000
20
2148.924000000000
30
0.0
40
18.152000000000
100
AcDbArc
50
72.412000000000
51
107.588000000000
0
ARC
5
9e3
100
AcDbEntity
8
0-9扉体
6
CONTINUOUS
62
7
100
AcDbCircle
10
3873.890000000000
20
2162.220000000000
30
0.0
40
4.856000000000
100
AcDbArc
50
55.616000000000
51
115.616000000000
0
ARC
5
9e4
100
AcDbEntity
8
0-9扉体
6
CONTINUOUS
62
7
100
AcDbCircle
10
3890.346000000000
20
2162.220000000000
30
0.0
40
4.856000000000
100
AcDbArc
50
64.384000000000
51
124.384000000000
0
ARC
5
9e5
100
AcDbEntity
8
0-9扉体
6
CONTINUOUS
62
6
100
AcDbCircle
10
3882.118000000000
20
2140.928000000000
30
0.0
40
18.152000000000
100
AcDbArc
50
252.412000000000
51
287.588000000000
0
ARC
5
9e6
100
AcDbEntity
8
0-9扉体
6
CONTINUOUS
62
6
100
AcDbCircle
10
3890.346000000000
20
2127.632000000000
30
0.0
40
4.856000000000
100
AcDbArc
50
235.616000000000
51
295.616000000000
0
ARC
5
9e7
100
AcDbEntity
8
0-9扉体
6
CONTINUOUS
62
6
100
AcDbCircle
10
3873.890000000000
20
2127.632000000000
30
0.0
40
4.856000000000
100
AcDbArc
50
244.384000000000
51
304.384000000000
0
ARC
5
9e8
100
AcDbEntity
8
0-6戸当り
6
CONTINUOUS
62
7
100
AcDbCircle
10
3964.760000000000
20
1112.554000000000
30
0.0
40
16.242000000000
100
AcDbArc
50
162.412000000000
51
197.588000000000
0
ARC
5
9e9
100
AcDbEntity
8
0-6戸当り
6
CONTINUOUS
62
7
100
AcDbCircle
10
3952.864000000000
20
1119.914000000000
30
0.0
40
4.344000000000
100
AcDbArc
50
154.383000000000
51
214.383000000000
0
ARC
5
9ea
100
AcDbEntity
8
0-6戸当り
6
CONTINUOUS
62
7
100
AcDbCircle
10
3952.864000000000
20
1105.192000000000
30
0.0
40
4.344000000000
100
AcDbArc
50
145.616000000000
51
205.616000000000
0
ARC
5
9eb
100
AcDbEntity
8
0-6戸当り
6
CONTINUOUS
62
2
100
AcDbCircle
10
3963.198000000000
20
1112.554000000000
30
0.0
40
20.000000000000
100
AcDbArc
50
165.522000000000
51
194.478000000000
0
CIRCLE
5
9ec
100
AcDbEntity
8
0-6戸当り
6
CONTINUOUS
62
3
100
AcDbCircle
10
1886.140000000000
20
2172.554000000000
30
0.0
40
11.000000000000
0
CIRCLE
5
9ed
100
AcDbEntity
8
0-6戸当り
6
CONTINUOUS
62
3
100
AcDbCircle
10
1886.140000000000
20
2172.554000000000
30
0.0
40
5.000000000000
0
CIRCLE
5
9ee
100
AcDbEntity
8
0-6戸当り
6
CONTINUOUS
62
3
100
AcDbCircle
10
1886.140000000000
20
2172.554000000000
30
0.0
40
4.000000000000
0
CIRCLE
5
9ef
100
AcDbEntity
8
0-6戸当り
6
CONTINUOUS
62
3
100
AcDbCircle
10
1886.140000000000
20
2172.554000000000
30
0.0
40
8.488000000000
0
CIRCLE
5
9f0
100
AcDbEntity
8
0-6戸当り
6
CONTINUOUS
62
3
100
AcDbCircle
10
1676.140000000000
20
2172.554000000000
30
0.0
40
4.000000000000
0
CIRCLE
5
9f1
100
AcDbEntity
8
0-6戸当り
6
CONTINUOUS
62
3
100
AcDbCircle
10
2286.138000000000
20
2172.554000000000
30
0.0
40
11.000000000000
0
CIRCLE
5
9f2
100
AcDbEntity
8
0-6戸当り
6
CONTINUOUS
62
3
100
AcDbCircle
10
2286.138000000000
20
2172.554000000000
30
0.0
40
5.000000000000
0
CIRCLE
5
9f3
100
AcDbEntity
8
0-6戸当り
6
CONTINUOUS
62
3
100
AcDbCircle
10
2286.138000000000
20
2172.554000000000
30
0.0
40
4.000000000000
0
CIRCLE
5
9f4
100
AcDbEntity
8
0-6戸当り
6
CONTINUOUS
62
3
100
AcDbCircle
10
2286.138000000000
20
2172.554000000000
30
0.0
40
8.488000000000
0
CIRCLE
5
9f5
100
AcDbEntity
8
0-6戸当り
6
CONTINUOUS
62
3
100
AcDbCircle
10
1556.138000000000
20
1842.554000000000
30
0.0
40
11.000000000000
0
CIRCLE
5
9f6
100
AcDbEntity
8
0-6戸当り
6
CONTINUOUS
62
3
100
AcDbCircle
10
1556.138000000000
20
1842.554000000000
30
0.0
40
5.000000000000
0
CIRCLE
5
9f7
100
AcDbEntity
8
0-6戸当り
6
CONTINUOUS
62
3
100
AcDbCircle
10
1556.138000000000
20
1842.554000000000
30
0.0
40
4.000000000000
0
CIRCLE
5
9f8
100
AcDbEntity
8
0-6戸当り
6
CONTINUOUS
62
3
100
AcDbCircle
10
1556.138000000000
20
1842.554000000000
30
0.0
40
8.488000000000
0
CIRCLE
5
9f9
100
AcDbEntity
8
0-6戸当り
6
CONTINUOUS
62
3
100
AcDbCircle
10
1556.138000000000
20
1642.554000000000
30
0.0
40
11.000000000000
0
CIRCLE
5
9fa
100
AcDbEntity
8
0-6戸当り
6
CONTINUOUS
62
3
100
AcDbCircle
10
1556.138000000000
20
1642.554000000000
30
0.0
40
5.000000000000
0
CIRCLE
5
9fb
100
AcDbEntity
8
0-6戸当り
6
CONTINUOUS
62
3
100
AcDbCircle
10
1556.138000000000
20
1642.554000000000
30
0.0
40
4.000000000000
0
CIRCLE
5
9fc
100
AcDbEntity
8
0-6戸当り
6
CONTINUOUS
62
3
100
AcDbCircle
10
1556.138000000000
20
1642.554000000000
30
0.0
40
8.488000000000
0
CIRCLE
5
9fd
100
AcDbEntity
8
0-6戸当り
6
CONTINUOUS
62
3
100
AcDbCircle
10
1556.138000000000
20
1442.554000000000
30
0.0
40
11.000000000000
0
CIRCLE
5
9fe
100
AcDbEntity
8
0-6戸当り
6
CONTINUOUS
62
3
100
AcDbCircle
10
1556.138000000000
20
1442.554000000000
30
0.0
40
5.000000000000
0
CIRCLE
5
9ff
100
AcDbEntity
8
0-6戸当り
6
CONTINUOUS
62
3
100
AcDbCircle
10
1556.138000000000
20
1442.554000000000
30
0.0
40
4.000000000000
0
CIRCLE
5
a00
100
AcDbEntity
8
0-6戸当り
6
CONTINUOUS
62
3
100
AcDbCircle
10
1556.138000000000
20
1442.554000000000
30
0.0
40
8.488000000000
0
CIRCLE
5
a01
100
AcDbEntity
8
0-6戸当り
6
CONTINUOUS
62
3
100
AcDbCircle
10
1556.138000000000
20
1242.554000000000
30
0.0
40
11.000000000000
0
CIRCLE
5
a02
100
AcDbEntity
8
0-6戸当り
6
CONTINUOUS
62
3
100
AcDbCircle
10
1556.138000000000
20
1242.554000000000
30
0.0
40
5.000000000000
0
CIRCLE
5
a03
100
AcDbEntity
8
0-6戸当り
6
CONTINUOUS
62
3
100
AcDbCircle
10
1556.138000000000
20
1242.554000000000
30
0.0
40
4.000000000000
0
CIRCLE
5
a04
100
AcDbEntity
8
0-6戸当り
6
CONTINUOUS
62
3
100
AcDbCircle
10
1556.138000000000
20
1242.554000000000
30
0.0
40
8.488000000000
0
CIRCLE
5
a05
100
AcDbEntity
8
0-6戸当り
6
CONTINUOUS
62
3
100
AcDbCircle
10
2486.140000000000
20
1112.554000000000
30
0.0
40
11.000000000000
0
CIRCLE
5
a06
100
AcDbEntity
8
0-6戸当り
6
CONTINUOUS
62
3
100
AcDbCircle
10
2486.140000000000
20
1112.554000000000
30
0.0
40
5.000000000000
0
CIRCLE
5
a07
100
AcDbEntity
8
0-6戸当り
6
CONTINUOUS
62
3
100
AcDbCircle
10
2486.140000000000
20
1112.554000000000
30
0.0
40
4.000000000000
0
CIRCLE
5
a08
100
AcDbEntity
8
0-6戸当り
6
CONTINUOUS
62
3
100
AcDbCircle
10
2486.140000000000
20
1112.554000000000
30
0.0
40
8.488000000000
0
CIRCLE
5
a09
100
AcDbEntity
8
0-6戸当り
6
CONTINUOUS
62
3
100
AcDbCircle
10
1686.138000000000
20
1112.554000000000
30
0.0
40
11.000000000000
0
CIRCLE
5
a0a
100
AcDbEntity
8
0-6戸当り
6
CONTINUOUS
62
3
100
AcDbCircle
10
1686.138000000000
20
1112.554000000000
30
0.0
40
5.000000000000
0
CIRCLE
5
a0b
100
AcDbEntity
8
0-6戸当り
6
CONTINUOUS
62
3
100
AcDbCircle
10
1686.138000000000
20
1112.554000000000
30
0.0
40
4.000000000000
0
CIRCLE
5
a0c
100
AcDbEntity
8
0-6戸当り
6
CONTINUOUS
62
3
100
AcDbCircle
10
1686.138000000000
20
1112.554000000000
30
0.0
40
8.488000000000
0
CIRCLE
5
a0d
100
AcDbEntity
8
0-6戸当り
6
CONTINUOUS
62
3
100
AcDbCircle
10
1556.138000000000
20
2042.554000000000
30
0.0
40
11.000000000000
0
CIRCLE
5
a0e
100
AcDbEntity
8
0-6戸当り
6
CONTINUOUS
62
3
100
AcDbCircle
10
1556.138000000000
20
2042.554000000000
30
0.0
40
5.000000000000
0
CIRCLE
5
a0f
100
AcDbEntity
8
0-6戸当り
6
CONTINUOUS
62
3
100
AcDbCircle
10
1556.138000000000
20
2042.554000000000
30
0.0
40
4.000000000000
0
CIRCLE
5
a10
100
AcDbEntity
8
0-6戸当り
6
CONTINUOUS
62
3
100
AcDbCircle
10
1556.138000000000
20
2042.554000000000
30
0.0
40
8.488000000000
0
CIRCLE
5
a11
100
AcDbEntity
8
0-6戸当り
6
CONTINUOUS
62
3
100
AcDbCircle
10
2616.140000000000
20
1842.554000000000
30
0.0
40
11.000000000000
0
CIRCLE
5
a12
100
AcDbEntity
8
0-6戸当り
6
CONTINUOUS
62
3
100
AcDbCircle
10
2616.140000000000
20
1842.554000000000
30
0.0
40
5.000000000000
0
CIRCLE
5
a13
100
AcDbEntity
8
0-6戸当り
6
CONTINUOUS
62
3
100
AcDbCircle
10
2616.140000000000
20
1842.554000000000
30
0.0
40
4.000000000000
0
CIRCLE
5
a14
100
AcDbEntity
8
0-6戸当り
6
CONTINUOUS
62
3
100
AcDbCircle
10
2616.140000000000
20
1842.554000000000
30
0.0
40
8.488000000000
0
CIRCLE
5
a15
100
AcDbEntity
8
0-6戸当り
6
CONTINUOUS
62
3
100
AcDbCircle
10
2616.140000000000
20
1642.554000000000
30
0.0
40
11.000000000000
0
CIRCLE
5
a16
100
AcDbEntity
8
0-6戸当り
6
CONTINUOUS
62
3
100
AcDbCircle
10
2616.140000000000
20
1642.554000000000
30
0.0
40
5.000000000000
0
CIRCLE
5
a17
100
AcDbEntity
8
0-6戸当り
6
CONTINUOUS
62
3
100
AcDbCircle
10
2616.140000000000
20
1642.554000000000
30
0.0
40
4.000000000000
0
CIRCLE
5
a18
100
AcDbEntity
8
0-6戸当り
6
CONTINUOUS
62
3
100
AcDbCircle
10
2616.140000000000
20
1642.554000000000
30
0.0
40
8.488000000000
0
CIRCLE
5
a19
100
AcDbEntity
8
0-6戸当り
6
CONTINUOUS
62
3
100
AcDbCircle
10
2616.140000000000
20
1442.554000000000
30
0.0
40
11.000000000000
0
CIRCLE
5
a1a
100
AcDbEntity
8
0-6戸当り
6
CONTINUOUS
62
3
100
AcDbCircle
10
2616.140000000000
20
1442.554000000000
30
0.0
40
5.000000000000
0
CIRCLE
5
a1b
100
AcDbEntity
8
0-6戸当り
6
CONTINUOUS
62
3
100
AcDbCircle
10
2616.140000000000
20
1442.554000000000
30
0.0
40
4.000000000000
0
CIRCLE
5
a1c
100
AcDbEntity
8
0-6戸当り
6
CONTINUOUS
62
3
100
AcDbCircle
10
2616.140000000000
20
1442.554000000000
30
0.0
40
8.488000000000
0
CIRCLE
5
a1d
100
AcDbEntity
8
0-6戸当り
6
CONTINUOUS
62
3
100
AcDbCircle
10
2616.140000000000
20
1242.554000000000
30
0.0
40
11.000000000000
0
CIRCLE
5
a1e
100
AcDbEntity
8
0-6戸当り
6
CONTINUOUS
62
3
100
AcDbCircle
10
2616.140000000000
20
1242.554000000000
30
0.0
40
5.000000000000
0
CIRCLE
5
a1f
100
AcDbEntity
8
0-6戸当り
6
CONTINUOUS
62
3
100
AcDbCircle
10
2616.140000000000
20
1242.554000000000
30
0.0
40
4.000000000000
0
CIRCLE
5
a20
100
AcDbEntity
8
0-6戸当り
6
CONTINUOUS
62
3
100
AcDbCircle
10
2616.140000000000
20
1242.554000000000
30
0.0
40
8.488000000000
0
CIRCLE
5
a21
100
AcDbEntity
8
0-6戸当り
6
CONTINUOUS
62
3
100
AcDbCircle
10
2616.140000000000
20
2042.554000000000
30
0.0
40
11.000000000000
0
CIRCLE
5
a22
100
AcDbEntity
8
0-6戸当り
6
CONTINUOUS
62
3
100
AcDbCircle
10
2616.140000000000
20
2042.554000000000
30
0.0
40
5.000000000000
0
CIRCLE
5
a23
100
AcDbEntity
8
0-6戸当り
6
CONTINUOUS
62
3
100
AcDbCircle
10
2616.140000000000
20
2042.554000000000
30
0.0
40
4.000000000000
0
CIRCLE
5
a24
100
AcDbEntity
8
0-6戸当り
6
CONTINUOUS
62
3
100
AcDbCircle
10
2616.140000000000
20
2042.554000000000
30
0.0
40
8.488000000000
0
ARC
5
a25
100
AcDbEntity
8
0-9扉体
6
CONTINUOUS
62
6
100
AcDbCircle
10
3844.120000000000
20
1154.956000000000
30
0.0
40
6.000000000000
100
AcDbArc
50
180.000000000000
51
270.000000000000
0
ARC
5
a26
100
AcDbEntity
8
0-9扉体
6
CONTINUOUS
62
6
100
AcDbCircle
10
3837.618000000000
20
1202.458000000000
30
0.0
40
0.500000000000
100
AcDbArc
50
0.000000000000
51
90.000000000000
0
ARC
5
a27
100
AcDbEntity
8
0-9扉体
6
CONTINUOUS
62
6
100
AcDbCircle
10
3832.620000000000
20
1202.458000000000
30
0.0
40
0.500000000000
100
AcDbArc
50
90.000000000000
51
180.000000000000
0
ARC
5
a28
100
AcDbEntity
8
0-9扉体
6
CONTINUOUS
62
6
100
AcDbCircle
10
3920.120000000000
20
1154.956000000000
30
0.0
40
6.000000000000
100
AcDbArc
50
270.000000000000
51
360.000000000000
0
ARC
5
a29
100
AcDbEntity
8
0-9扉体
6
CONTINUOUS
62
7
100
AcDbCircle
10
1731.140000000000
20
2148.702000000000
30
0.0
40
18.152000000000
100
AcDbArc
50
72.412000000000
51
107.588000000000
0
ARC
5
a2a
100
AcDbEntity
8
0-9扉体
6
CONTINUOUS
62
7
100
AcDbCircle
10
1739.366000000000
20
2161.998000000000
30
0.0
40
4.856000000000
100
AcDbArc
50
64.384000000000
51
124.384000000000
0
ARC
5
a2b
100
AcDbEntity
8
0-9扉体
6
CONTINUOUS
62
7
100
AcDbCircle
10
1722.912000000000
20
2161.998000000000
30
0.0
40
4.856000000000
100
AcDbArc
50
55.616000000000
51
115.616000000000
0
ARC
5
a2c
100
AcDbEntity
8
0-9扉体
6
DOT
62
7
100
AcDbCircle
10
1731.140000000000
20
2140.706000000000
30
0.0
40
18.152000000000
100
AcDbArc
50
252.412000000000
51
287.588000000000
0
ARC
5
a2d
100
AcDbEntity
8
0-9扉体
6
DOT
62
7
100
AcDbCircle
10
1722.912000000000
20
2127.410000000000
30
0.0
40
4.856000000000
100
AcDbArc
50
244.384000000000
51
304.384000000000
0
ARC
5
a2e
100
AcDbEntity
8
0-9扉体
6
DOT
62
7
100
AcDbCircle
10
1739.366000000000
20
2127.410000000000
30
0.0
40
4.856000000000
100
AcDbArc
50
235.616000000000
51
295.616000000000
0
ARC
5
a2f
100
AcDbEntity
8
0-9扉体
6
CONTINUOUS
62
7
100
AcDbCircle
10
1841.140000000000
20
2148.702000000000
30
0.0
40
18.152000000000
100
AcDbArc
50
72.412000000000
51
107.588000000000
0
ARC
5
a30
100
AcDbEntity
8
0-9扉体
6
CONTINUOUS
62
7
100
AcDbCircle
10
1832.912000000000
20
2161.998000000000
30
0.0
40
4.856000000000
100
AcDbArc
50
55.616000000000
51
115.616000000000
0
ARC
5
a31
100
AcDbEntity
8
0-9扉体
6
CONTINUOUS
62
7
100
AcDbCircle
10
1849.366000000000
20
2161.998000000000
30
0.0
40
4.856000000000
100
AcDbArc
50
64.384000000000
51
124.384000000000
0
ARC
5
a32
100
AcDbEntity
8
0-9扉体
6
DOT
62
7
100
AcDbCircle
10
1841.140000000000
20
2140.706000000000
30
0.0
40
18.152000000000
100
AcDbArc
50
252.412000000000
51
287.588000000000
0
ARC
5
a33
100
AcDbEntity
8
0-9扉体
6
DOT
62
7
100
AcDbCircle
10
1849.366000000000
20
2127.410000000000
30
0.0
40
4.856000000000
100
AcDbArc
50
235.616000000000
51
295.616000000000
0
ARC
5
a34
100
AcDbEntity
8
0-9扉体
6
DOT
62
7
100
AcDbCircle
10
1832.912000000000
20
2127.410000000000
30
0.0
40
4.856000000000
100
AcDbArc
50
244.384000000000
51
304.384000000000
0
CIRCLE
5
a35
100
AcDbEntity
8
0-6戸当り
6
CONTINUOUS
62
3
100
AcDbCircle
10
1726.140000000000
20
2317.554000000000
30
0.0
40
13.000000000000
0
CIRCLE
5
a36
100
AcDbEntity
8
0-6戸当り
6
CONTINUOUS
62
7
100
AcDbCircle
10
1726.140000000000
20
2317.554000000000
30
0.0
40
9.500000000000
0
CIRCLE
5
a37
100
AcDbEntity
8
0-6戸当り
6
CONTINUOUS
62
3
100
AcDbCircle
10
1726.140000000000
20
2317.554000000000
30
0.0
40
6.000000000000
0
CIRCLE
5
a38
100
AcDbEntity
8
0-6戸当り
6
CONTINUOUS
62
3
100
AcDbCircle
10
1726.140000000000
20
2317.554000000000
30
0.0
40
5.000000000000
0
CIRCLE
5
a39
100
AcDbEntity
8
0-6戸当り
6
CONTINUOUS
62
3
100
AcDbCircle
10
1846.140000000000
20
2317.554000000000
30
0.0
40
13.000000000000
0
CIRCLE
5
a3a
100
AcDbEntity
8
0-6戸当り
6
CONTINUOUS
62
7
100
AcDbCircle
10
1846.140000000000
20
2317.554000000000
30
0.0
40
9.500000000000
0
CIRCLE
5
a3b
100
AcDbEntity
8
0-6戸当り
6
CONTINUOUS
62
3
100
AcDbCircle
10
1846.140000000000
20
2317.554000000000
30
0.0
40
6.000000000000
0
CIRCLE
5
a3c
100
AcDbEntity
8
0-6戸当り
6
CONTINUOUS
62
3
100
AcDbCircle
10
1846.140000000000
20
2317.554000000000
30
0.0
40
5.000000000000
0
CIRCLE
5
a3d
100
AcDbEntity
8
0-6戸当り
6
CONTINUOUS
62
3
100
AcDbCircle
10
1726.140000000000
20
2227.554000000000
30
0.0
40
13.000000000000
0
CIRCLE
5
a3e
100
AcDbEntity
8
0-6戸当り
6
CONTINUOUS
62
7
100
AcDbCircle
10
1726.140000000000
20
2227.554000000000
30
0.0
40
9.500000000000
0
CIRCLE
5
a3f
100
AcDbEntity
8
0-6戸当り
6
CONTINUOUS
62
3
100
AcDbCircle
10
1726.140000000000
20
2227.554000000000
30
0.0
40
6.000000000000
0
CIRCLE
5
a40
100
AcDbEntity
8
0-6戸当り
6
CONTINUOUS
62
3
100
AcDbCircle
10
1726.140000000000
20
2227.554000000000
30
0.0
40
5.000000000000
0
CIRCLE
5
a41
100
AcDbEntity
8
0-6戸当り
6
CONTINUOUS
62
3
100
AcDbCircle
10
1846.140000000000
20
2227.554000000000
30
0.0
40
13.000000000000
0
CIRCLE
5
a42
100
AcDbEntity
8
0-6戸当り
6
CONTINUOUS
62
7
100
AcDbCircle
10
1846.140000000000
20
2227.554000000000
30
0.0
40
9.500000000000
0
CIRCLE
5
a43
100
AcDbEntity
8
0-6戸当り
6
CONTINUOUS
62
3
100
AcDbCircle
10
1846.140000000000
20
2227.554000000000
30
0.0
40
6.000000000000
0
CIRCLE
5
a44
100
AcDbEntity
8
0-6戸当り
6
CONTINUOUS
62
3
100
AcDbCircle
10
1846.140000000000
20
2227.554000000000
30
0.0
40
5.000000000000
0
ARC
5
a45
100
AcDbEntity
8
0-9扉体
6
CONTINUOUS
62
7
100
AcDbCircle
10
2441.138000000000
20
2148.702000000000
30
0.0
40
18.152000000000
100
AcDbArc
50
72.412000000000
51
107.588000000000
0
ARC
5
a46
100
AcDbEntity
8
0-9扉体
6
CONTINUOUS
62
7
100
AcDbCircle
10
2432.912000000000
20
2161.998000000000
30
0.0
40
4.856000000000
100
AcDbArc
50
55.616000000000
51
115.616000000000
0
ARC
5
a47
100
AcDbEntity
8
0-9扉体
6
CONTINUOUS
62
7
100
AcDbCircle
10
2449.366000000000
20
2161.998000000000
30
0.0
40
4.856000000000
100
AcDbArc
50
64.384000000000
51
124.384000000000
0
ARC
5
a48
100
AcDbEntity
8
0-9扉体
6
DOT
62
7
100
AcDbCircle
10
2441.138000000000
20
2140.706000000000
30
0.0
40
18.152000000000
100
AcDbArc
50
252.412000000000
51
287.588000000000
0
ARC
5
a49
100
AcDbEntity
8
0-9扉体
6
DOT
62
7
100
AcDbCircle
10
2449.366000000000
20
2127.410000000000
30
0.0
40
4.856000000000
100
AcDbArc
50
235.616000000000
51
295.616000000000
0
ARC
5
a4a
100
AcDbEntity
8
0-9扉体
6
DOT
62
7
100
AcDbCircle
10
2432.912000000000
20
2127.410000000000
30
0.0
40
4.856000000000
100
AcDbArc
50
244.384000000000
51
304.384000000000
0
ARC
5
a4b
100
AcDbEntity
8
0-9扉体
6
CONTINUOUS
62
7
100
AcDbCircle
10
2331.138000000000
20
2148.702000000000
30
0.0
40
18.152000000000
100
AcDbArc
50
72.412000000000
51
107.588000000000
0
ARC
5
a4c
100
AcDbEntity
8
0-9扉体
6
CONTINUOUS
62
7
100
AcDbCircle
10
2339.366000000000
20
2161.998000000000
30
0.0
40
4.856000000000
100
AcDbArc
50
64.384000000000
51
124.384000000000
0
ARC
5
a4d
100
AcDbEntity
8
0-9扉体
6
CONTINUOUS
62
7
100
AcDbCircle
10
2322.910000000000
20
2161.998000000000
30
0.0
40
4.856000000000
100
AcDbArc
50
55.616000000000
51
115.616000000000
0
ARC
5
a4e
100
AcDbEntity
8
0-9扉体
6
DOT
62
7
100
AcDbCircle
10
2331.138000000000
20
2140.706000000000
30
0.0
40
18.152000000000
100
AcDbArc
50
252.412000000000
51
287.588000000000
0
ARC
5
a4f
100
AcDbEntity
8
0-9扉体
6
DOT
62
7
100
AcDbCircle
10
2322.910000000000
20
2127.410000000000
30
0.0
40
4.856000000000
100
AcDbArc
50
244.384000000000
51
304.384000000000
0
ARC
5
a50
100
AcDbEntity
8
0-9扉体
6
DOT
62
7
100
AcDbCircle
10
2339.366000000000
20
2127.410000000000
30
0.0
40
4.856000000000
100
AcDbArc
50
235.616000000000
51
295.616000000000
0
CIRCLE
5
a51
100
AcDbEntity
8
0-6戸当り
6
CONTINUOUS
62
3
100
AcDbCircle
10
2446.138000000000
20
2317.554000000000
30
0.0
40
13.000000000000
0
CIRCLE
5
a52
100
AcDbEntity
8
0-6戸当り
6
CONTINUOUS
62
7
100
AcDbCircle
10
2446.138000000000
20
2317.554000000000
30
0.0
40
9.500000000000
0
CIRCLE
5
a53
100
AcDbEntity
8
0-6戸当り
6
CONTINUOUS
62
3
100
AcDbCircle
10
2446.138000000000
20
2317.554000000000
30
0.0
40
6.000000000000
0
CIRCLE
5
a54
100
AcDbEntity
8
0-6戸当り
6
CONTINUOUS
62
3
100
AcDbCircle
10
2446.138000000000
20
2317.554000000000
30
0.0
40
5.000000000000
0
CIRCLE
5
a55
100
AcDbEntity
8
0-6戸当り
6
CONTINUOUS
62
3
100
AcDbCircle
10
2326.138000000000
20
2317.554000000000
30
0.0
40
13.000000000000
0
CIRCLE
5
a56
100
AcDbEntity
8
0-6戸当り
6
CONTINUOUS
62
7
100
AcDbCircle
10
2326.138000000000
20
2317.554000000000
30
0.0
40
9.500000000000
0
CIRCLE
5
a57
100
AcDbEntity
8
0-6戸当り
6
CONTINUOUS
62
3
100
AcDbCircle
10
2326.138000000000
20
2317.554000000000
30
0.0
40
6.000000000000
0
CIRCLE
5
a58
100
AcDbEntity
8
0-6戸当り
6
CONTINUOUS
62
3
100
AcDbCircle
10
2326.138000000000
20
2317.554000000000
30
0.0
40
5.000000000000
0
CIRCLE
5
a59
100
AcDbEntity
8
0-6戸当り
6
CONTINUOUS
62
3
100
AcDbCircle
10
2446.138000000000
20
2227.554000000000
30
0.0
40
13.000000000000
0
CIRCLE
5
a5a
100
AcDbEntity
8
0-6戸当り
6
CONTINUOUS
62
7
100
AcDbCircle
10
2446.138000000000
20
2227.554000000000
30
0.0
40
9.500000000000
0
CIRCLE
5
a5b
100
AcDbEntity
8
0-6戸当り
6
CONTINUOUS
62
3
100
AcDbCircle
10
2446.138000000000
20
2227.554000000000
30
0.0
40
6.000000000000
0
CIRCLE
5
a5c
100
AcDbEntity
8
0-6戸当り
6
CONTINUOUS
62
3
100
AcDbCircle
10
2446.138000000000
20
2227.554000000000
30
0.0
40
5.000000000000
0
CIRCLE
5
a5d
100
AcDbEntity
8
0-6戸当り
6
CONTINUOUS
62
3
100
AcDbCircle
10
2326.138000000000
20
2227.554000000000
30
0.0
40
13.000000000000
0
CIRCLE
5
a5e
100
AcDbEntity
8
0-6戸当り
6
CONTINUOUS
62
7
100
AcDbCircle
10
2326.138000000000
20
2227.554000000000
30
0.0
40
9.500000000000
0
CIRCLE
5
a5f
100
AcDbEntity
8
0-6戸当り
6
CONTINUOUS
62
3
100
AcDbCircle
10
2326.138000000000
20
2227.554000000000
30
0.0
40
6.000000000000
0
CIRCLE
5
a60
100
AcDbEntity
8
0-6戸当り
6
CONTINUOUS
62
3
100
AcDbCircle
10
2326.138000000000
20
2227.554000000000
30
0.0
40
5.000000000000
0
CIRCLE
5
a61
100
AcDbEntity
8
0-9扉体
6
CONTINUOUS
62
3
100
AcDbCircle
10
1731.140000000000
20
3413.450000000000
30
0.0
40
13.000000000000
0
CIRCLE
5
a62
100
AcDbEntity
8
0-9扉体
6
CONTINUOUS
62
7
100
AcDbCircle
10
1731.140000000000
20
3413.450000000000
30
0.0
40
9.500000000000
0
CIRCLE
5
a63
100
AcDbEntity
8
0-9扉体
6
CONTINUOUS
62
3
100
AcDbCircle
10
1731.140000000000
20
3413.450000000000
30
0.0
40
6.000000000000
0
CIRCLE
5
a64
100
AcDbEntity
8
0-9扉体
6
CONTINUOUS
62
3
100
AcDbCircle
10
1731.140000000000
20
3413.450000000000
30
0.0
40
5.000000000000
0
CIRCLE
5
a65
100
AcDbEntity
8
0-9扉体
6
CONTINUOUS
62
3
100
AcDbCircle
10
1841.140000000000
20
3413.450000000000
30
0.0
40
13.000000000000
0
CIRCLE
5
a66
100
AcDbEntity
8
0-9扉体
6
CONTINUOUS
62
7
100
AcDbCircle
10
1841.140000000000
20
3413.450000000000
30
0.0
40
9.500000000000
0
CIRCLE
5
a67
100
AcDbEntity
8
0-9扉体
6
CONTINUOUS
62
3
100
AcDbCircle
10
1841.140000000000
20
3413.450000000000
30
0.0
40
6.000000000000
0
CIRCLE
5
a68
100
AcDbEntity
8
0-9扉体
6
CONTINUOUS
62
3
100
AcDbCircle
10
1841.140000000000
20
3413.450000000000
30
0.0
40
5.000000000000
0
CIRCLE
5
a69
100
AcDbEntity
8
0-9扉体
6
CONTINUOUS
62
7
100
AcDbCircle
10
2086.140000000000
20
2175.054000000000
30
0.0
40
15.000000000000
0
POLYLINE
5
a6a
100
AcDbEntity
  8
0-8寸法
6
CONTINUOUS
62
2
100
AcDb2dPolyline
66
1
10
0
20
0
70
1
40
6.000
41
6.000
0
VERTEX
5
a6b
100
AcDbEntity
  8
0-8寸法
6
CONTINUOUS
62
2
100
AcDbVertex
100
AcDb2dVertex
10
3929.118
20
1882.554
30
0.0
42
1.000
0
VERTEX
5
a6c
100
AcDbEntity
  8
0-8寸法
6
CONTINUOUS
62
2
100
AcDbVertex
100
AcDb2dVertex
10
3935.118
20
1882.554
30
0.0
42
1.000
0
SEQEND
5
a6d
100
AcDbEntity
  8
0-8寸法
0
POLYLINE
5
a6e
100
AcDbEntity
  8
0-8寸法
6
CONTINUOUS
62
2
100
AcDb2dPolyline
66
1
10
0
20
0
70
1
40
6.000
41
6.000
0
VERTEX
5
a6f
100
AcDbEntity
  8
0-8寸法
6
CONTINUOUS
62
2
100
AcDbVertex
100
AcDb2dVertex
10
3517.120
20
2287.776
30
0.0
42
1.000
0
VERTEX
5
a70
100
AcDbEntity
  8
0-8寸法
6
CONTINUOUS
62
2
100
AcDbVertex
100
AcDb2dVertex
10
3523.120
20
2287.776
30
0.0
42
1.000
0
SEQEND
5
a71
100
AcDbEntity
  8
0-8寸法
0
POLYLINE
5
a72
100
AcDbEntity
  8
0-8寸法
6
CONTINUOUS
62
2
100
AcDb2dPolyline
66
1
10
0
20
0
70
1
40
6.000
41
6.000
0
VERTEX
5
a73
100
AcDbEntity
  8
0-8寸法
6
CONTINUOUS
62
2
100
AcDbVertex
100
AcDb2dVertex
10
3517.120
20
2197.776
30
0.0
42
1.000
0
VERTEX
5
a74
100
AcDbEntity
  8
0-8寸法
6
CONTINUOUS
62
2
100
AcDbVertex
100
AcDb2dVertex
10
3523.120
20
2197.776
30
0.0
42
1.000
0
SEQEND
5
a75
100
AcDbEntity
  8
0-8寸法
0
POLYLINE
5
a76
100
AcDbEntity
  8
0-8寸法
6
CONTINUOUS
62
2
100
AcDb2dPolyline
66
1
10
0
20
0
70
1
40
6.000
41
6.000
0
VERTEX
5
a77
100
AcDbEntity
  8
0-8寸法
6
CONTINUOUS
62
2
100
AcDbVertex
100
AcDb2dVertex
10
2576.688
20
3484.890
30
0.0
42
1.000
0
VERTEX
5
a78
100
AcDbEntity
  8
0-8寸法
6
CONTINUOUS
62
2
100
AcDbVertex
100
AcDb2dVertex
10
2582.688
20
3484.890
30
0.0
42
1.000
0
SEQEND
5
a79
100
AcDbEntity
  8
0-8寸法
0
POLYLINE
5
a7a
100
AcDbEntity
  8
0-8寸法
6
CONTINUOUS
62
2
100
AcDb2dPolyline
66
1
10
0
20
0
70
1
40
6.000
41
6.000
0
VERTEX
5
a7b
100
AcDbEntity
  8
0-8寸法
6
CONTINUOUS
62
2
100
AcDbVertex
100
AcDb2dVertex
10
3915.216
20
2243.372
30
0.0
42
1.000
0
VERTEX
5
a7c
100
AcDbEntity
  8
0-8寸法
6
CONTINUOUS
62
2
100
AcDbVertex
100
AcDb2dVertex
10
3921.216
20
2243.372
30
0.0
42
1.000
0
SEQEND
5
a7d
100
AcDbEntity
  8
0-8寸法
0
POLYLINE
5
a7e
100
AcDbEntity
  8
0-8寸法
6
CONTINUOUS
62
2
100
AcDb2dPolyline
66
1
10
0
20
0
70
1
40
6.000
41
6.000
0
VERTEX
5
a7f
100
AcDbEntity
  8
0-8寸法
6
CONTINUOUS
62
2
100
AcDbVertex
100
AcDb2dVertex
10
3961.560
20
1101.052
30
0.0
42
1.000
0
VERTEX
5
a80
100
AcDbEntity
  8
0-8寸法
6
CONTINUOUS
62
2
100
AcDbVertex
100
AcDb2dVertex
10
3967.560
20
1101.052
30
0.0
42
1.000
0
SEQEND
5
a81
100
AcDbEntity
  8
0-8寸法
0
POLYLINE
5
a82
100
AcDbEntity
  8
0-8寸法
6
CONTINUOUS
62
2
100
AcDb2dPolyline
66
1
10
0
20
0
70
1
40
6.000
41
6.000
0
VERTEX
5
a83
100
AcDbEntity
  8
0-8寸法
6
CONTINUOUS
62
2
100
AcDbVertex
100
AcDb2dVertex
10
1751.204
20
2262.924
30
0.0
42
1.000
0
VERTEX
5
a84
100
AcDbEntity
  8
0-8寸法
6
CONTINUOUS
62
2
100
AcDbVertex
100
AcDb2dVertex
10
1757.204
20
2262.924
30
0.0
42
1.000
0
SEQEND
5
a85
100
AcDbEntity
  8
0-8寸法
0
POLYLINE
5
a86
100
AcDbEntity
  8
0-8寸法
6
CONTINUOUS
62
2
100
AcDb2dPolyline
66
1
10
0
20
0
70
1
40
6.000
41
6.000
0
VERTEX
5
a87
100
AcDbEntity
  8
0-8寸法
6
CONTINUOUS
62
2
100
AcDbVertex
100
AcDb2dVertex
10
2412.188
20
2222.294
30
0.0
42
1.000
0
VERTEX
5
a88
100
AcDbEntity
  8
0-8寸法
6
CONTINUOUS
62
2
100
AcDbVertex
100
AcDb2dVertex
10
2418.188
20
2222.294
30
0.0
42
1.000
0
SEQEND
5
a89
100
AcDbEntity
  8
0-8寸法
0
TEXT
5
a8a
100
AcDbEntity
8
0-8寸法
62
7
370
-3
100
AcDbText
10
2678.539
20
747.048
30
0.0
40
50.490
1
20
41
0.597
50
0.000
100
AcDbText
0
TEXT
5
a8b
100
AcDbEntity
8
0-8寸法
62
7
370
-3
100
AcDbText
10
1438.539
20
747.048
30
0.0
40
50.490
1
20
41
0.597
50
0.000
100
AcDbText
0
TEXT
5
a8c
100
AcDbEntity
8
0-8寸法
62
7
370
-3
100
AcDbText
10
1156.644
20
2234.953
30
0.0
40
50.490
1
20
41
0.597
50
90.000
100
AcDbText
0
TEXT
5
a8d
100
AcDbEntity
8
0-8寸法
62
7
370
-3
100
AcDbText
10
1156.644
20
994.953
30
0.0
40
50.490
1
20
41
0.597
50
90.000
100
AcDbText
0
TEXT
5
a8e
100
AcDbEntity
8
0-8寸法
62
7
370
-3
100
AcDbText
10
1571.664
20
2962.048
30
0.0
40
50.490
1
120
41
0.685
50
0.000
100
AcDbText
0
TEXT
5
a8f
100
AcDbEntity
8
0-8寸法
62
7
370
-3
100
AcDbText
10
2041.664
20
2962.048
30
0.0
40
50.490
1
400
41
0.672
50
0.000
100
AcDbText
0
TEXT
5
a90
100
AcDbEntity
8
0-8寸法
62
7
370
-3
100
AcDbText
10
2511.664
20
2962.048
30
0.0
40
50.490
1
120
41
0.685
50
0.000
100
AcDbText
0
TEXT
5
a91
100
AcDbEntity
8
0-8寸法
62
7
370
-3
100
AcDbText
10
4515.624
20
2168.078
30
0.0
40
50.490
1
240
41
0.603
50
90.000
100
AcDbText
0
TEXT
5
a92
100
AcDbEntity
8
0-8寸法
62
7
370
-3
100
AcDbText
10
4365.624
20
1968.078
30
0.0
40
50.490
1
100
41
0.775
50
90.000
100
AcDbText
0
TEXT
5
a93
100
AcDbEntity
8
0-8寸法
62
7
370
-3
100
AcDbText
10
3850.519
20
1762.048
30
0.0
40
50.490
1
20
41
0.597
50
0.000
100
AcDbText
0
TEXT
5
a94
100
AcDbEntity
8
0-8寸法
62
7
370
-3
100
AcDbText
10
3712.644
20
1912.048
30
0.0
40
50.490
1
100
41
0.775
50
0.000
100
AcDbText
0
TEXT
5
a95
100
AcDbEntity
8
0-8寸法
62
7
370
-3
100
AcDbText
10
3340.624
20
2000.065
30
0.0
40
50.490
1
50
41
0.626
50
90.000
100
AcDbText
0
TEXT
5
a96
100
AcDbEntity
8
0-8寸法
62
7
370
-3
100
AcDbText
10
3340.624
20
2193.190
30
0.0
40
50.490
1
190
41
0.736
50
90.000
100
AcDbText
0
TEXT
5
a97
100
AcDbEntity
8
0-8寸法
62
7
370
-3
100
AcDbText
10
3490.624
20
2215.177
30
0.0
40
50.490
1
90
41
0.657
50
90.000
100
AcDbText
0
TEXT
5
a98
100
AcDbEntity
8
0-8寸法
62
7
370
-3
100
AcDbText
10
3490.624
20
2372.565
30
0.0
40
50.490
1
45
41
0.588
50
90.000
100
AcDbText
0
TEXT
5
a99
100
AcDbEntity
8
0-A文字
62
7
370
-3
100
AcDbText
10
1696.090
20
1307.048
30
0.0
40
50.490
1
C100x60x6
41
0.640
50
0.000
100
AcDbText
0
TEXT
5
a9a
100
AcDbEntity
8
0-A文字
62
7
370
-3
100
AcDbText
10
1729.840
20
1232.048
30
0.0
40
50.490
1
(A5083)
41
0.659
50
0.000
100
AcDbText
0
TEXT
5
a9b
100
AcDbEntity
8
0-A文字
62
7
370
-3
100
AcDbText
10
1696.090
20
1687.048
30
0.0
40
50.490
1
C100x60x6
41
0.640
50
0.000
100
AcDbText
0
TEXT
5
a9c
100
AcDbEntity
8
0-A文字
62
7
370
-3
100
AcDbText
10
1729.840
20
1612.048
30
0.0
40
50.490
1
(A5083)
41
0.659
50
0.000
100
AcDbText
0
MTEXT
5
a9d
100
AcDbEntity
8
0-8寸法
62
7
370
-3
100
AcDbMText
10
3516.945
20
2656.438
30
0.0
40
47.685
41
0.000
71
7
72
1
1
\W1.093;▽{\W0.787;H.W.L.}
7
STANDARD
11
1.00000
21
0.00000
31
0.0
0
TEXT
5
a9e
100
AcDbEntity
8
0-8寸法
62
7
370
-3
100
AcDbText
10
1411.664
20
3955.946
30
0.0
40
50.490
1
100
41
0.775
50
0.000
100
AcDbText
0
TEXT
5
a9f
100
AcDbEntity
8
0-8寸法
62
7
370
-3
100
AcDbText
10
2671.664
20
3955.946
30
0.0
40
50.490
1
100
41
0.775
50
0.000
100
AcDbText
0
TEXT
5
aa0
100
AcDbEntity
8
0-8寸法
62
7
370
-3
100
AcDbText
10
3991.987
20
2662.048
30
0.0
40
50.490
1
42
41
0.563
50
0.000
100
AcDbText
0
TEXT
5
aa1
100
AcDbEntity
8
0-8寸法
62
7
370
-3
100
AcDbText
10
3991.987
20
2812.048
30
0.0
40
50.490
1
72
41
0.560
50
0.000
100
AcDbText
0
TEXT
5
aa2
100
AcDbEntity
8
0-A文字
62
7
370
-3
100
AcDbText
10
3363.716
20
1706.374
30
0.0
40
50.490
1
水圧方向
41
0.963
50
0.000
100
AcDbText
0
MTEXT
5
aa3
100
AcDbEntity
8
0-8寸法
62
7
370
-3
100
AcDbMText
10
4521.234
20
1479.953
30
0.0
40
47.685
41
0.000
71
7
72
1
1
\W1.093;有効高{\W0.787; 900}
7
STANDARD
11
0.00000
21
1.00000
31
0.0
0
MTEXT
5
aa4
100
AcDbEntity
8
0-8寸法
62
7
370
-3
100
AcDbMText
10
1906.664
20
891.438
30
0.0
40
47.685
41
0.000
71
7
72
1
1
\W1.093;扉体幅{\W0.787; 1000}
7
STANDARD
11
1.00000
21
0.00000
31
0.0
0
MTEXT
5
aa5
100
AcDbEntity
8
0-8寸法
62
7
370
-3
100
AcDbMText
10
1906.666
20
591.438
30
0.0
40
47.685
41
0.000
71
7
72
1
1
\W1.093;戸当幅{\W0.787; 1100}
7
STANDARD
11
1.00000
21
0.00000
31
0.0
0
MTEXT
5
aa6
100
AcDbEntity
8
0-8寸法
62
7
370
-3
100
AcDbMText
10
1312.254
20
1463.078
30
0.0
40
47.685
41
0.000
71
7
72
1
1
\W1.093;扉体高{\W0.787; 1000}
7
STANDARD
11
0.00000
21
1.00000
31
0.0
0
MTEXT
5
aa7
100
AcDbEntity
8
0-8寸法
62
7
370
-3
100
AcDbMText
10
1012.254
20
1463.078
30
0.0
40
47.685
41
0.000
71
7
72
1
1
\W1.093;戸当高{\W0.787; 1100}
7
STANDARD
11
0.00000
21
1.00000
31
0.0
0
TEXT
5
aa8
100
AcDbEntity
8
0-8寸法
62
7
370
-3
100
AcDbText
10
1736.664
20
2962.048
30
0.0
40
50.490
1
210
41
0.685
50
0.000
100
AcDbText
0
TEXT
5
aa9
100
AcDbEntity
8
0-8寸法
62
7
370
-3
100
AcDbText
10
2346.664
20
2962.048
30
0.0
40
50.490
1
210
41
0.685
50
0.000
100
AcDbText
0
MTEXT
5
aaa
100
AcDbEntity
8
0-8寸法
62
7
370
-3
100
AcDbMText
10
1923.539
20
3950.336
30
0.0
40
47.685
41
0.000
71
7
72
1
1
\W1.093;有効幅{\W0.787; 900}
7
STANDARD
11
1.00000
21
0.00000
31
0.0
0
TEXT
5
aab
100
AcDbEntity
8
0-8寸法
62
7
370
-3
100
AcDbText
10
1576.664
20
747.048
30
0.0
40
50.490
1
130
41
0.719
50
0.000
100
AcDbText
0
TEXT
5
aac
100
AcDbEntity
8
0-8寸法
62
7
370
-3
100
AcDbText
10
2506.664
20
747.048
30
0.0
40
50.490
1
130
41
0.719
50
0.000
100
AcDbText
0
TEXT
5
aad
100
AcDbEntity
8
0-8寸法
62
7
370
-3
100
AcDbText
10
1156.644
20
1133.078
30
0.0
40
50.490
1
130
41
0.719
50
90.000
100
AcDbText
0
TEXT
5
aae
100
AcDbEntity
8
0-8寸法
62
7
370
-3
100
AcDbText
10
1156.644
20
2063.078
30
0.0
40
50.490
1
130
41
0.719
50
90.000
100
AcDbText
0
TEXT
5
aaf
100
AcDbEntity
8
0-8寸法
62
7
370
-3
100
AcDbText
10
1156.644
20
1479.953
30
0.0
40
50.490
1
4x200P=800
41
0.618
50
90.000
100
AcDbText
0
TEXT
5
ab0
100
AcDbEntity
8
0-8寸法
62
7
370
-3
100
AcDbText
10
1923.539
20
747.048
30
0.0
40
50.490
1
4x200P=800
41
0.618
50
0.000
100
AcDbText
0
TEXT
5
ab1
100
AcDbEntity
8
0-A文字
62
7
370
-3
100
AcDbText
10
2421.644
20
1722.504
30
0.0
40
50.490
1
C100x60x6
41
0.640
50
90.000
100
AcDbText
0
TEXT
5
ab2
100
AcDbEntity
8
0-A文字
62
7
370
-3
100
AcDbText
10
2496.644
20
1756.254
30
0.0
40
50.490
1
(A5083)
41
0.659
50
90.000
100
AcDbText
0
TEXT
5
ab3
100
AcDbEntity
8
0-A文字
62
7
370
-3
100
AcDbText
10
2225.644
20
1756.254
30
0.0
40
50.490
1
(A5083)
41
0.659
50
90.000
100
AcDbText
0
MTEXT
5
ab4
100
AcDbEntity
8
0-8寸法
62
7
370
-3
100
AcDbMText
10
3196.234
20
1640.578
30
0.0
40
47.685
41
0.000
71
7
72
1
1
\W1.093;設計水深{\W0.787; 3.20 m}
7
STANDARD
11
0.00000
21
1.00000
31
0.0
0
TEXT
5
ab5
100
AcDbEntity
8
0-8寸法
62
7
370
-3
100
AcDbText
10
2341.664
20
2512.048
30
0.0
40
50.490
1
120
41
0.685
50
0.000
100
AcDbText
0
TEXT
5
ab6
100
AcDbEntity
8
0-8寸法
62
7
370
-3
100
AcDbText
10
2341.664
20
2662.048
30
0.0
40
50.490
1
150
41
0.710
50
0.000
100
AcDbText
0
TEXT
5
ab7
100
AcDbEntity
8
0-8寸法
62
7
370
-3
100
AcDbText
10
2041.664
20
2812.048
30
0.0
40
50.490
1
600
41
0.653
50
0.000
100
AcDbText
0
LINE
5
ab8
100
AcDbEntity
8
F-F_J_ADD
6
HIDDEN
62
109
100
AcDbLine
10
2611.140000000000
20
3559.956000000000
30
0.0
11
2621.140000000000
21
3559.956000000000
31
0.0
0
LINE
5
ab9
100
AcDbEntity
8
F-F_J_ADD
6
HIDDEN
62
109
100
AcDbLine
10
4028.624000000000
20
1117.554000000000
30
0.0
11
4028.624000000000
21
1107.554000000000
31
0.0
0
LINE
5
aba
100
AcDbEntity
8
F-F_J_ADD
6
HIDDEN
62
6
100
AcDbLine
10
1586.138000000000
20
2092.554000000000
30
0.0
11
2586.140000000000
21
2092.554000000000
31
0.0
0
LINE
5
abb
100
AcDbEntity
8
F-F_J_ADD
6
HIDDEN
62
109
100
AcDbLine
10
2311.138000000000
20
2782.554000000000
30
0.0
11
2386.138000000000
21
2782.554000000000
31
0.0
0
LINE
5
abc
100
AcDbEntity
8
F-F_J_ADD
6
HIDDEN
62
6
100
AcDbLine
10
1586.138000000000
20
1192.554000000000
30
0.0
11
2586.140000000000
21
1192.554000000000
31
0.0
0
LINE
5
abd
100
AcDbEntity
8
0-8寸法
6
CONTINUOUS
62
4
100
AcDbLine
10
2766.138000000000
20
2932.554000000000
30
0.0
11
2766.138000000000
21
2782.554000000000
31
0.0
0
TEXT
5
abe
100
AcDbEntity
8
0-8寸法
62
7
370
-3
100
AcDbText
10
3008.478
20
597.048
30
0.0
40
50.490
1
シ－リング剤充填とする。
41
0.963
50
0.000
100
AcDbText
0
MTEXT
5
abf
100
AcDbEntity
8
0-8寸法
62
7
370
-3
100
AcDbMText
10
3019.319
20
891.438
30
0.0
40
47.685
41
0.000
71
7
72
1
1
\W1.093;戸当り{\W0.787;  PL-12t(SUS304)}
7
STANDARD
11
1.00000
21
0.00000
31
0.0
0
TEXT
5
ac0
100
AcDbEntity
8
0-A文字
62
7
370
-3
100
AcDbText
10
2150.644
20
1790.004
30
0.0
40
50.490
41
0.574
50
90.000
1
PL-8t
72
1
11
2126.104
21
1871.979
31
0.0
100
AcDbText
73
2
0
TEXT
5
ac1
100
AcDbEntity
8
0-8寸法
62
7
370
-3
100
AcDbText
10
4515.624
20
968.078
30
0.0
40
50.490
1
100
41
0.775
50
90.000
100
AcDbText
0
TEXT
5
ac2
100
AcDbEntity
8
0-8寸法
62
7
370
-3
100
AcDbText
10
3490.624
20
2052.677
30
0.0
40
50.490
41
0.564
50
90.000
1
55
72
1
11
3466.084
21
2084.027
31
0.0
100
AcDbText
73
2
0
MTEXT
5
ac3
100
AcDbEntity
8
0-8寸法
62
7
370
-3
100
AcDbMText
10
3229.637
20
2840.188
30
0.0
40
47.685
41
0.000
71
5
72
1
1
\W1.093;六角{\W0.787;BT}＆{\W0.787;NT M12(SUS304}相当{\W0.787;)}
7
STANDARD
11
1.00000
21
0.00000
31
0.0
0
MTEXT
5
ac4
100
AcDbEntity
8
0-8寸法
62
7
370
-3
100
AcDbMText
10
3194.637
20
2989.982
30
0.0
40
47.685
41
0.000
71
5
72
1
1
\W1.093;吊り金具{\W0.787;   PL-9t(SUS304)}
7
STANDARD
11
1.00000
21
0.00000
31
0.0
0
MTEXT
5
ac5
100
AcDbEntity
8
0-8寸法
62
7
370
-3
100
AcDbMText
10
3467.416
20
3983.684
30
0.0
40
47.685
41
0.000
71
5
72
1
1
\W1.093;水密ゴム{\W0.787; }Ｐ型{\W0.787; }φ{\W0.787;20x60x8(CRｺﾞﾑ)}
7
STANDARD
11
1.00000
21
0.00000
31
0.0
0
MTEXT
5
ac6
100
AcDbEntity
8
0-8寸法
62
7
370
-3
100
AcDbMText
10
3331.492
20
3835.149
30
0.0
40
47.685
41
0.000
71
5
72
1
1
\W1.093;ゴム押え{\W0.787; PL-6t(SUS304)}
7
STANDARD
11
1.00000
21
0.00000
31
0.0
0
MTEXT
5
ac7
100
AcDbEntity
8
0-8寸法
62
7
370
-3
100
AcDbMText
10
2961.934
20
3650.336
30
0.0
40
47.685
41
0.000
71
7
72
1
1
\W1.093;皿{\W0.787;BT}＆{\W0.787;NT M8(SUS304}相当{\W0.787;)}
7
STANDARD
11
1.00000
21
0.00000
31
0.0
0
MTEXT
5
ac8
100
AcDbEntity
8
0-8寸法
62
7
370
-3
100
AcDbMText
10
528.776
20
2806.438
30
0.0
40
47.685
41
0.000
71
7
72
1
1
\W1.093;吊り{\W0.787;ﾌﾞﾗｹｯﾄ PL-9t(SUS304)}
7
STANDARD
11
1.00000
21
0.00000
31
0.0
0
LINE
5
ac9
100
AcDbEntity
8
0-8寸法
6
CONTINUOUS
62
4
100
AcDbLine
10
1406.138000000000
20
2782.554000000000
30
0.0
11
509.430732484075
21
2782.554000000000
31
0.0
0
LINE
5
aca
100
AcDbEntity
8
0-8寸法
6
CONTINUOUS
62
4
100
AcDbLine
10
1406.138000000000
20
2632.554000000000
30
0.0
11
509.430732484075
21
2632.554000000000
31
0.0
0
LINE
5
acb
100
AcDbEntity
8
0-8寸法
6
CONTINUOUS
62
4
100
AcDbLine
10
1406.138000000000
20
2482.554000000000
30
0.0
11
509.430732484075
21
2482.554000000000
31
0.0
0
LINE
5
acc
100
AcDbEntity
8
0-8寸法
6
CONTINUOUS
62
4
100
AcDbLine
10
3663.742038216559
20
2782.554000000000
30
0.0
11
2766.138000000000
21
2782.554000000000
31
0.0
0
LINE
5
acd
100
AcDbEntity
8
0-8寸法
6
CONTINUOUS
62
4
100
AcDbLine
10
3663.742038216559
20
2932.554000000000
30
0.0
11
2766.138000000000
21
2932.554000000000
31
0.0
0
LINE
5
ace
100
AcDbEntity
8
0-8寸法
6
CONTINUOUS
62
4
100
AcDbLine
10
3997.945859872610
20
3926.452000000000
30
0.0
11
2936.138000000000
21
3926.452000000000
31
0.0
0
LINE
5
acf
100
AcDbEntity
8
0-8寸法
6
CONTINUOUS
62
4
100
AcDbLine
10
3997.945859872610
20
3776.452000000000
30
0.0
11
2936.138000000000
21
3776.452000000000
31
0.0
0
LINE
5
ad0
100
AcDbEntity
8
0-8寸法
6
CONTINUOUS
62
4
100
AcDbLine
10
3997.945859872610
20
3626.452000000000
30
0.0
11
2936.138000000000
21
3626.452000000000
31
0.0
0
LINE
5
ad1
100
AcDbEntity
8
0-8寸法
6
CONTINUOUS
62
4
100
AcDbLine
10
3787.614000000000
20
567.554000000000
30
0.0
11
2998.093152866240
21
567.554000000000
31
0.0
0
LINE
5
ad2
100
AcDbEntity
8
0-9扉体
6
CONTINUOUS
62
7
100
AcDbLine
10
2103.640000000000
20
2207.554000000000
30
0.0
11
2068.640000000000
21
2207.554000000000
31
0.0
0
LINE
5
ad3
100
AcDbEntity
8
0-9扉体
6
CONTINUOUS
62
7
100
AcDbLine
10
2053.640000000000
20
2192.554000000000
30
0.0
11
2068.640000000000
21
2207.554000000000
31
0.0
0
LINE
5
ad4
100
AcDbEntity
8
0-9扉体
6
CONTINUOUS
62
7
100
AcDbLine
10
2118.640000000000
20
2192.554000000000
30
0.0
11
2103.640000000000
21
2207.554000000000
31
0.0
0
ELLIPSE
  5
ad5
100
AcDbEntity
8
1-0
6
CONTINUOUS
62
3
100
AcDbEllipse
10
4417.489500000000
20
283.543500000000
30
0.0
11
45.000000000000
21
0.000000000000
31
0.0
210
0.0
220
0.0
230
1.0
40
0.833300000000
41
0.000000000000
42
6.283185307180
0
ELLIPSE
  5
ad6
100
AcDbEntity
8
1-0
6
CONTINUOUS
62
3
100
AcDbEllipse
10
4417.489500000000
20
283.543500000000
30
0.0
11
45.000000000000
21
0.000000000000
31
0.0
210
0.0
220
0.0
230
1.0
40
0.833300000000
41
0.000000000000
42
6.283185307180
0
LINE
5
ad7
100
AcDbEntity
8
1-0
6
CONTINUOUS
62
3
100
AcDbLine
10
4350.000000000000
20
810.000000000000
30
0.0
11
4350.000000000000
21
225.000000000000
31
0.0
0
LINE
5
ad8
100
AcDbEntity
8
1-0
6
CONTINUOUS
62
3
100
AcDbLine
10
4350.000000000000
20
810.000000000000
30
0.0
11
6075.000000000000
21
810.000000000000
31
0.0
0
LINE
5
ad9
100
AcDbEntity
8
1-0
6
CONTINUOUS
62
3
100
AcDbLine
10
4350.000000000000
20
360.000000000000
30
0.0
11
6075.000000000000
21
360.000000000000
31
0.0
0
LINE
5
ada
100
AcDbEntity
8
1-0
6
CONTINUOUS
62
3
100
AcDbLine
10
5212.499999999999
20
810.000000000000
30
0.0
11
5212.499999999999
21
225.000000000000
31
0.0
0
LINE
5
adb
100
AcDbEntity
8
1-0
6
CONTINUOUS
62
3
100
AcDbLine
10
5122.499999999999
20
810.000000000000
30
0.0
11
5122.499999999999
21
225.000000000000
31
0.0
0
LINE
5
adc
100
AcDbEntity
8
1-0
6
CONTINUOUS
62
3
100
AcDbLine
10
5925.000000000000
20
360.000000000000
30
0.0
11
5925.000000000000
21
225.000000000000
31
0.0
0
LINE
5
add
100
AcDbEntity
8
1-0
6
CONTINUOUS
62
3
100
AcDbLine
10
5452.499999999999
20
525.000000000000
30
0.0
11
5452.499999999999
21
360.000000000000
31
0.0
0
LINE
5
ade
100
AcDbEntity
8
1-0
6
CONTINUOUS
62
3
100
AcDbLine
10
5527.499999999999
20
525.000000000000
30
0.0
11
5527.499999999999
21
360.000000000000
31
0.0
0
LINE
5
adf
100
AcDbEntity
8
1-0
6
CONTINUOUS
62
3
100
AcDbLine
10
5759.999999999999
20
525.000000000000
30
0.0
11
5759.999999999999
21
360.000000000000
31
0.0
0
LINE
5
ae0
100
AcDbEntity
8
1-0
6
CONTINUOUS
62
3
100
AcDbLine
10
5834.999999999999
20
525.000000000000
30
0.0
11
5834.999999999999
21
360.000000000000
31
0.0
0
LINE
5
ae1
100
AcDbEntity
8
1-0
6
CONTINUOUS
62
3
100
AcDbLine
10
5122.499999999999
20
525.000000000000
30
0.0
11
6075.000000000000
21
525.000000000000
31
0.0
0
LINE
5
ae2
100
AcDbEntity
8
1-0
6
CONTINUOUS
62
3
100
AcDbLine
10
4350.000000000000
20
495.000000000000
30
0.0
11
5122.499999999999
21
495.000000000000
31
0.0
0
LINE
5
ae3
100
AcDbEntity
8
1-0
6
CONTINUOUS
62
3
100
AcDbLine
10
4350.000000000000
20
630.000000000000
30
0.0
11
5122.499999999999
21
630.000000000000
31
0.0
0
LINE
5
ae4
100
AcDbEntity
8
1-0
6
CONTINUOUS
62
3
100
AcDbLine
10
4432.498500000000
20
810.000000000000
30
0.0
11
4432.498500000000
21
360.000000000000
31
0.0
0
LINE
5
ae5
100
AcDbEntity
8
1-0
6
CONTINUOUS
62
3
100
AcDbLine
10
4815.000000000000
20
630.000000000000
30
0.0
11
4815.000000000000
21
360.000000000000
31
0.0
0
LINE
5
ae6
100
AcDbEntity
8
1-0
6
CONTINUOUS
62
3
100
AcDbLine
10
4732.500000000000
20
630.000000000000
30
0.0
11
4732.500000000000
21
360.000000000000
31
0.0
0
LINE
5
ae7
100
AcDbEntity
8
1-0
6
CONTINUOUS
62
3
100
AcDbLine
10
5947.500000000000
20
247.500000000000
30
0.0
11
6000.000000000000
21
338.433000000000
31
0.0
0
LINE
5
ae8
100
AcDbEntity
8
1-0
6
CONTINUOUS
62
3
100
AcDbLine
10
6052.500000000000
20
247.500000000000
30
0.0
11
6000.000000000000
21
338.433000000000
31
0.0
0
LINE
5
ae9
100
AcDbEntity
8
1-0
6
CONTINUOUS
62
3
100
AcDbLine
10
5947.500000000000
20
247.500000000000
30
0.0
11
6052.500000000000
21
247.500000000000
31
0.0
0
LINE
5
aea
100
AcDbEntity
8
1-0
6
CONTINUOUS
62
3
100
AcDbLine
10
4385.111999999999
20
284.916000000000
30
0.0
11
4434.085499999999
21
256.641000000000
31
0.0
0
LINE
5
aeb
100
AcDbEntity
8
1-0
6
CONTINUOUS
62
3
100
AcDbLine
10
4400.479500000000
20
289.033500000000
30
0.0
11
4445.119499999999
21
263.260500000000
31
0.0
0
LINE
5
aec
100
AcDbEntity
8
1-0
6
CONTINUOUS
62
3
100
AcDbLine
10
4415.846999999999
20
293.151000000000
30
0.0
11
4452.188999999999
21
272.169000000000
31
0.0
0
LINE
5
aed
100
AcDbEntity
8
1-0
6
CONTINUOUS
62
3
100
AcDbLine
10
4389.355500000000
20
286.053000000000
30
0.0
11
4379.989500000000
21
283.543500000000
31
0.0
0
LINE
5
aee
100
AcDbEntity
8
1-0
6
CONTINUOUS
62
3
100
AcDbLine
10
4400.737499999999
20
284.554500000000
30
0.0
11
4441.915499999999
21
260.781000000000
31
0.0
0
LINE
5
aef
100
AcDbEntity
8
1-0
6
CONTINUOUS
62
3
100
AcDbLine
10
4416.106500000000
20
288.672000000000
30
0.0
11
4450.257000000000
21
268.954500000000
31
0.0
0
LINE
5
af0
100
AcDbEntity
8
1-0
6
CONTINUOUS
62
3
100
AcDbLine
10
4431.473999999999
20
292.789500000000
30
0.0
11
4454.632500000000
21
279.418500000000
31
0.0
0
LINE
5
af1
100
AcDbEntity
8
1-0
6
CONTINUOUS
62
3
100
AcDbLine
10
4404.723000000000
20
290.170500000000
30
0.0
11
4393.063499999999
21
287.046000000000
31
0.0
0
LINE
5
af2
100
AcDbEntity
8
1-0
6
CONTINUOUS
62
3
100
AcDbLine
10
4420.090499999999
20
294.288000000000
30
0.0
11
4408.772999999999
21
291.256500000000
31
0.0
0
ARC
5
af3
100
AcDbEntity
8
1-0
6
CONTINUOUS
62
3
100
AcDbCircle
10
4393.237499999999
20
271.564500000000
30
0.0
40
15.000000000000
100
AcDbArc
50
60.000000000000
51
105.000000000000
0
ARC
5
af4
100
AcDbEntity
8
1-0
6
CONTINUOUS
62
3
100
AcDbCircle
10
4408.605000000000
20
275.682000000000
30
0.0
40
15.000000000000
100
AcDbArc
50
60.000000000000
51
105.000000000000
0
ARC
5
af5
100
AcDbEntity
8
1-0
6
CONTINUOUS
62
3
100
AcDbCircle
10
4423.972500000000
20
279.799500000000
30
0.0
40
15.000000000000
100
AcDbArc
50
60.000000000000
51
105.000000000000
0
ELLIPSE
  5
af6
100
AcDbEntity
8
1-0
6
CONTINUOUS
62
3
100
AcDbEllipse
10
4417.489500000000
20
283.543500000000
30
0.0
11
37.500000000000
21
0.000000000000
31
0.0
210
0.0
220
0.0
230
1.0
40
0.800000000000
41
0.270792616483
42
6.145261525885
0
TEXT
5
af7
100
AcDbEntity
8
1-0
62
7
370
-3
100
AcDbText
10
4390.240
20
774.730
30
0.0
40
39.697
1
客先
41
0.856
50
0.000
  7
TATEGAKI
100
AcDbText
0
LINE
5
af8
100
AcDbEntity
8
F-F_J_ADD
6
HIDDEN
62
109
100
AcDbLine
10
4391.249249999999
20
360.000000000000
30
0.0
11
4391.249249999999
21
810.000000000000
31
0.0
0
LINE
5
af9
100
AcDbEntity
8
F-F_J_ADD
6
HIDDEN
62
109
100
AcDbLine
10
4777.499249999999
20
810.000000000000
30
0.0
11
4777.499249999999
21
630.000000000000
31
0.0
0
LINE
5
afa
100
AcDbEntity
8
F-F_J_ADD
6
HIDDEN
62
109
100
AcDbLine
10
4582.499250000000
20
360.000000000000
30
0.0
11
4582.499250000000
21
630.000000000000
31
0.0
0
LINE
5
afb
100
AcDbEntity
8
F-F_J_ADD
6
HIDDEN
62
109
100
AcDbLine
10
4773.750000000000
20
630.000000000000
30
0.0
11
4773.750000000000
21
360.000000000000
31
0.0
0
LINE
5
afc
100
AcDbEntity
8
F-F_J_ADD
6
HIDDEN
62
109
100
AcDbLine
10
4968.749999999999
20
630.000000000000
30
0.0
11
4968.749999999999
21
360.000000000000
31
0.0
0
LINE
5
afd
100
AcDbEntity
8
F-F_J_ADD
6
HIDDEN
62
109
100
AcDbLine
10
4350.000000000000
20
720.000000000000
30
0.0
11
5122.499999999999
21
720.000000000000
31
0.0
0
LINE
5
afe
100
AcDbEntity
8
F-F_J_ADD
6
HIDDEN
62
109
100
AcDbLine
10
5122.499999999999
20
562.500000000000
30
0.0
11
4350.000000000000
21
562.500000000000
31
0.0
0
LINE
5
aff
100
AcDbEntity
8
F-F_J_ADD
6
HIDDEN
62
109
100
AcDbLine
10
5122.499999999999
20
427.500000000000
30
0.0
11
4350.000000000000
21
427.500000000000
31
0.0
0
LINE
5
b00
100
AcDbEntity
8
F-F_J_ADD
6
HIDDEN
62
109
100
AcDbLine
10
5167.499999999999
20
810.000000000000
30
0.0
11
5167.499999999999
21
225.000000000000
31
0.0
0
LINE
5
b01
100
AcDbEntity
8
F-F_J_ADD
6
HIDDEN
62
109
100
AcDbLine
10
5332.499999999999
20
525.000000000000
30
0.0
11
5332.499999999999
21
360.000000000000
31
0.0
0
LINE
5
b02
100
AcDbEntity
8
F-F_J_ADD
6
HIDDEN
62
109
100
AcDbLine
10
5489.999999999999
20
525.000000000000
30
0.0
11
5489.999999999999
21
360.000000000000
31
0.0
0
LINE
5
b03
100
AcDbEntity
8
F-F_J_ADD
6
HIDDEN
62
109
100
AcDbLine
10
5643.749999999999
20
360.000000000000
30
0.0
11
5643.749999999999
21
525.000000000000
31
0.0
0
LINE
5
b04
100
AcDbEntity
8
F-F_J_ADD
6
HIDDEN
62
109
100
AcDbLine
10
6075.000000000000
20
442.500000000000
30
0.0
11
5122.499999999999
21
442.500000000000
31
0.0
0
LINE
5
b05
100
AcDbEntity
8
F-F_J_ADD
6
HIDDEN
62
109
100
AcDbLine
10
5797.499999999999
20
360.000000000000
30
0.0
11
5797.499999999999
21
525.000000000000
31
0.0
0
LINE
5
b06
100
AcDbEntity
8
F-F_J_ADD
6
HIDDEN
62
109
100
AcDbLine
10
5954.999999999999
20
525.000000000000
30
0.0
11
5954.999999999999
21
360.000000000000
31
0.0
0
LINE
5
b07
100
AcDbEntity
8
F-F_J_ADD
6
HIDDEN
62
109
100
AcDbLine
10
5212.499999999999
20
667.500000000000
30
0.0
11
5122.499999999999
21
667.500000000000
31
0.0
0
LINE
5
b08
100
AcDbEntity
8
F-F_J_ADD
6
HIDDEN
62
109
100
AcDbLine
10
4350.000000000000
20
292.500000000000
30
0.0
11
6075.000000000000
21
292.500000000000
31
0.0
0
LINE
5
b09
100
AcDbEntity
8
F-F_J_ADD
6
HIDDEN
62
109
100
AcDbLine
10
6000.000000000000
20
360.000000000000
30
0.0
11
6000.000000000000
21
225.000000000000
31
0.0
0
LINE
5
b0a
100
AcDbEntity
8
F-F_J_ADD
6
HIDDEN
62
109
100
AcDbLine
10
5568.749999999999
20
225.000000000000
30
0.0
11
5568.749999999999
21
360.000000000000
31
0.0
0
LINE
5
b0b
100
AcDbEntity
8
F-F_J_ADD
6
HIDDEN
62
109
100
AcDbLine
10
5643.749999999999
20
525.000000000000
30
0.0
11
5643.749999999999
21
810.000000000000
31
0.0
0
LINE
5
b0c
100
AcDbEntity
8
F-F_J_ADD
6
HIDDEN
62
109
100
AcDbLine
10
5212.499999999999
20
769.285714285714
30
0.0
11
6075.000000000000
21
769.285714285714
31
0.0
0
LINE
5
b0d
100
AcDbEntity
8
F-F_J_ADD
6
HIDDEN
62
109
100
AcDbLine
10
5212.499999999999
20
728.571428571429
30
0.0
11
6075.000000000000
21
728.571428571429
31
0.0
0
LINE
5
b0e
100
AcDbEntity
8
F-F_J_ADD
6
HIDDEN
62
109
100
AcDbLine
10
5212.499999999999
20
687.857142857143
30
0.0
11
6075.000000000000
21
687.857142857143
31
0.0
0
LINE
5
b0f
100
AcDbEntity
8
F-F_J_ADD
6
HIDDEN
62
109
100
AcDbLine
10
5212.499999999999
20
647.142857142858
30
0.0
11
6075.000000000000
21
647.142857142858
31
0.0
0
LINE
5
b10
100
AcDbEntity
8
F-F_J_ADD
6
HIDDEN
62
109
100
AcDbLine
10
5212.499999999999
20
606.428571428572
30
0.0
11
6075.000000000000
21
606.428571428572
31
0.0
0
LINE
5
b11
100
AcDbEntity
8
F-F_J_ADD
6
HIDDEN
62
109
100
AcDbLine
10
5212.499999999999
20
565.714285714286
30
0.0
11
6075.000000000000
21
565.714285714286
31
0.0
0
TEXT
5
b12
100
AcDbEntity
8
1-0
62
7
370
-3
100
AcDbText
10
5166.491
20
748.438
30
0.0
40
39.697
1
名　称
41
0.856
50
0.000
  7
TATEGAKI
100
AcDbText
0
TEXT
5
b13
100
AcDbEntity
8
1-0
62
7
370
-3
100
AcDbText
10
4679.107
20
696.649
30
0.0
40
56.710
41
0.856
50
0.000
1
標準図
72
1
11
4777.499
21
720.000
31
0.0
100
AcDbText
73
2
0
TEXT
5
b14
100
AcDbEntity
8
1-0
62
7
370
-3
100
AcDbText
10
4390.240
20
617.230
30
0.0
40
39.697
1
材質
41
0.856
50
0.000
  7
TATEGAKI
100
AcDbText
0
TEXT
5
b15
100
AcDbEntity
8
1-0
62
7
370
-3
100
AcDbText
10
4772.741
20
617.230
30
0.0
40
39.697
1
数量
41
0.856
50
0.000
  7
TATEGAKI
100
AcDbText
0
MTEXT
5
b16
100
AcDbEntity
8
1-0
62
7
370
-3
100
AcDbMText
10
5646.284
20
610.230
30
0.0
40
50.355
41
0.000
71
5
72
1
1
\W0.972;{\W0.700;ｱﾙﾐ}合金製{\W0.700;ﾌﾗｯﾌﾟｹﾞ-ﾄ(}壁付け{\W0.700;)}
7
STANDARD
11
1.00000
21
0.00000
31
0.0
0
TEXT
5
b17
100
AcDbEntity
8
1-0
62
7
370
-3
100
AcDbText
10
4500.955
20
539.149
30
0.0
40
56.710
41
0.530
50
0.000
1
A5083
72
1
11
4582.499
21
562.500
31
0.0
100
AcDbText
73
2
0
TEXT
5
b18
100
AcDbEntity
8
1-0
62
7
370
-3
100
AcDbText
10
5166.491
20
497.230
30
0.0
40
39.697
1
承認
41
0.856
50
0.000
  7
TATEGAKI
100
AcDbText
0
TEXT
5
b19
100
AcDbEntity
8
1-0
62
7
370
-3
100
AcDbText
10
5488.991
20
497.230
30
0.0
40
39.697
1
検図
41
0.856
50
0.000
  7
TATEGAKI
100
AcDbText
0
TEXT
5
b1a
100
AcDbEntity
8
1-0
62
7
370
-3
100
AcDbText
10
5796.491
20
497.230
30
0.0
40
39.697
1
担当
41
0.856
50
0.000
  7
TATEGAKI
100
AcDbText
0
TEXT
5
b1b
100
AcDbEntity
8
1-0
62
7
370
-3
100
AcDbText
10
4390.240
20
482.230
30
0.0
40
39.697
1
尺度
41
0.856
50
0.000
  7
TATEGAKI
100
AcDbText
0
TEXT
5
b1c
100
AcDbEntity
8
1-0
62
7
370
-3
100
AcDbText
10
4772.741
20
482.230
30
0.0
40
39.697
1
日付
41
0.856
50
0.000
  7
TATEGAKI
100
AcDbText
0
TEXT
5
b1d
100
AcDbEntity
8
1-0
62
7
370
-3
100
AcDbText
10
5267.804
20
419.149
30
0.0
40
56.710
41
0.856
50
0.000
1
熊崎
72
1
11
5332.500
21
442.500
31
0.0
100
AcDbText
73
2
0
TEXT
5
b1e
100
AcDbEntity
8
1-0
62
7
370
-3
100
AcDbText
10
5579.054
20
419.149
30
0.0
40
56.710
41
0.856
50
0.000
1
井福
72
1
11
5643.750
21
442.500
31
0.0
100
AcDbText
73
2
0
TEXT
5
b1f
100
AcDbEntity
8
1-0
62
7
370
-3
100
AcDbText
10
5890.304
20
419.149
30
0.0
40
56.710
41
0.856
50
0.000
1
平川
72
1
11
5955.000
21
442.500
31
0.0
100
AcDbText
73
2
0
LINE
5
b20
100
AcDbEntity
8
1-0
6
CONTINUOUS
62
3
100
AcDbLine
10
5343.749999999999
20
735.000000000000
30
0.0
11
5943.749999999999
21
735.000000000000
31
0.0
0
TEXT
5
b21
100
AcDbEntity
8
1-0
62
7
370
-3
100
AcDbText
10
5166.491
20
347.230
30
0.0
40
39.697
1
図番
41
0.856
50
0.000
  7
TATEGAKI
100
AcDbText
0
TEXT
5
b22
100
AcDbEntity
8
1-0
62
7
370
-3
100
AcDbText
10
4498.433
20
270.959
30
0.0
40
56.710
1
三重重工業株式会社
41
0.856
50
0.000
100
AcDbText
0
TEXT
5
b23
100
AcDbEntity
8
1-0
62
7
370
-3
100
AcDbText
10
5984.777
20
255.953
30
0.0
40
56.710
1
2
41
0.461
50
0.000
100
AcDbText
0
TEXT
5
b24
100
AcDbEntity
8
1-0
62
7
370
-3
100
AcDbText
10
4682.701
20
1225.260
30
0.0
40
44.108
1
注記　塗装　ＡＬ部は下地処理後、ポリウレタン樹脂系
41
0.856
50
0.000
100
AcDbText
0
TEXT
5
b25
100
AcDbEntity
8
1-0
62
7
370
-3
100
AcDbText
10
4682.701
20
1045.260
30
0.0
40
44.108
1
　　　と致します。
41
0.856
50
0.000
100
AcDbText
0
TEXT
5
b26
100
AcDbEntity
8
1-0
62
7
370
-3
100
AcDbText
10
4682.701
20
955.260
30
0.0
40
44.108
1
　　　但し、ＳＵＳ３０４部は酸洗いと致します。
41
0.856
50
0.000
100
AcDbText
0
LINE
5
b27
100
AcDbEntity
8
1-0
6
CONTINUOUS
62
4
100
AcDbLine
10
4657.498500000000
20
1205.212900067745
30
0.0
11
6017.238636234961
21
1205.212900067745
31
0.0
0
LINE
5
b28
100
AcDbEntity
8
1-0
6
CONTINUOUS
62
4
100
AcDbLine
10
4657.498500000000
20
1115.212900067745
30
0.0
11
6017.238636234961
21
1115.212900067745
31
0.0
0
LINE
5
b29
100
AcDbEntity
8
1-0
6
CONTINUOUS
62
4
100
AcDbLine
10
4657.498500000000
20
1025.212900067745
30
0.0
11
6017.238636234961
21
1025.212900067745
31
0.0
0
LINE
5
b2a
100
AcDbEntity
8
1-0
6
CONTINUOUS
62
4
100
AcDbLine
10
4657.498500000000
20
935.212900067745
30
0.0
11
6017.238636234961
21
935.212900067745
31
0.0
0
MTEXT
5
b2b
100
AcDbEntity
8
1-0
62
7
370
-3
100
AcDbMText
10
5423.079
20
746.223
30
0.0
40
41.658
41
0.000
71
7
72
1
1
\W0.972;型式　{\W0.700;MFR-A0909K}
7
STANDARD
11
1.00000
21
0.00000
31
0.0
0
TEXT
5
b2c
100
AcDbEntity
8
1-0
62
7
370
-3
100
AcDbText
10
5393.726
20
664.506
30
0.0
40
56.710
1
900 Bo x 900 Ho
41
0.617
50
0.000
100
AcDbText
0
LINE
5
b2d
100
AcDbEntity
8
0-9扉体
6
CONTINUOUS
62
3
100
AcDbLine
10
3923.618000000000
20
2226.778000000000
30
0.0
11
3886.118000000000
21
2226.778000000000
31
0.0
0
LINE
5
b2e
100
AcDbEntity
8
0-9扉体
6
CONTINUOUS
62
3
100
AcDbLine
10
3946.118000000000
20
2204.278000000000
30
0.0
11
3946.118000000000
21
2178.278000000000
31
0.0
0
TEXT
5
b2f
100
AcDbEntity
8
0-8寸法
62
7
370
-3
100
AcDbText
10
4002.121
20
1912.048
30
0.0
40
50.490
1
6t
41
0.574
50
0.000
100
AcDbText
0
TEXT
5
b30
100
AcDbEntity
8
0-8寸法
62
7
370
-3
100
AcDbText
10
4002.120
20
1762.048
30
0.0
40
50.490
1
12t
41
0.640
50
0.000
100
AcDbText
0
TEXT
5
b31
100
AcDbEntity
8
0-8寸法
62
7
370
-3
100
AcDbText
10
525.286
20
2662.048
30
0.0
40
50.490
1
           PL-12t(SUS304)
41
0.755
50
0.000
100
AcDbText
0
MTEXT
5
b32
100
AcDbEntity
8
0-8寸法
62
7
370
-3
100
AcDbMText
10
520.298
20
2506.438
30
0.0
40
47.685
41
0.000
71
7
72
1
1
\W1.093;接着系{\W0.787;ｱﾝｶ- M12(SUS304}相当{\W0.787;)}
7
STANDARD
11
1.00000
21
0.00000
31
0.0
0
MTEXT
5
b33
100
AcDbEntity
8
0-8寸法
62
7
370
-3
100
AcDbMText
10
3787.092
20
741.438
30
0.0
40
47.685
41
0.000
71
9
72
1
1
\W1.093;金属系{\W0.787;ｱﾝｶ- M10(SUS304}相当{\W0.787;)}
7
STANDARD
11
1.00000
21
0.00000
31
0.0
0
TEXT
5
b34
100
AcDbEntity
8
0-A文字
62
7
370
-3
100
AcDbText
10
2180.790
20
1433.702
30
0.0
40
50.490
41
0.893
50
0.000
1
ｽｷﾝﾌﾟﾚ-ﾄ
72
1
11
2313.390
21
1458.242
31
0.0
100
AcDbText
73
2
0
TEXT
5
b35
100
AcDbEntity
8
0-A文字
62
7
370
-3
100
AcDbText
10
2231.415
20
1343.704
30
0.0
40
50.490
41
0.577
50
0.000
1
PL-6t
72
1
11
2313.390
21
1368.244
31
0.0
100
AcDbText
73
2
0
TEXT
5
b36
100
AcDbEntity
8
0-A文字
62
7
370
-3
100
AcDbText
10
2197.665
20
1268.702
30
0.0
40
50.490
41
0.659
50
0.000
1
(A5083)
72
1
11
2313.390
21
1293.242
31
0.0
100
AcDbText
73
2
0
LINE
5
b37
100
AcDbEntity
8
0-8寸法
6
CONTINUOUS
62
4
100
AcDbLine
10
3787.614000000000
20
717.554000000000
30
0.0
11
2904.047239915075
21
717.554000000000
31
0.0
0
LINE
5
b38
100
AcDbEntity
8
0-8寸法
6
CONTINUOUS
62
4
100
AcDbLine
10
3787.614000000000
20
867.554000000000
30
0.0
11
2904.047239915075
21
867.554000000000
31
0.0
0
POLYLINE
5
b39
100
AcDbEntity
8
0-9扉体
6
CONTINUOUS
62
  7
100
AcDb2dPolyline
66
1
10
0.0
20
0.0
30
0.0
70
0
0
VERTEX
5
b3a
100
AcDbEntity
8
0-9扉体
6
CONTINUOUS
62
  7
100
AcDbVertex
100
AcDb2dVertex
10
2086.140000000000
20
3453.452000000000
30
0.0
0
VERTEX
5
b3b
100
AcDbEntity
8
0-9扉体
6
CONTINUOUS
62
  7
100
AcDbVertex
100
AcDb2dVertex
10
2053.640000000000
20
3453.452000000000
30
0.0
0
VERTEX
5
b3c
100
AcDbEntity
8
0-9扉体
6
CONTINUOUS
62
  7
100
AcDbVertex
100
AcDb2dVertex
10
2053.640000000000
20
3441.452000000000
30
0.0
0
VERTEX
5
b3d
100
AcDbEntity
8
0-9扉体
6
CONTINUOUS
62
  7
100
AcDbVertex
100
AcDb2dVertex
10
2086.140000000000
20
3441.452000000000
30
0.0
0
SEQEND
5
b3e
100
AcDbEntity
8
0-9扉体
0
LINE
5
b3f
100
AcDbEntity
8
0-9扉体
6
CONTINUOUS
62
7
100
AcDbLine
10
2068.640000000000
20
3441.452000000000
30
0.0
11
2068.640000000000
21
3453.452000000000
31
0.0
0
TEXT
5
b40
100
AcDbEntity
8
1-0
62
7
370
-3
100
AcDbText
10
4517.803
20
404.149
30
0.0
40
56.710
1
1/15
41
0.640
50
0.000
100
AcDbText
0
LINE
5
b41
100
AcDbEntity
8
0-5基準線
6
CENTER2
62
7
100
AcDbLine
10
1846.140000000000
20
3606.002000000000
30
0.0
11
1846.140000000000
21
3454.018000000000
31
0.0
0
LINE
5
b42
100
AcDbEntity
8
0-5基準線
6
CENTER2
62
7
100
AcDbLine
10
1726.140000000000
20
3606.002000000000
30
0.0
11
1726.140000000000
21
3454.018000000000
31
0.0
0
LINE
5
b43
100
AcDbEntity
8
0-5基準線
6
CENTER2
62
7
100
AcDbLine
10
4062.584000000000
20
2317.554000000000
30
0.0
11
3922.684000000000
21
2317.554000000000
31
0.0
0
LINE
5
b44
100
AcDbEntity
8
0-5基準線
6
CENTER2
62
7
100
AcDbLine
10
4060.294000000000
20
2227.554000000000
30
0.0
11
3922.684000000000
21
2227.554000000000
31
0.0
0
LINE
5
b45
100
AcDbEntity
8
0-7図枠
6
CONTINUOUS
62
4
100
AcDbLine
10
4599.417872180451
20
3933.206203007519
30
0.0
11
5814.415872180451
21
3933.206203007519
31
0.0
0
LINE
5
b46
100
AcDbEntity
8
0-7図枠
6
CONTINUOUS
62
4
100
AcDbLine
10
4599.417872180451
20
3820.704203007519
30
0.0
11
5814.415872180451
21
3820.704203007519
31
0.0
0
LINE
5
b47
100
AcDbEntity
8
0-7図枠
6
CONTINUOUS
62
4
100
AcDbLine
10
4599.417872180451
20
3730.704203007519
30
0.0
11
5814.415872180451
21
3730.704203007519
31
0.0
0
LINE
5
b48
100
AcDbEntity
8
0-7図枠
6
CONTINUOUS
62
4
100
AcDbLine
10
4599.417872180451
20
3640.706203007519
30
0.0
11
5814.415872180451
21
3640.706203007519
31
0.0
0
LINE
5
b49
100
AcDbEntity
8
0-7図枠
6
CONTINUOUS
62
4
100
AcDbLine
10
4599.417872180451
20
3550.704203007519
30
0.0
11
5814.415872180451
21
3550.704203007519
31
0.0
0
LINE
5
b4a
100
AcDbEntity
8
0-7図枠
6
CONTINUOUS
62
4
100
AcDbLine
10
4599.417872180451
20
3933.206203007519
30
0.0
11
4599.417872180451
21
3550.704203007519
31
0.0
0
LINE
5
b4b
100
AcDbEntity
8
0-7図枠
6
CONTINUOUS
62
4
100
AcDbLine
10
5814.415872180451
20
3933.206203007519
30
0.0
11
5814.415872180451
21
3550.704203007519
31
0.0
0
LINE
5
b4c
100
AcDbEntity
8
0-7図枠
6
CONTINUOUS
62
4
100
AcDbLine
10
4869.417872180451
20
3820.704203007519
30
0.0
11
4869.417872180451
21
3550.704203007519
31
0.0
0
LINE
5
b4d
100
AcDbEntity
8
0-7図枠
6
CONTINUOUS
62
4
100
AcDbLine
10
5341.917872180451
20
3820.704203007519
30
0.0
11
5341.917872180451
21
3550.704203007519
31
0.0
0
TEXT
5
b4e
100
AcDbEntity
8
0-7図枠
62
7
370
-3
100
AcDbText
10
4616.818
20
3754.914
30
0.0
40
50.490
41
0.856
50
0.000
1
通水断面
72
1
11
4734.418
21
3775.704
31
0.0
100
AcDbText
73
2
0
TEXT
5
b4f
100
AcDbEntity
8
0-7図枠
62
7
370
-3
100
AcDbText
10
4616.818
20
3574.915
30
0.0
40
50.490
41
0.856
50
0.000
1
設計水深
72
1
11
4734.418
21
3595.705
31
0.0
100
AcDbText
73
2
0
TEXT
5
b50
100
AcDbEntity
8
0-7図枠
62
7
370
-3
100
AcDbText
10
4616.818
20
3664.915
30
0.0
40
50.490
41
0.856
50
0.000
1
扉体寸法
72
1
11
4734.418
21
3685.705
31
0.0
100
AcDbText
73
2
0
MTEXT
5
b51
100
AcDbEntity
8
0-7図枠
62
7
370
-3
100
AcDbMText
10
5108.068
20
3779.304
30
0.0
40
47.685
41
0.000
71
5
72
1
1
\W0.972;有効幅{\W0.700;   0.90 m}
7
STANDARD
11
1.00000
21
0.00000
31
0.0
0
MTEXT
5
b52
100
AcDbEntity
8
0-7図枠
62
7
370
-3
100
AcDbMText
10
5108.068
20
3689.305
30
0.0
40
47.685
41
0.000
71
5
72
1
1
\W0.972;扉体幅{\W0.700;   1.00 m}
7
STANDARD
11
1.00000
21
0.00000
31
0.0
0
MTEXT
5
b53
100
AcDbEntity
8
0-7図枠
62
7
370
-3
100
AcDbMText
10
5108.068
20
3599.305
30
0.0
40
47.685
41
0.000
71
5
72
1
1
\W0.972;前水深{\W0.700;   3.20 m}
7
STANDARD
11
1.00000
21
0.00000
31
0.0
0
TEXT
5
b54
100
AcDbEntity
8
0-7図枠
62
7
370
-3
100
AcDbText
10
4999.317
20
3856.165
30
0.0
40
50.490
41
0.856
50
0.000
1
設　計　条　件
72
1
11
5206.917
21
3876.955
31
0.0
100
AcDbText
73
2
0
MTEXT
5
b55
100
AcDbEntity
8
0-7図枠
62
7
370
-3
100
AcDbMText
10
5580.567
20
3779.304
30
0.0
40
47.685
41
0.000
71
5
72
1
1
\W0.972;有効高　{\W0.700; 0.90 m}
7
STANDARD
11
1.00000
21
0.00000
31
0.0
0
MTEXT
5
b56
100
AcDbEntity
8
0-7図枠
62
7
370
-3
100
AcDbMText
10
5580.567
20
3689.305
30
0.0
40
47.685
41
0.000
71
5
72
1
1
\W0.972;扉体高{\W0.700;   1.00 m}
7
STANDARD
11
1.00000
21
0.00000
31
0.0
0
MTEXT
5
b57
100
AcDbEntity
8
0-7図枠
62
7
370
-3
100
AcDbMText
10
5580.567
20
3599.305
30
0.0
40
47.685
41
0.000
71
5
72
1
1
\W0.972;後水深{\W0.700;   0.00 m}
7
STANDARD
11
1.00000
21
0.00000
31
0.0
0
TEXT
5
b58
100
AcDbEntity
8
1-0
62
7
370
-3
100
AcDbText
10
5369.270
20
269.149
30
0.0
40
56.710
1
Ｋ－２１５９
41
0.856
50
0.000
100
AcDbText
0
TEXT
5
b59
100
AcDbEntity
8
1-0
62
7
370
-3
100
AcDbText
10
4853.510
20
404.149
30
0.0
40
56.710
41
0.714
50
0.000
1
R5.12.1
72
1
11
4968.750
21
427.500
31
0.0
100
AcDbText
73
2
0
LINE
5
b5a
100
AcDbEntity
8
0-6戸当り
6
CONTINUOUS
62
7
100
AcDbLine
10
3935.818000000000
20
2327.054000000000
30
0.0
11
3935.818000000000
21
2308.054000000000
31
0.0
0
LINE
5
b5b
100
AcDbEntity
8
0-6戸当り
6
CONTINUOUS
62
7
100
AcDbLine
10
3935.818000000000
20
2327.054000000000
30
0.0
11
3936.668000000000
21
2328.524000000000
31
0.0
0
LINE
5
b5c
100
AcDbEntity
8
0-6戸当り
6
CONTINUOUS
62
7
100
AcDbLine
10
3935.818000000000
20
2308.054000000000
30
0.0
11
3936.668000000000
21
2306.584000000000
31
0.0
0
LINE
5
b5d
100
AcDbEntity
8
0-6戸当り
6
CONTINUOUS
62
7
100
AcDbLine
10
3945.818000000000
20
2323.038000000000
30
0.0
11
3936.668000000000
21
2323.038000000000
31
0.0
0
LINE
5
b5e
100
AcDbEntity
8
0-6戸当り
6
CONTINUOUS
62
7
100
AcDbLine
10
3945.818000000000
20
2312.068000000000
30
0.0
11
3936.668000000000
21
2312.068000000000
31
0.0
0
LINE
5
b5f
100
AcDbEntity
8
0-6戸当り
6
CONTINUOUS
62
7
100
AcDbLine
10
3945.818000000000
20
2328.524000000000
30
0.0
11
3936.668000000000
21
2328.524000000000
31
0.0
0
LINE
5
b60
100
AcDbEntity
8
0-6戸当り
6
CONTINUOUS
62
3
100
AcDbLine
10
3945.818000000000
20
2306.584000000000
30
0.0
11
3945.818000000000
21
2328.524000000000
31
0.0
0
LINE
5
b61
100
AcDbEntity
8
0-6戸当り
6
CONTINUOUS
62
7
100
AcDbLine
10
3945.818000000000
20
2306.584000000000
30
0.0
11
3936.668000000000
21
2306.584000000000
31
0.0
0
LINE
5
b62
100
AcDbEntity
8
0-6戸当り
6
CONTINUOUS
62
3
100
AcDbLine
10
3930.118000000000
20
2311.554000000000
30
0.0
11
3930.118000000000
21
2323.554000000000
31
0.0
0
LINE
5
b63
100
AcDbEntity
8
0-6戸当り
6
CONTINUOUS
62
3
100
AcDbLine
10
3935.818000000000
20
2323.554000000000
30
0.0
11
3930.118000000000
21
2323.554000000000
31
0.0
0
LINE
5
b64
100
AcDbEntity
8
0-6戸当り
6
CONTINUOUS
62
3
100
AcDbLine
10
3935.818000000000
20
2311.554000000000
30
0.0
11
3930.118000000000
21
2311.554000000000
31
0.0
0
LINE
5
b65
100
AcDbEntity
8
0-6戸当り
6
CONTINUOUS
62
3
100
AcDbLine
10
3935.818000000000
20
2322.554000000000
30
0.0
11
3930.118000000000
21
2322.554000000000
31
0.0
0
LINE
5
b66
100
AcDbEntity
8
0-6戸当り
6
CONTINUOUS
62
3
100
AcDbLine
10
3935.818000000000
20
2312.554000000000
30
0.0
11
3930.118000000000
21
2312.554000000000
31
0.0
0
ARC
5
b67
100
AcDbEntity
8
0-6戸当り
6
CONTINUOUS
62
7
100
AcDbCircle
10
3953.970000000000
20
2317.554000000000
30
0.0
40
18.152000000000
100
AcDbArc
50
162.412000000000
51
197.588000000000
0
ARC
5
b68
100
AcDbEntity
8
0-6戸当り
6
CONTINUOUS
62
7
100
AcDbCircle
10
3940.674000000000
20
2309.326000000000
30
0.0
40
4.856000000000
100
AcDbArc
50
145.616000000000
51
205.616000000000
0
ARC
5
b69
100
AcDbEntity
8
0-6戸当り
6
CONTINUOUS
62
7
100
AcDbCircle
10
3940.674000000000
20
2325.780000000000
30
0.0
40
4.856000000000
100
AcDbArc
50
154.384000000000
51
214.384000000000
0
LINE
5
b6a
100
AcDbEntity
8
0-6戸当り
6
CONTINUOUS
62
7
100
AcDbLine
10
3945.818000000000
20
2327.054000000000
30
0.0
11
3945.818000000000
21
2308.054000000000
31
0.0
0
LINE
5
b6b
100
AcDbEntity
8
0-6戸当り
6
CONTINUOUS
62
7
100
AcDbLine
10
3945.818000000000
20
2327.054000000000
30
0.0
11
3946.668000000000
21
2328.524000000000
31
0.0
0
LINE
5
b6c
100
AcDbEntity
8
0-6戸当り
6
CONTINUOUS
62
7
100
AcDbLine
10
3945.818000000000
20
2308.054000000000
30
0.0
11
3946.668000000000
21
2306.584000000000
31
0.0
0
LINE
5
b6d
100
AcDbEntity
8
0-6戸当り
6
CONTINUOUS
62
7
100
AcDbLine
10
3955.818000000000
20
2323.038000000000
30
0.0
11
3946.668000000000
21
2323.038000000000
31
0.0
0
LINE
5
b6e
100
AcDbEntity
8
0-6戸当り
6
CONTINUOUS
62
7
100
AcDbLine
10
3955.818000000000
20
2312.068000000000
30
0.0
11
3946.668000000000
21
2312.068000000000
31
0.0
0
LINE
5
b6f
100
AcDbEntity
8
0-6戸当り
6
CONTINUOUS
62
7
100
AcDbLine
10
3955.818000000000
20
2328.524000000000
30
0.0
11
3946.668000000000
21
2328.524000000000
31
0.0
0
LINE
5
b70
100
AcDbEntity
8
0-6戸当り
6
CONTINUOUS
62
7
100
AcDbLine
10
3955.818000000000
20
2306.584000000000
30
0.0
11
3946.668000000000
21
2306.584000000000
31
0.0
0
ARC
5
b71
100
AcDbEntity
8
0-6戸当り
6
CONTINUOUS
62
7
100
AcDbCircle
10
3963.970000000000
20
2317.554000000000
30
0.0
40
18.152000000000
100
AcDbArc
50
162.412000000000
51
197.588000000000
0
ARC
5
b72
100
AcDbEntity
8
0-6戸当り
6
CONTINUOUS
62
7
100
AcDbCircle
10
3950.674000000000
20
2309.326000000000
30
0.0
40
4.856000000000
100
AcDbArc
50
145.616000000000
51
205.616000000000
0
ARC
5
b73
100
AcDbEntity
8
0-6戸当り
6
CONTINUOUS
62
7
100
AcDbCircle
10
3950.674000000000
20
2325.780000000000
30
0.0
40
4.856000000000
100
AcDbArc
50
154.384000000000
51
214.384000000000
0
LINE
5
b74
100
AcDbEntity
8
0-6戸当り
6
CONTINUOUS
62
3
100
AcDbLine
10
3901.118000000000
20
2320.278000000000
30
0.0
11
3930.118000000000
21
2320.278000000000
31
0.0
0
LINE
5
b75
100
AcDbEntity
8
0-6戸当り
6
CONTINUOUS
62
3
100
AcDbLine
10
3935.818000000000
20
2233.554000000000
30
0.0
11
3930.118000000000
21
2233.554000000000
31
0.0
0
LINE
5
b76
100
AcDbEntity
8
0-6戸当り
6
CONTINUOUS
62
7
100
AcDbLine
10
3935.818000000000
20
2237.054000000000
30
0.0
11
3935.818000000000
21
2218.054000000000
31
0.0
0
LINE
5
b77
100
AcDbEntity
8
0-6戸当り
6
CONTINUOUS
62
7
100
AcDbLine
10
3935.818000000000
20
2237.054000000000
30
0.0
11
3936.668000000000
21
2238.524000000000
31
0.0
0
LINE
5
b78
100
AcDbEntity
8
0-6戸当り
6
CONTINUOUS
62
7
100
AcDbLine
10
3935.818000000000
20
2218.054000000000
30
0.0
11
3936.668000000000
21
2216.584000000000
31
0.0
0
LINE
5
b79
100
AcDbEntity
8
0-6戸当り
6
CONTINUOUS
62
7
100
AcDbLine
10
3945.818000000000
20
2233.038000000000
30
0.0
11
3936.668000000000
21
2233.038000000000
31
0.0
0
LINE
5
b7a
100
AcDbEntity
8
0-6戸当り
6
CONTINUOUS
62
7
100
AcDbLine
10
3945.818000000000
20
2222.068000000000
30
0.0
11
3936.668000000000
21
2222.068000000000
31
0.0
0
LINE
5
b7b
100
AcDbEntity
8
0-6戸当り
6
CONTINUOUS
62
7
100
AcDbLine
10
3945.818000000000
20
2238.524000000000
30
0.0
11
3936.668000000000
21
2238.524000000000
31
0.0
0
LINE
5
b7c
100
AcDbEntity
8
0-6戸当り
6
CONTINUOUS
62
3
100
AcDbLine
10
3945.818000000000
20
2216.584000000000
30
0.0
11
3945.818000000000
21
2238.524000000000
31
0.0
0
LINE
5
b7d
100
AcDbEntity
8
0-6戸当り
6
CONTINUOUS
62
7
100
AcDbLine
10
3945.818000000000
20
2216.584000000000
30
0.0
11
3936.668000000000
21
2216.584000000000
31
0.0
0
LINE
5
b7e
100
AcDbEntity
8
0-6戸当り
6
CONTINUOUS
62
3
100
AcDbLine
10
3930.118000000000
20
2221.554000000000
30
0.0
11
3930.118000000000
21
2233.554000000000
31
0.0
0
LINE
5
b7f
100
AcDbEntity
8
0-6戸当り
6
CONTINUOUS
62
3
100
AcDbLine
10
3935.818000000000
20
2221.554000000000
30
0.0
11
3930.118000000000
21
2221.554000000000
31
0.0
0
LINE
5
b80
100
AcDbEntity
8
0-6戸当り
6
CONTINUOUS
62
3
100
AcDbLine
10
3935.818000000000
20
2232.554000000000
30
0.0
11
3930.118000000000
21
2232.554000000000
31
0.0
0
LINE
5
b81
100
AcDbEntity
8
0-6戸当り
6
CONTINUOUS
62
3
100
AcDbLine
10
3935.818000000000
20
2222.554000000000
30
0.0
11
3930.118000000000
21
2222.554000000000
31
0.0
0
ARC
5
b82
100
AcDbEntity
8
0-6戸当り
6
CONTINUOUS
62
7
100
AcDbCircle
10
3953.970000000000
20
2227.554000000000
30
0.0
40
18.152000000000
100
AcDbArc
50
162.412000000000
51
197.588000000000
0
ARC
5
b83
100
AcDbEntity
8
0-6戸当り
6
CONTINUOUS
62
7
100
AcDbCircle
10
3940.674000000000
20
2219.326000000000
30
0.0
40
4.856000000000
100
AcDbArc
50
145.616000000000
51
205.616000000000
0
ARC
5
b84
100
AcDbEntity
8
0-6戸当り
6
CONTINUOUS
62
7
100
AcDbCircle
10
3940.674000000000
20
2235.780000000000
30
0.0
40
4.856000000000
100
AcDbArc
50
154.384000000000
51
214.384000000000
0
LINE
5
b85
100
AcDbEntity
8
0-6戸当り
6
CONTINUOUS
62
7
100
AcDbLine
10
3945.818000000000
20
2237.054000000000
30
0.0
11
3945.818000000000
21
2218.054000000000
31
0.0
0
LINE
5
b86
100
AcDbEntity
8
0-6戸当り
6
CONTINUOUS
62
7
100
AcDbLine
10
3945.818000000000
20
2237.054000000000
30
0.0
11
3946.668000000000
21
2238.524000000000
31
0.0
0
LINE
5
b87
100
AcDbEntity
8
0-6戸当り
6
CONTINUOUS
62
7
100
AcDbLine
10
3945.818000000000
20
2218.054000000000
30
0.0
11
3946.668000000000
21
2216.584000000000
31
0.0
0
LINE
5
b88
100
AcDbEntity
8
0-6戸当り
6
CONTINUOUS
62
7
100
AcDbLine
10
3955.818000000000
20
2233.038000000000
30
0.0
11
3946.668000000000
21
2233.038000000000
31
0.0
0
LINE
5
b89
100
AcDbEntity
8
0-6戸当り
6
CONTINUOUS
62
7
100
AcDbLine
10
3955.818000000000
20
2222.068000000000
30
0.0
11
3946.668000000000
21
2222.068000000000
31
0.0
0
LINE
5
b8a
100
AcDbEntity
8
0-6戸当り
6
CONTINUOUS
62
7
100
AcDbLine
10
3955.818000000000
20
2238.524000000000
30
0.0
11
3946.668000000000
21
2238.524000000000
31
0.0
0
LINE
5
b8b
100
AcDbEntity
8
0-6戸当り
6
CONTINUOUS
62
7
100
AcDbLine
10
3955.818000000000
20
2216.584000000000
30
0.0
11
3946.668000000000
21
2216.584000000000
31
0.0
0
ARC
5
b8c
100
AcDbEntity
8
0-6戸当り
6
CONTINUOUS
62
7
100
AcDbCircle
10
3963.970000000000
20
2227.554000000000
30
0.0
40
18.152000000000
100
AcDbArc
50
162.412000000000
51
197.588000000000
0
ARC
5
b8d
100
AcDbEntity
8
0-6戸当り
6
CONTINUOUS
62
7
100
AcDbCircle
10
3950.674000000000
20
2219.326000000000
30
0.0
40
4.856000000000
100
AcDbArc
50
145.616000000000
51
205.616000000000
0
ARC
5
b8e
100
AcDbEntity
8
0-6戸当り
6
CONTINUOUS
62
7
100
AcDbCircle
10
3950.674000000000
20
2235.780000000000
30
0.0
40
4.856000000000
100
AcDbArc
50
154.384000000000
51
214.384000000000
0
ARC
5
b8f
100
AcDbEntity
8
0-9扉体
6
CONTINUOUS
62
3
100
AcDbCircle
10
3923.618000000000
20
2204.278000000000
30
0.0
40
22.500000000000
100
AcDbArc
50
0.000000000000
51
33.156880132273
0
LINE
5
b90
100
AcDbEntity
8
0-9扉体
6
CONTINUOUS
62
3
100
AcDbLine
10
3941.118000000000
20
2238.524000000000
30
0.0
11
3941.118000000000
21
2255.278000000000
31
0.0
0
ARC
5
b91
100
AcDbEntity
8
0-9扉体
6
CONTINUOUS
62
3
100
AcDbCircle
10
3923.618000000000
20
2204.278000000000
30
0.0
40
22.500000000000
100
AcDbArc
50
73.208552885411
51
90.000000000000
0
LINE
5
b92
100
AcDbEntity
8
0-6戸当り
6
CONTINUOUS
62
7
100
AcDbLine
10
1716.640000000000
20
3467.152000000000
30
0.0
11
1735.640000000000
21
3467.152000000000
31
0.0
0
LINE
5
b93
100
AcDbEntity
8
0-6戸当り
6
CONTINUOUS
62
7
100
AcDbLine
10
1716.640000000000
20
3467.152000000000
30
0.0
11
1715.170000000000
21
3468.000000000000
31
0.0
0
LINE
5
b94
100
AcDbEntity
8
0-6戸当り
6
CONTINUOUS
62
7
100
AcDbLine
10
1735.640000000000
20
3467.152000000000
30
0.0
11
1737.110000000000
21
3468.000000000000
31
0.0
0
LINE
5
b95
100
AcDbEntity
8
0-6戸当り
6
CONTINUOUS
62
7
100
AcDbLine
10
1720.654000000000
20
3477.152000000000
30
0.0
11
1720.654000000000
21
3468.000000000000
31
0.0
0
LINE
5
b96
100
AcDbEntity
8
0-6戸当り
6
CONTINUOUS
62
7
100
AcDbLine
10
1731.624000000000
20
3477.152000000000
30
0.0
11
1731.624000000000
21
3468.000000000000
31
0.0
0
LINE
5
b97
100
AcDbEntity
8
0-6戸当り
6
CONTINUOUS
62
7
100
AcDbLine
10
1715.170000000000
20
3477.152000000000
30
0.0
11
1715.170000000000
21
3468.000000000000
31
0.0
0
LINE
5
b98
100
AcDbEntity
8
0-6戸当り
6
CONTINUOUS
62
3
100
AcDbLine
10
1737.110000000000
20
3477.152000000000
30
0.0
11
1715.170000000000
21
3477.152000000000
31
0.0
0
LINE
5
b99
100
AcDbEntity
8
0-6戸当り
6
CONTINUOUS
62
7
100
AcDbLine
10
1737.110000000000
20
3477.152000000000
30
0.0
11
1737.110000000000
21
3468.000000000000
31
0.0
0
LINE
5
b9a
100
AcDbEntity
8
0-6戸当り
6
CONTINUOUS
62
3
100
AcDbLine
10
1732.140000000000
20
3461.452000000000
30
0.0
11
1720.140000000000
21
3461.452000000000
31
0.0
0
LINE
5
b9b
100
AcDbEntity
8
0-6戸当り
6
CONTINUOUS
62
3
100
AcDbLine
10
1720.140000000000
20
3467.152000000000
30
0.0
11
1720.140000000000
21
3461.452000000000
31
0.0
0
LINE
5
b9c
100
AcDbEntity
8
0-6戸当り
6
CONTINUOUS
62
3
100
AcDbLine
10
1732.140000000000
20
3467.152000000000
30
0.0
11
1732.140000000000
21
3461.452000000000
31
0.0
0
LINE
5
b9d
100
AcDbEntity
8
0-6戸当り
6
CONTINUOUS
62
3
100
AcDbLine
10
1721.140000000000
20
3467.152000000000
30
0.0
11
1721.140000000000
21
3461.452000000000
31
0.0
0
LINE
5
b9e
100
AcDbEntity
8
0-6戸当り
6
CONTINUOUS
62
3
100
AcDbLine
10
1731.140000000000
20
3467.152000000000
30
0.0
11
1731.140000000000
21
3461.452000000000
31
0.0
0
ARC
5
b9f
100
AcDbEntity
8
0-6戸当り
6
CONTINUOUS
62
7
100
AcDbCircle
10
1726.140000000000
20
3485.304000000000
30
0.0
40
18.152000000000
100
AcDbArc
50
252.412000000000
51
287.588000000000
0
ARC
5
ba0
100
AcDbEntity
8
0-6戸当り
6
CONTINUOUS
62
7
100
AcDbCircle
10
1734.368000000000
20
3472.008000000000
30
0.0
40
4.856000000000
100
AcDbArc
50
235.616000000000
51
295.616000000000
0
ARC
5
ba1
100
AcDbEntity
8
0-6戸当り
6
CONTINUOUS
62
7
100
AcDbCircle
10
1717.912000000000
20
3472.008000000000
30
0.0
40
4.856000000000
100
AcDbArc
50
244.384000000000
51
304.384000000000
0
LINE
5
ba2
100
AcDbEntity
8
0-6戸当り
6
CONTINUOUS
62
7
100
AcDbLine
10
1716.640000000000
20
3477.152000000000
30
0.0
11
1735.640000000000
21
3477.152000000000
31
0.0
0
LINE
5
ba3
100
AcDbEntity
8
0-6戸当り
6
CONTINUOUS
62
7
100
AcDbLine
10
1716.640000000000
20
3477.152000000000
30
0.0
11
1715.170000000000
21
3478.000000000000
31
0.0
0
LINE
5
ba4
100
AcDbEntity
8
0-6戸当り
6
CONTINUOUS
62
7
100
AcDbLine
10
1735.640000000000
20
3477.152000000000
30
0.0
11
1737.110000000000
21
3478.000000000000
31
0.0
0
LINE
5
ba5
100
AcDbEntity
8
0-6戸当り
6
CONTINUOUS
62
7
100
AcDbLine
10
1720.654000000000
20
3487.152000000000
30
0.0
11
1720.654000000000
21
3478.000000000000
31
0.0
0
LINE
5
ba6
100
AcDbEntity
8
0-6戸当り
6
CONTINUOUS
62
7
100
AcDbLine
10
1731.624000000000
20
3487.152000000000
30
0.0
11
1731.624000000000
21
3478.000000000000
31
0.0
0
LINE
5
ba7
100
AcDbEntity
8
0-6戸当り
6
CONTINUOUS
62
7
100
AcDbLine
10
1715.170000000000
20
3487.152000000000
30
0.0
11
1715.170000000000
21
3478.000000000000
31
0.0
0
LINE
5
ba8
100
AcDbEntity
8
0-6戸当り
6
CONTINUOUS
62
7
100
AcDbLine
10
1737.110000000000
20
3487.152000000000
30
0.0
11
1737.110000000000
21
3478.000000000000
31
0.0
0
ARC
5
ba9
100
AcDbEntity
8
0-6戸当り
6
CONTINUOUS
62
7
100
AcDbCircle
10
1726.140000000000
20
3495.304000000000
30
0.0
40
18.152000000000
100
AcDbArc
50
252.412000000000
51
287.588000000000
0
ARC
5
baa
100
AcDbEntity
8
0-6戸当り
6
CONTINUOUS
62
7
100
AcDbCircle
10
1734.368000000000
20
3482.008000000000
30
0.0
40
4.856000000000
100
AcDbArc
50
235.616000000000
51
295.616000000000
0
ARC
5
bab
100
AcDbEntity
8
0-6戸当り
6
CONTINUOUS
62
7
100
AcDbCircle
10
1717.912000000000
20
3482.008000000000
30
0.0
40
4.856000000000
100
AcDbArc
50
244.384000000000
51
304.384000000000
0
LINE
5
bac
100
AcDbEntity
8
0-9扉体
6
CONTINUOUS
62
3
100
AcDbLine
10
1591.138000000000
20
3469.452000000000
30
0.0
11
1715.170000000000
21
3469.452000000000
31
0.0
0
LINE
5
bad
100
AcDbEntity
8
0-9扉体
6
CONTINUOUS
62
3
100
AcDbLine
10
1737.110000000000
20
3469.452000000000
30
0.0
11
1751.140000000000
21
3469.452000000000
31
0.0
0
LINE
5
bae
100
AcDbEntity
8
0-9扉体
6
CONTINUOUS
62
3
100
AcDbLine
10
1732.140000000000
20
3463.452000000000
30
0.0
11
1748.140000000000
21
3463.452000000000
31
0.0
0
LINE
5
baf
100
AcDbEntity
8
0-9扉体
6
CONTINUOUS
62
3
100
AcDbLine
10
1586.138000000000
20
3463.452000000000
30
0.0
11
1720.140000000000
21
3463.452000000000
31
0.0
0
LINE
5
bb0
100
AcDbEntity
8
0-9扉体
6
CONTINUOUS
62
4
100
AcDbLine
10
1711.140000000000
20
3450.952000000000
30
0.0
11
1736.140000000000
21
3450.952000000000
31
0.0
0
LINE
5
bb1
100
AcDbEntity
8
0-9扉体
6
CONTINUOUS
62
6
100
AcDbLine
10
1801.833518304432
20
3467.452000000000
30
0.0
11
1812.140000000000
21
3477.756000000000
31
0.0
0
LINE
5
bb2
100
AcDbEntity
8
0-9扉体
6
CONTINUOUS
62
6
100
AcDbLine
10
1803.956000000000
20
3467.452000000000
30
0.0
11
1812.140000000000
21
3475.636000000000
31
0.0
0
LINE
5
bb3
100
AcDbEntity
8
0-9扉体
6
CONTINUOUS
62
4
100
AcDbLine
10
1836.140000000000
20
3450.952000000000
30
0.0
11
1861.140000000000
21
3450.952000000000
31
0.0
0
ARC
5
bb4
100
AcDbEntity
8
0-6戸当り
6
CONTINUOUS
62
7
100
AcDbCircle
10
1854.366000000000
20
3472.008000000000
30
0.0
40
4.856000000000
100
AcDbArc
50
235.616000000000
51
295.616000000000
0
ARC
5
bb5
100
AcDbEntity
8
0-6戸当り
6
CONTINUOUS
62
7
100
AcDbCircle
10
1837.912000000000
20
3472.008000000000
30
0.0
40
4.856000000000
100
AcDbArc
50
244.384000000000
51
304.384000000000
0
ARC
5
bb6
100
AcDbEntity
8
0-6戸当り
6
CONTINUOUS
62
7
100
AcDbCircle
10
1846.140000000000
20
3485.304000000000
30
0.0
40
18.152000000000
100
AcDbArc
50
252.412000000000
51
287.588000000000
0
LINE
5
bb7
100
AcDbEntity
8
0-6戸当り
6
CONTINUOUS
62
3
100
AcDbLine
10
1841.140000000000
20
3467.152000000000
30
0.0
11
1841.140000000000
21
3461.452000000000
31
0.0
0
LINE
5
bb8
100
AcDbEntity
8
0-6戸当り
6
CONTINUOUS
62
3
100
AcDbLine
10
1851.138000000000
20
3467.152000000000
30
0.0
11
1851.138000000000
21
3461.452000000000
31
0.0
0
LINE
5
bb9
100
AcDbEntity
8
0-6戸当り
6
CONTINUOUS
62
3
100
AcDbLine
10
1840.140000000000
20
3467.152000000000
30
0.0
11
1840.140000000000
21
3461.452000000000
31
0.0
0
LINE
5
bba
100
AcDbEntity
8
0-6戸当り
6
CONTINUOUS
62
3
100
AcDbLine
10
1852.140000000000
20
3467.152000000000
30
0.0
11
1852.140000000000
21
3461.452000000000
31
0.0
0
LINE
5
bbb
100
AcDbEntity
8
0-6戸当り
6
CONTINUOUS
62
3
100
AcDbLine
10
1840.140000000000
20
3461.452000000000
30
0.0
11
1852.140000000000
21
3461.452000000000
31
0.0
0
LINE
5
bbc
100
AcDbEntity
8
0-6戸当り
6
CONTINUOUS
62
7
100
AcDbLine
10
1835.170000000000
20
3477.152000000000
30
0.0
11
1835.170000000000
21
3468.000000000000
31
0.0
0
LINE
5
bbd
100
AcDbEntity
8
0-6戸当り
6
CONTINUOUS
62
3
100
AcDbLine
10
1835.170000000000
20
3477.152000000000
30
0.0
11
1857.108000000000
21
3477.152000000000
31
0.0
0
LINE
5
bbe
100
AcDbEntity
8
0-6戸当り
6
CONTINUOUS
62
7
100
AcDbLine
10
1857.108000000000
20
3477.152000000000
30
0.0
11
1857.108000000000
21
3468.000000000000
31
0.0
0
LINE
5
bbf
100
AcDbEntity
8
0-6戸当り
6
CONTINUOUS
62
7
100
AcDbLine
10
1840.654000000000
20
3477.152000000000
30
0.0
11
1840.654000000000
21
3468.000000000000
31
0.0
0
LINE
5
bc0
100
AcDbEntity
8
0-6戸当り
6
CONTINUOUS
62
7
100
AcDbLine
10
1851.624000000000
20
3477.152000000000
30
0.0
11
1851.624000000000
21
3468.000000000000
31
0.0
0
LINE
5
bc1
100
AcDbEntity
8
0-6戸当り
6
CONTINUOUS
62
7
100
AcDbLine
10
1836.640000000000
20
3467.152000000000
30
0.0
11
1835.170000000000
21
3468.000000000000
31
0.0
0
LINE
5
bc2
100
AcDbEntity
8
0-6戸当り
6
CONTINUOUS
62
7
100
AcDbLine
10
1855.640000000000
20
3467.152000000000
30
0.0
11
1857.108000000000
21
3468.000000000000
31
0.0
0
LINE
5
bc3
100
AcDbEntity
8
0-6戸当り
6
CONTINUOUS
62
7
100
AcDbLine
10
1855.640000000000
20
3467.152000000000
30
0.0
11
1836.640000000000
21
3467.152000000000
31
0.0
0
ARC
5
bc4
100
AcDbEntity
8
0-6戸当り
6
CONTINUOUS
62
7
100
AcDbCircle
10
1854.366000000000
20
3482.008000000000
30
0.0
40
4.856000000000
100
AcDbArc
50
235.616000000000
51
295.616000000000
0
ARC
5
bc5
100
AcDbEntity
8
0-6戸当り
6
CONTINUOUS
62
7
100
AcDbCircle
10
1837.912000000000
20
3482.008000000000
30
0.0
40
4.856000000000
100
AcDbArc
50
244.384000000000
51
304.384000000000
0
ARC
5
bc6
100
AcDbEntity
8
0-6戸当り
6
CONTINUOUS
62
7
100
AcDbCircle
10
1846.140000000000
20
3495.304000000000
30
0.0
40
18.152000000000
100
AcDbArc
50
252.412000000000
51
287.588000000000
0
LINE
5
bc7
100
AcDbEntity
8
0-6戸当り
6
CONTINUOUS
62
7
100
AcDbLine
10
1835.170000000000
20
3487.152000000000
30
0.0
11
1835.170000000000
21
3478.000000000000
31
0.0
0
LINE
5
bc8
100
AcDbEntity
8
0-6戸当り
6
CONTINUOUS
62
7
100
AcDbLine
10
1857.108000000000
20
3487.152000000000
30
0.0
11
1857.108000000000
21
3478.000000000000
31
0.0
0
LINE
5
bc9
100
AcDbEntity
8
0-6戸当り
6
CONTINUOUS
62
7
100
AcDbLine
10
1840.654000000000
20
3487.152000000000
30
0.0
11
1840.654000000000
21
3478.000000000000
31
0.0
0
LINE
5
bca
100
AcDbEntity
8
0-6戸当り
6
CONTINUOUS
62
7
100
AcDbLine
10
1851.624000000000
20
3487.152000000000
30
0.0
11
1851.624000000000
21
3478.000000000000
31
0.0
0
LINE
5
bcb
100
AcDbEntity
8
0-6戸当り
6
CONTINUOUS
62
7
100
AcDbLine
10
1836.640000000000
20
3477.152000000000
30
0.0
11
1835.170000000000
21
3478.000000000000
31
0.0
0
LINE
5
bcc
100
AcDbEntity
8
0-6戸当り
6
CONTINUOUS
62
7
100
AcDbLine
10
1855.640000000000
20
3477.152000000000
30
0.0
11
1857.108000000000
21
3478.000000000000
31
0.0
0
LINE
5
bcd
100
AcDbEntity
8
0-6戸当り
6
CONTINUOUS
62
7
100
AcDbLine
10
1855.640000000000
20
3477.152000000000
30
0.0
11
1836.640000000000
21
3477.152000000000
31
0.0
0
LINE
5
bce
100
AcDbEntity
8
0-9扉体
6
CONTINUOUS
62
3
100
AcDbLine
10
1821.140000000000
20
3469.452000000000
30
0.0
11
1835.170000000000
21
3469.452000000000
31
0.0
0
LINE
5
bcf
100
AcDbEntity
8
0-9扉体
6
CONTINUOUS
62
3
100
AcDbLine
10
1857.108000000000
20
3469.452000000000
30
0.0
11
2581.140000000000
21
3469.452000000000
31
0.0
0
LINE
5
bd0
100
AcDbEntity
8
0-9扉体
6
CONTINUOUS
62
3
100
AcDbLine
10
1852.140000000000
20
3463.452000000000
30
0.0
11
2586.140000000000
21
3463.452000000000
31
0.0
0
LINE
5
bd1
100
AcDbEntity
8
0-9扉体
6
CONTINUOUS
62
3
100
AcDbLine
10
1824.140000000000
20
3463.452000000000
30
0.0
11
1840.140000000000
21
3463.452000000000
31
0.0
0
TEXT
5
bd2
100
AcDbEntity
8
1-0
62
7
370
-3
100
AcDbText
10
4682.701
20
1135.260
30
0.0
40
44.108
1
　　　塗装とし、色調はグレー（マンセル値Ｎ７）
41
0.856
50
0.000
100
AcDbText
0
MTEXT
5
bd3
100
AcDbEntity
8
0-8寸法
62
7
370
-3
100
AcDbMText
10
4245.007
20
2506.438
30
0.0
40
47.685
41
0.000
71
7
72
1
1
\W1.093;吊り{\W0.787;ﾋﾝｼﾞ PL-16t(SUS304)}
7
STANDARD
11
1.00000
21
0.00000
31
0.0
0
LINE
5
bd4
100
AcDbEntity
8
0-8寸法
6
CONTINUOUS
62
4
100
AcDbLine
10
5025.459129511678
20
2482.554000000000
30
0.0
11
4226.234000000000
21
2482.554000000000
31
0.0
0
POLYLINE
5
bd5
100
AcDbEntity
8
0-7図枠
6
CONTINUOUS
62
  7
100
AcDb2dPolyline
66
1
10
0.0
20
0.0
30
0.0
70
0
0
VERTEX
5
bd6
100
AcDbEntity
8
0-7図枠
6
CONTINUOUS
62
  7
100
AcDbVertex
100
AcDb2dVertex
10
5775.000000000000
20
4050.000000000000
30
0.0
0
VERTEX
5
bd7
100
AcDbEntity
8
0-7図枠
6
CONTINUOUS
62
  7
100
AcDbVertex
100
AcDb2dVertex
10
6075.000000000000
20
4050.000000000000
30
0.0
0
VERTEX
5
bd8
100
AcDbEntity
8
0-7図枠
6
CONTINUOUS
62
  7
100
AcDbVertex
100
AcDb2dVertex
10
6075.000000000000
20
4155.000000000000
30
0.0
0
VERTEX
5
bd9
100
AcDbEntity
8
0-7図枠
6
CONTINUOUS
62
  7
100
AcDbVertex
100
AcDb2dVertex
10
5775.000000000000
20
4155.000000000000
30
0.0
0
VERTEX
5
bda
100
AcDbEntity
8
0-7図枠
6
CONTINUOUS
62
  7
100
AcDbVertex
100
AcDb2dVertex
10
5775.000000000000
20
4050.000000000000
30
0.0
0
SEQEND
5
bdb
100
AcDbEntity
8
0-7図枠
0
POLYLINE
5
bdc
100
AcDbEntity
8
0-7図枠
6
CONTINUOUS
62
  7
100
AcDb2dPolyline
66
1
10
0.0
20
0.0
30
0.0
70
0
0
VERTEX
5
bdd
100
AcDbEntity
8
0-7図枠
6
CONTINUOUS
62
  7
100
AcDbVertex
100
AcDb2dVertex
10
4635.000000000000
20
4050.000000000000
30
0.0
0
VERTEX
5
bde
100
AcDbEntity
8
0-7図枠
6
CONTINUOUS
62
  7
100
AcDbVertex
100
AcDb2dVertex
10
4800.000000000000
20
4050.000000000000
30
0.0
0
VERTEX
5
bdf
100
AcDbEntity
8
0-7図枠
6
CONTINUOUS
62
  7
100
AcDbVertex
100
AcDb2dVertex
10
4800.000000000000
20
4155.000000000000
30
0.0
0
VERTEX
5
be0
100
AcDbEntity
8
0-7図枠
6
CONTINUOUS
62
  7
100
AcDbVertex
100
AcDb2dVertex
10
4635.000000000000
20
4155.000000000000
30
0.0
0
VERTEX
5
be1
100
AcDbEntity
8
0-7図枠
6
CONTINUOUS
62
  7
100
AcDbVertex
100
AcDb2dVertex
10
4635.000000000000
20
4050.000000000000
30
0.0
0
SEQEND
5
be2
100
AcDbEntity
8
0-7図枠
0
POLYLINE
5
be3
100
AcDbEntity
8
0-7図枠
6
CONTINUOUS
62
  7
100
AcDb2dPolyline
66
1
10
0.0
20
0.0
30
0.0
70
0
0
VERTEX
5
be4
100
AcDbEntity
8
0-7図枠
6
CONTINUOUS
62
  7
100
AcDbVertex
100
AcDb2dVertex
10
4800.000000000000
20
4050.000000000000
30
0.0
0
VERTEX
5
be5
100
AcDbEntity
8
0-7図枠
6
CONTINUOUS
62
  7
100
AcDbVertex
100
AcDb2dVertex
10
5475.000000000000
20
4050.000000000000
30
0.0
0
VERTEX
5
be6
100
AcDbEntity
8
0-7図枠
6
CONTINUOUS
62
  7
100
AcDbVertex
100
AcDb2dVertex
10
5475.000000000000
20
4155.000000000000
30
0.0
0
VERTEX
5
be7
100
AcDbEntity
8
0-7図枠
6
CONTINUOUS
62
  7
100
AcDbVertex
100
AcDb2dVertex
10
4800.000000000000
20
4155.000000000000
30
0.0
0
VERTEX
5
be8
100
AcDbEntity
8
0-7図枠
6
CONTINUOUS
62
  7
100
AcDbVertex
100
AcDb2dVertex
10
4800.000000000000
20
4050.000000000000
30
0.0
0
SEQEND
5
be9
100
AcDbEntity
8
0-7図枠
0
POLYLINE
5
bea
100
AcDbEntity
8
0-7図枠
6
CONTINUOUS
62
  7
100
AcDb2dPolyline
66
1
10
0.0
20
0.0
30
0.0
70
0
0
VERTEX
5
beb
100
AcDbEntity
8
0-7図枠
6
CONTINUOUS
62
  7
100
AcDbVertex
100
AcDb2dVertex
10
5475.000000000000
20
4050.000000000000
30
0.0
0
VERTEX
5
bec
100
AcDbEntity
8
0-7図枠
6
CONTINUOUS
62
  7
100
AcDbVertex
100
AcDb2dVertex
10
5775.000000000000
20
4050.000000000000
30
0.0
0
VERTEX
5
bed
100
AcDbEntity
8
0-7図枠
6
CONTINUOUS
62
  7
100
AcDbVertex
100
AcDb2dVertex
10
5775.000000000000
20
4155.000000000000
30
0.0
0
VERTEX
5
bee
100
AcDbEntity
8
0-7図枠
6
CONTINUOUS
62
  7
100
AcDbVertex
100
AcDb2dVertex
10
5475.000000000000
20
4155.000000000000
30
0.0
0
VERTEX
5
bef
100
AcDbEntity
8
0-7図枠
6
CONTINUOUS
62
  7
100
AcDbVertex
100
AcDb2dVertex
10
5475.000000000000
20
4050.000000000000
30
0.0
0
SEQEND
5
bf0
100
AcDbEntity
8
0-7図枠
0
TEXT
5
bf1
100
AcDbEntity
8
0-7図枠
62
7
370
-3
100
AcDbText
10
5529.898
20
4080.213
30
0.0
40
50.490
1
日　付
41
0.963
50
0.000
100
AcDbText
0
TEXT
5
bf2
100
AcDbEntity
8
0-7図枠
62
7
370
-3
100
AcDbText
10
4941.148
20
4080.213
30
0.0
40
50.490
1
修　　　　正
41
0.963
50
0.000
100
AcDbText
0
TEXT
5
bf3
100
AcDbEntity
8
0-7図枠
62
7
370
-3
100
AcDbText
10
4656.148
20
4080.213
30
0.0
40
50.490
1
記号
41
0.963
50
0.000
100
AcDbText
0
TEXT
5
bf4
100
AcDbEntity
8
0-7図枠
62
7
370
-3
100
AcDbText
10
5829.898
20
4080.213
30
0.0
40
50.490
1
担　当
41
0.963
50
0.000
100
AcDbText
0
LINE
5
bf5
100
AcDbEntity
8
F-F_J_ADD
6
HIDDEN
62
109
100
AcDbLine
10
5475.000000000000
20
4102.500000000000
30
0.0
11
5775.000000000000
21
4102.500000000000
31
0.0
0
LINE
5
bf6
100
AcDbEntity
8
F-F_J_ADD
6
HIDDEN
62
109
100
AcDbLine
10
4800.000000000000
20
4102.500000000000
30
0.0
11
5475.000000000000
21
4102.500000000000
31
0.0
0
LINE
5
bf7
100
AcDbEntity
8
F-F_J_ADD
6
HIDDEN
62
109
100
AcDbLine
10
4635.000000000000
20
4102.500000000000
30
0.0
11
4800.000000000000
21
4102.500000000000
31
0.0
0
LINE
5
bf8
100
AcDbEntity
8
F-F_J_ADD
6
HIDDEN
62
109
100
AcDbLine
10
4717.500000000000
20
4155.000000000000
30
0.0
11
4717.500000000000
21
4050.000000000000
31
0.0
0
LINE
5
bf9
100
AcDbEntity
8
F-F_J_ADD
6
HIDDEN
62
109
100
AcDbLine
10
5137.500000000000
20
4050.000000000000
30
0.0
11
5137.500000000000
21
4155.000000000000
31
0.0
0
LINE
5
bfa
100
AcDbEntity
8
F-F_J_ADD
6
HIDDEN
62
109
100
AcDbLine
10
5625.000000000000
20
4050.000000000000
30
0.0
11
5625.000000000000
21
4155.000000000000
31
0.0
0
LINE
5
bfb
100
AcDbEntity
8
F-F_J_ADD
6
HIDDEN
62
109
100
AcDbLine
10
5775.000000000000
20
4102.500000000000
30
0.0
11
6075.000000000000
21
4102.500000000000
31
0.0
0
LINE
5
bfc
100
AcDbEntity
8
F-F_J_ADD
6
HIDDEN
62
109
100
AcDbLine
10
5925.000000000000
20
4050.000000000000
30
0.0
11
5925.000000000000
21
4155.000000000000
31
0.0
0
ENDSEC
 0
SECTION
  2
OBJECTS
 0
DICTIONARY
  5
C
100
AcDbDictionary
  3
ACAD_GROUP
350
D
  3
ACAD_MLINESTYLE
350
E
 0
DICTIONARY
  5
D
102
{ACAD_REACTORS
102
}
100
AcDbDictionary
 0
DICTIONARY
  5
E
102
{ACAD_REACTORS
102
}
100
AcDbDictionary
  3
STANDARD
350
13
0
MLINESTYLE
  5
13
102
{ACAD_REACTORS
102
}
100
AcDbMlineStyle
  2
STANDARD
 70
    0
3

62
256
51
90.0
52
90.0
71
0
0
ACDBPLACEHOLDER
  5
14
102
{ACAD_REACTORS
102
}
0
ENDSEC
0
EOF
