0
SECTION
2
HEADER
9
$ACADVER
1
AC1015
9
$ACADMAINTVER
 70
6
9
$DWGCODEPAGE
3
ANSI_932
9
$EXTMIN
10
0.000
20
0.000
30
0.0
9
$EXTMAX
10
4200.000
20
2970.000
30
0.0
9
$LIMMIN
10
0.000
20
0.000
9
$LIMMAX
10
4200.000
20
2970.000
9
$DIMSCALE
40
10.000000
9
$LTSCALE
40
10.000
9
$PDMODE
70
0
9
$PDSIZE
40
40.0
9
$HANDSEED
5
61f3c
9
$UNITMODE
70
0
9
$VISRETAIN
70
0
9
$PLINEGEN
70
0
9
$PSLTSCALE
70
1
9
$TREEDEPTH
70
3020
9
$CMLSTYLE
2
STANDARD
9
$CMLJUST
70
0
9
$CMLSCALE
40
1.0
9
$PROXYGRAPHICS
70
1
9
$MEASUREMENT
70
0
9
$CELWEIGHT
370
-1
9
$ENDCAPS
280
0
9
$JOINSTYLE
280
0
9
$LWDISPLAY
290
0
9
$INSUNITS
70
0
9
$HYPERLINKBASE
1

9
$STYLESHEET
1

9
$XEDIT
290
1
9
$CEPSNTYPE
380
0
9
$PSTYLEMODE
290
1
9
$FINGERPRINTGUID
2
{5F082321-0195-11D3-BDFB-0060B0CD5109}
9
$VERSIONGUID
2
{12943756-294D-11D3-98C2-0060B087942D}
9
$EXTNAMES
290
1
9
$PSVPSCALE
40
0.0
9
$OLESTARTUP
290
0
0
ENDSEC
0
SECTION
  2
CLASSES
0
ENDSEC
0
SECTION
2
TABLES
0
TABLE
2
VPORT
5
190
100
AcDbSymbolTable
70
2
0
VPORT
5
191
100
AcDbSymbolTableRecord
100
AcDbViewportTableRecord
2
*ACTIVE
70
0
10
0.0
20
0.0
11
1.0
21
1.0
12
2100.000
22
1485.000
13
0.0
23
0.0
14
1.0
24
1.0
15
0.0
25
0.0
16
0.0
26
0.0
36
1.0
17
0.0
27
0.0
37
0.0
40
3043.478
41
2.0
42
50.0
43
0.0
44
0.0
50
0.0
51
0.0
71
0
72
1000
73
1
74
1
75
0
76
0
77
0
78
0
0
ENDTAB
0
TABLE
2
LTYPE
5
1f4
100
AcDbSymbolTable
70
9
0
LTYPE
5
1f5
100
AcDbSymbolTableRecord
100
AcDbLinetypeTableRecord
2
BYBLOCK
70
 64
3

72
 65
73
  0
40
0.0
0
LTYPE
5
1f6
100
AcDbSymbolTableRecord
100
AcDbLinetypeTableRecord
2
BYLAYER
70
 64
3

72
 65
73
  0
40
0.0
0
LTYPE
5
1f7
100
AcDbSymbolTableRecord
100
AcDbLinetypeTableRecord
2
CONTINUOUS
70
64
3
SolidLine
72
65
73
0
40
0.0
0
LTYPE
5
1f8
100
AcDbSymbolTableRecord
100
AcDbLinetypeTableRecord
2
DOT
70
64
3
--  --  --  --  --  --  --  --     
72
65
73
2
40
3.000
49
1.000
74
0
49
-2.000
74
0
0
LTYPE
5
1f9
100
AcDbSymbolTableRecord
100
AcDbLinetypeTableRecord
2
DASHED
70
64
3
----    ----    ----    ----    
72
65
73
2
40
5.000
49
2.000
74
0
49
-3.000
74
0
0
LTYPE
5
1fa
100
AcDbSymbolTableRecord
100
AcDbLinetypeTableRecord
2
DASHED2
70
64
3
------  ------  ------  ------ 
72
65
73
2
40
10.000
49
4.000
74
0
49
-6.000
74
0
0
LTYPE
5
1fb
100
AcDbSymbolTableRecord
100
AcDbLinetypeTableRecord
2
CENTER
70
64
3
----- - ----- - ----- - ----- - 
72
65
73
4
40
10.000
49
6.000
74
0
49
-3.000
74
0
49
1.000
74
0
49
-3.000
74
0
0
LTYPE
5
1fc
100
AcDbSymbolTableRecord
100
AcDbLinetypeTableRecord
2
CENTER2
70
64
3
----------  --  ----------  -- 
72
65
73
4
40
17.000
49
12.000
74
0
49
-5.000
74
0
49
2.000
74
0
49
-5.000
74
0
0
LTYPE
5
1fd
100
AcDbSymbolTableRecord
100
AcDbLinetypeTableRecord
2
PHANTOM
70
64
3
--- - - --- - - --- - - --- - -
72
65
73
6
40
13.000
49
5.000
74
0
49
-3.000
74
0
49
1.000
74
0
49
-3.000
74
0
49
1.000
74
0
49
-3.000
74
0
0
LTYPE
5
1fe
100
AcDbSymbolTableRecord
100
AcDbLinetypeTableRecord
2
PHANTOM2
70
64
3
--------  -  -  --------  -  -
72
65
73
6
40
20.000
49
6.000
74
0
49
-5.000
74
0
49
2.000
74
0
49
-5.000
74
0
49
2.000
74
0
49
-5.000
74
0
0
LTYPE
5
1ff
100
AcDbSymbolTableRecord
100
AcDbLinetypeTableRecord
2
HIDDEN
70
64
3
-   -   -   -   -   -   -   -   
72
65
73
2
40
3.000
49
0.500
74
0
49
-2.500
74
0
0
ENDTAB
0
TABLE
2
STYLE
5
200
100
AcDbSymbolTable
70
1
0
STYLE
5
201
100
AcDbSymbolTableRecord
100
AcDbTextStyleTableRecord
2
STANDARD
70
0
40
0.0
41
1.0
50
0.0
71
0
42
0.0
3
txt.shx
4
extfont.shx
0
STYLE
5
202
100
AcDbSymbolTableRecord
100
AcDbTextStyleTableRecord
2
TATEGAKI
70
4
40
0.0
41
1.0
50
0.0
71
0
42
0.0
3
txt.shx
4
extfont.shx
0
STYLE
5
203
100
AcDbSymbolTableRecord
100
AcDbTextStyleTableRecord
2
DIM
70
0
40
0.0
41
0.75
50
0.0
71
0
42
0.0
3
txt.shx
4
extfont.shx
0
STYLE
5
204
100
AcDbSymbolTableRecord
100
AcDbTextStyleTableRecord
2
_Gothic_
70
0
40
1.0
41
1.0
50
0.0
71
0
42
10.0
3

4

1001
ACAD
1000
MS Gothic
1071
32817
0
STYLE
5
205
100
AcDbSymbolTableRecord
100
AcDbTextStyleTableRecord
2
_TateGothic_
70
4
40
0.0
41
1.0
50
0.0
71
0
42
0.0
3
@MS Gothic
4

0
ENDTAB
0
TABLE
2
VIEW
5
206
100
AcDbSymbolTable
70
0
0
ENDTAB
0
TABLE
2
UCS
5
207
100
AcDbSymbolTable
70
0
0
ENDTAB
0
TABLE
2
APPID
5
208
100
AcDbSymbolTable
70
1
0
APPID
5
209
100
AcDbSymbolTableRecord
100
AcDbRegAppTableRecord
2
ACAD
70
0
0
ENDTAB
0
TABLE
2
DIMSTYLE
5
403
330
0
100
AcDbSymbolTable
70
1
100
AcDbDimStyleTable
71
0
0
DIMSTYLE
105
404
330
402
100
AcDbSymbolTableRecord
100
AcDbDimStyleTableRecord
2
JAC_DIM
70
0
41
20.000
42
0.000
44
0.0
73
0
74
0
77
1
78
8
79
2
140
0.000
170
0
171
2
172
0
173
0
174
0
175
0
176
0
177
0
178
0
270
2
271
0
272
0
273
2
274
2
340
201
275
0
280
0
281
0
282
0
283
0
284
0
285
0
286
0
287
3
288
0
0
ENDTAB
0
TABLE
2
BLOCK_RECORD
5
405
100
AcDbSymbolTable
70
0
0
BLOCK_RECORD
5
406
100
AcDbSymbolTableRecord
100
AcDbBlockTableRecord
2
*MODEL_SPACE
0
BLOCK_RECORD
5
407
100
AcDbSymbolTableRecord
100
AcDbBlockTableRecord
2
*PAPER_SPACE
0
BLOCK_RECORD
5
408
100
AcDbSymbolTableRecord
100
AcDbBlockTableRecord
2
_JACCONVERT_
0
ENDTAB
0
TABLE
2
LAYER
5
409
100
AcDbSymbolTable
70
10
0
LAYER
5
40a
100
AcDbSymbolTableRecord
100
AcDbLayerTableRecord
2
0
70
0
62
7
6
CONTINUOUS
370
-3
390
14
0
LAYER
5
40b
100
AcDbSymbolTableRecord
100
AcDbLayerTableRecord
2
0-3RC
70
0
62
7
6
CONTINUOUS
370
-3
390
14
0
LAYER
5
40c
100
AcDbSymbolTableRecord
100
AcDbLayerTableRecord
2
0-4陰線
70
0
62
7
6
CONTINUOUS
370
-3
390
14
0
LAYER
5
40d
100
AcDbSymbolTableRecord
100
AcDbLayerTableRecord
2
0-5基準線
70
0
62
7
6
CONTINUOUS
370
-3
390
14
0
LAYER
5
40e
100
AcDbSymbolTableRecord
100
AcDbLayerTableRecord
2
0-6戸当り
70
0
62
7
6
CONTINUOUS
370
-3
390
14
0
LAYER
5
40f
100
AcDbSymbolTableRecord
100
AcDbLayerTableRecord
2
0-7図枠
70
0
62
7
6
CONTINUOUS
370
-3
390
14
0
LAYER
5
410
100
AcDbSymbolTableRecord
100
AcDbLayerTableRecord
2
0-8寸法
70
0
62
7
6
CONTINUOUS
370
-3
390
14
0
LAYER
5
411
100
AcDbSymbolTableRecord
100
AcDbLayerTableRecord
2
0-9扉体
70
0
62
7
6
CONTINUOUS
370
-3
390
14
0
LAYER
5
412
100
AcDbSymbolTableRecord
100
AcDbLayerTableRecord
2
0-A文字
70
0
62
7
6
CONTINUOUS
370
-3
390
14
0
LAYER
5
413
100
AcDbSymbolTableRecord
100
AcDbLayerTableRecord
2
F-F_J_ADD
70
0
62
-7
6
CONTINUOUS
290
0
370
-3
390
14
0
ENDTAB
0
ENDSEC
0
SECTION
2
BLOCKS
0
BLOCK
5
414
100
AcDbEntity
67
1
8
0
100
AcDbBlockBegin
2
*MODEL_SPACE
70
0
10
0.0
20
0.0
30
0.0
3
*MODEL_SPACE
1

0
ENDBLK
5
415
100
AcDbEntity
8
0
100
AcDbBlockEnd
0
BLOCK
5
416
100
AcDbEntity
67
1
8
0
100
AcDbBlockBegin
2
*PAPER_SPACE
70
0
10
0.0
20
0.0
30
0.0
3
*PAPER_SPACE
1

0
ENDBLK
5
417
100
AcDbEntity
67
1
8
0
100
AcDbBlockEnd
0
BLOCK
5
418
100
AcDbEntity
8
0
100
AcDbBlockBegin
2
_JACCONVERT_
70
2
10
0.0
20
0.0
30
0.0
3
_JACCONVERT_
1
_JACCONVERT_
0
ATTDEF
5
419
100
AcDbEntity
8
0
62
0
100
AcDbText
10
0.0
20
0.0
30
0.0
40
1.0
1
User:33307E08109409567083093083089083760830E50960850900C608B4808D6408F6408F4F08E
100
AcDbAttributeDefinition
3

2
USER
70
8
0
ATTDEF
5
41a
100
AcDbEntity
8
0
62
0
100
AcDbText
10
0.0
20
2.0
30
0.0
40
1.0
1
Date:24/01/30 09:13
100
AcDbAttributeDefinition
3

2
REVDATE
70
8
0
ATTDEF
5
41b
100
AcDbEntity
8
0
62
0
100
AcDbText
10
0.0
20
4.0
30
0.0
40
1.0
1
File:_MFR-0606K.dxf
100
AcDbAttributeDefinition
3

2
FNAME
70
8
0
ATTDEF
5
41c
100
AcDbEntity
8
0
62
0
100
AcDbText
10
0.0
20
6.0
30
0.0
40
1.0
1
JacConvert Version3.13p copyright (c) 2001-2021 K.Nakahara
100
AcDbAttributeDefinition
3

2
VER
70
8
0
ENDBLK
5
41d
100
AcDbEntity
67
1
8
0
100
AcDbBlockEnd
0
ENDSEC
0
SECTION
2
ENTITIES
0
LINE
5
41e
100
AcDbEntity
8
0-9扉体
6
DOT
62
4
100
AcDbLine
10
1304.673000000000
20
1379.187000000000
30
0.0
11
1304.673000000000
21
691.188000000000
31
0.0
0
LINE
5
41f
100
AcDbEntity
8
0-8寸法
6
CONTINUOUS
62
4
100
AcDbLine
10
2541.774000000000
20
1485.187000000000
30
0.0
11
2847.095000000000
21
1485.187000000000
31
0.0
0
LINE
5
420
100
AcDbEntity
8
0-8寸法
6
CONTINUOUS
62
4
100
AcDbLine
10
2541.774000000000
20
635.188000000000
30
0.0
11
2847.095000000000
21
635.188000000000
31
0.0
0
LINE
5
421
100
AcDbEntity
8
0-8寸法
6
CONTINUOUS
62
4
100
AcDbLine
10
2700.461000000000
20
1335.187000000000
30
0.0
11
2847.095000000000
21
1335.187000000000
31
0.0
0
LINE
5
422
100
AcDbEntity
8
0-8寸法
6
CONTINUOUS
62
4
100
AcDbLine
10
2700.461000000000
20
735.188000000000
30
0.0
11
2847.095000000000
21
735.188000000000
31
0.0
0
LINE
5
423
100
AcDbEntity
8
F-F_J_ADD
6
HIDDEN
62
109
100
AcDbLine
10
0.000000000000
20
2970.000000000000
30
0.0
11
4200.001000000000
21
2970.000000000000
31
0.0
0
LINE
5
424
100
AcDbEntity
8
F-F_J_ADD
6
HIDDEN
62
109
100
AcDbLine
10
4200.001000000000
20
2970.000000000000
30
0.0
11
4200.001000000000
21
0.000000000000
31
0.0
0
LINE
5
425
100
AcDbEntity
8
F-F_J_ADD
6
HIDDEN
62
109
100
AcDbLine
10
0.000000000000
20
0.000000000000
30
0.0
11
4200.001000000000
21
0.000000000000
31
0.0
0
LINE
5
426
100
AcDbEntity
8
F-F_J_ADD
6
HIDDEN
62
109
100
AcDbLine
10
0.000000000000
20
2970.000000000000
30
0.0
11
0.000000000000
21
0.000000000000
31
0.0
0
LINE
5
427
100
AcDbEntity
8
0-7図枠
6
CONTINUOUS
62
2
100
AcDbLine
10
4050.001000000000
20
150.000000000000
30
0.0
11
250.000000000000
21
150.000000000000
31
0.0
0
LINE
5
428
100
AcDbEntity
8
0-7図枠
6
CONTINUOUS
62
2
100
AcDbLine
10
4050.001000000000
20
2770.000000000000
30
0.0
11
4050.001000000000
21
150.000000000000
31
0.0
0
POLYLINE
5
429
100
AcDbEntity
8
0-7図枠
6
CONTINUOUS
62
  2
100
AcDb2dPolyline
66
1
10
0.0
20
0.0
30
0.0
70
0
0
VERTEX
5
42a
100
AcDbEntity
8
0-7図枠
6
CONTINUOUS
62
  2
100
AcDbVertex
100
AcDb2dVertex
10
4050.001000000000
20
2770.000000000000
30
0.0
0
VERTEX
5
42b
100
AcDbEntity
8
0-7図枠
6
CONTINUOUS
62
  2
100
AcDbVertex
100
AcDb2dVertex
10
250.000000000000
20
2770.000000000000
30
0.0
0
VERTEX
5
42c
100
AcDbEntity
8
0-7図枠
6
CONTINUOUS
62
  2
100
AcDbVertex
100
AcDb2dVertex
10
250.000000000000
20
150.000000000000
30
0.0
0
SEQEND
5
42d
100
AcDbEntity
8
0-7図枠
0
TEXT
5
42e
100
AcDbEntity
8
0-7図枠
62
7
370
-3
100
AcDbText
10
2998.956
20
180.640
30
0.0
40
37.807
1
三重重工業株式会社
41
0.856
50
0.000
100
AcDbText
0
TEXT
5
42f
100
AcDbEntity
8
0-7図枠
62
7
370
-3
100
AcDbText
10
3629.247
20
503.175
30
0.0
40
29.405
1
型式
41
0.856
50
0.000
100
AcDbText
0
LINE
5
430
100
AcDbEntity
8
0-7図枠
6
CONTINUOUS
62
2
100
AcDbLine
10
2905.001000000000
20
540.000000000000
30
0.0
11
2905.001000000000
21
150.000000000000
31
0.0
0
LINE
5
431
100
AcDbEntity
8
0-7図枠
6
CONTINUOUS
62
2
100
AcDbLine
10
2905.001000000000
20
540.000000000000
30
0.0
11
4050.001000000000
21
540.000000000000
31
0.0
0
LINE
5
432
100
AcDbEntity
8
0-7図枠
6
CONTINUOUS
62
2
100
AcDbLine
10
2905.001000000000
20
240.000000000000
30
0.0
11
4050.001000000000
21
240.000000000000
31
0.0
0
LINE
5
433
100
AcDbEntity
8
0-7図枠
6
CONTINUOUS
62
2
100
AcDbLine
10
3475.001000000000
20
540.000000000000
30
0.0
11
3475.001000000000
21
150.000000000000
31
0.0
0
LINE
5
434
100
AcDbEntity
8
0-7図枠
6
CONTINUOUS
62
2
100
AcDbLine
10
3415.001000000000
20
540.000000000000
30
0.0
11
3415.001000000000
21
150.000000000000
31
0.0
0
LINE
5
435
100
AcDbEntity
8
0-7図枠
6
CONTINUOUS
62
2
100
AcDbLine
10
3950.001000000000
20
240.000000000000
30
0.0
11
3950.001000000000
21
150.000000000000
31
0.0
0
LINE
5
436
100
AcDbEntity
8
0-7図枠
6
CONTINUOUS
62
2
100
AcDbLine
10
3635.001000000000
20
350.000000000000
30
0.0
11
3635.001000000000
21
240.000000000000
31
0.0
0
LINE
5
437
100
AcDbEntity
8
0-7図枠
6
CONTINUOUS
62
2
100
AcDbLine
10
3685.001000000000
20
350.000000000000
30
0.0
11
3685.001000000000
21
240.000000000000
31
0.0
0
LINE
5
438
100
AcDbEntity
8
0-7図枠
6
CONTINUOUS
62
2
100
AcDbLine
10
3840.000000000000
20
350.000000000000
30
0.0
11
3840.000000000000
21
240.000000000000
31
0.0
0
LINE
5
439
100
AcDbEntity
8
0-7図枠
6
CONTINUOUS
62
2
100
AcDbLine
10
3890.001000000000
20
350.000000000000
30
0.0
11
3890.001000000000
21
240.000000000000
31
0.0
0
LINE
5
43a
100
AcDbEntity
8
0-7図枠
6
CONTINUOUS
62
2
100
AcDbLine
10
3415.001000000000
20
350.000000000000
30
0.0
11
4050.001000000000
21
350.000000000000
31
0.0
0
LINE
5
43b
100
AcDbEntity
8
0-7図枠
6
CONTINUOUS
62
2
100
AcDbLine
10
2905.001000000000
20
330.000000000000
30
0.0
11
3415.001000000000
21
330.000000000000
31
0.0
0
LINE
5
43c
100
AcDbEntity
8
0-7図枠
6
CONTINUOUS
62
2
100
AcDbLine
10
2905.001000000000
20
420.000000000000
30
0.0
11
3415.001000000000
21
420.000000000000
31
0.0
0
LINE
5
43d
100
AcDbEntity
8
0-7図枠
6
CONTINUOUS
62
2
100
AcDbLine
10
2960.001000000000
20
540.000000000000
30
0.0
11
2960.001000000000
21
240.000000000000
31
0.0
0
LINE
5
43e
100
AcDbEntity
8
0-7図枠
6
CONTINUOUS
62
2
100
AcDbLine
10
3215.001000000000
20
420.000000000000
30
0.0
11
3215.001000000000
21
240.000000000000
31
0.0
0
LINE
5
43f
100
AcDbEntity
8
0-7図枠
6
CONTINUOUS
62
2
100
AcDbLine
10
3160.001000000000
20
420.000000000000
30
0.0
11
3160.001000000000
21
240.000000000000
31
0.0
0
LINE
5
440
100
AcDbEntity
8
0-7図枠
6
CONTINUOUS
62
2
100
AcDbLine
10
3965.001000000000
20
165.000000000000
30
0.0
11
4000.001000000000
21
225.622000000000
31
0.0
0
LINE
5
441
100
AcDbEntity
8
0-7図枠
6
CONTINUOUS
62
2
100
AcDbLine
10
4035.001000000000
20
165.000000000000
30
0.0
11
4000.001000000000
21
225.622000000000
31
0.0
0
LINE
5
442
100
AcDbEntity
8
0-7図枠
6
CONTINUOUS
62
2
100
AcDbLine
10
3965.001000000000
20
165.000000000000
30
0.0
11
4035.001000000000
21
165.000000000000
31
0.0
0
LINE
5
443
100
AcDbEntity
8
0-7図枠
6
CONTINUOUS
62
2
100
AcDbLine
10
2928.409000000000
20
189.944000000000
30
0.0
11
2961.058000000000
21
171.094000000000
31
0.0
0
LINE
5
444
100
AcDbEntity
8
0-7図枠
6
CONTINUOUS
62
2
100
AcDbLine
10
2938.654000000000
20
192.689000000000
30
0.0
11
2968.414000000000
21
175.507000000000
31
0.0
0
LINE
5
445
100
AcDbEntity
8
0-7図枠
6
CONTINUOUS
62
2
100
AcDbLine
10
2948.899000000000
20
195.434000000000
30
0.0
11
2973.127000000000
21
181.446000000000
31
0.0
0
LINE
5
446
100
AcDbEntity
8
0-7図枠
6
CONTINUOUS
62
2
100
AcDbLine
10
2931.238000000000
20
190.702000000000
30
0.0
11
2924.994000000000
21
189.029000000000
31
0.0
0
LINE
5
447
100
AcDbEntity
8
0-7図枠
6
CONTINUOUS
62
2
100
AcDbLine
10
2938.826000000000
20
189.703000000000
30
0.0
11
2966.278000000000
21
173.854000000000
31
0.0
0
LINE
5
448
100
AcDbEntity
8
0-7図枠
6
CONTINUOUS
62
2
100
AcDbLine
10
2949.072000000000
20
192.448000000000
30
0.0
11
2971.839000000000
21
179.303000000000
31
0.0
0
LINE
5
449
100
AcDbEntity
8
0-7図枠
6
CONTINUOUS
62
2
100
AcDbLine
10
2959.317000000000
20
195.193000000000
30
0.0
11
2974.756000000000
21
186.279000000000
31
0.0
0
LINE
5
44a
100
AcDbEntity
8
0-7図枠
6
CONTINUOUS
62
2
100
AcDbLine
10
2941.483000000000
20
193.447000000000
30
0.0
11
2933.710000000000
21
191.363999999999
31
0.0
0
LINE
5
44b
100
AcDbEntity
8
0-7図枠
6
CONTINUOUS
62
2
100
AcDbLine
10
2951.729000000000
20
196.192000000000
30
0.0
11
2944.183000000000
21
194.171000000000
31
0.0
0
LINE
5
44c
100
AcDbEntity
8
0-7図枠
6
CONTINUOUS
62
2
100
AcDbLine
10
3486.693000000000
20
420.000000000000
30
0.0
11
4031.845000000000
21
420.000000000000
31
0.0
0
ELLIPSE
  5
44d
100
AcDbEntity
8
0-7図枠
6
CONTINUOUS
62
2
100
AcDbEllipse
10
2949.994000000000
20
189.029000000000
30
0.0
11
30.000000000000
21
0.000000000000
31
0.0
210
0.0
220
0.0
230
1.0
40
0.833300000000
41
0.000000000000
42
6.283185307180
0
ARC
5
44e
100
AcDbEntity
8
0-7図枠
6
CONTINUOUS
62
2
100
AcDbCircle
10
2933.826000000000
20
181.043000000000
30
0.0
40
10.000000000000
100
AcDbArc
50
60.000000000000
51
105.000000000000
0
ARC
5
44f
100
AcDbEntity
8
0-7図枠
6
CONTINUOUS
62
2
100
AcDbCircle
10
2944.071000000000
20
183.788000000000
30
0.0
40
10.000000000000
100
AcDbArc
50
60.000000000000
51
105.000000000000
0
ARC
5
450
100
AcDbEntity
8
0-7図枠
6
CONTINUOUS
62
2
100
AcDbCircle
10
2954.317000000000
20
186.533000000000
30
0.0
40
10.000000000000
100
AcDbArc
50
60.000000000000
51
105.000000000000
0
ELLIPSE
  5
451
100
AcDbEntity
8
0-7図枠
6
CONTINUOUS
62
2
100
AcDbEllipse
10
2949.994000000000
20
189.029000000000
30
0.0
11
25.000000000000
21
0.000000000000
31
0.0
210
0.0
220
0.0
230
1.0
40
0.800000000000
41
0.270792616483
42
6.145261525885
0
LINE
5
452
100
AcDbEntity
8
0-7図枠
6
CONTINUOUS
62
2
100
AcDbLine
10
3625.001000000000
20
490.000000000000
30
0.0
11
3876.333598726114
21
490.000000000000
31
0.0
0
LINE
5
453
100
AcDbEntity
8
F-F_J_ADD
6
HIDDEN
62
109
100
AcDbLine
10
2905.001000000000
20
480.000000000000
30
0.0
11
3415.002000000000
21
480.000000000000
31
0.0
0
LINE
5
454
100
AcDbEntity
8
F-F_J_ADD
6
HIDDEN
62
109
100
AcDbLine
10
3415.002000000000
20
375.000000000000
30
0.0
11
2905.001000000000
21
375.000000000000
31
0.0
0
LINE
5
455
100
AcDbEntity
8
F-F_J_ADD
6
HIDDEN
62
109
100
AcDbLine
10
2905.001000000000
20
285.000000000000
30
0.0
11
3415.002000000000
21
285.000000000000
31
0.0
0
LINE
5
456
100
AcDbEntity
8
F-F_J_ADD
6
HIDDEN
62
109
100
AcDbLine
10
2932.501000000000
20
540.000000000000
30
0.0
11
2932.501000000000
21
240.000000000000
31
0.0
0
LINE
5
457
100
AcDbEntity
8
F-F_J_ADD
6
HIDDEN
62
109
100
AcDbLine
10
3060.001000000000
20
420.000000000000
30
0.0
11
3060.001000000000
21
240.000000000000
31
0.0
0
LINE
5
458
100
AcDbEntity
8
F-F_J_ADD
6
HIDDEN
62
109
100
AcDbLine
10
3187.501500000000
20
420.000000000000
30
0.0
11
3187.501500000000
21
240.000000000000
31
0.0
0
LINE
5
459
100
AcDbEntity
8
F-F_J_ADD
6
HIDDEN
62
109
100
AcDbLine
10
3315.002000000000
20
420.000000000000
30
0.0
11
3315.002000000000
21
240.000000000000
31
0.0
0
LINE
5
45a
100
AcDbEntity
8
F-F_J_ADD
6
HIDDEN
62
109
100
AcDbLine
10
3187.501500000000
20
540.000000000000
30
0.0
11
3187.501500000000
21
420.000000000000
31
0.0
0
LINE
5
45b
100
AcDbEntity
8
F-F_J_ADD
6
HIDDEN
62
109
100
AcDbLine
10
3445.001500000000
20
540.000000000000
30
0.0
11
3445.001500000000
21
150.000000000000
31
0.0
0
LINE
5
45c
100
AcDbEntity
8
F-F_J_ADD
6
HIDDEN
62
109
100
AcDbLine
10
3415.002000000000
20
445.000000000000
30
0.0
11
3475.001000000000
21
445.000000000000
31
0.0
0
LINE
5
45d
100
AcDbEntity
8
F-F_J_ADD
6
HIDDEN
62
109
100
AcDbLine
10
4050.001000000000
20
295.000000000000
30
0.0
11
3415.002000000000
21
295.000000000000
31
0.0
0
LINE
5
45e
100
AcDbEntity
8
F-F_J_ADD
6
HIDDEN
62
109
100
AcDbLine
10
3555.001000000000
20
240.000000000000
30
0.0
11
3555.001000000000
21
350.000000000000
31
0.0
0
LINE
5
45f
100
AcDbEntity
8
F-F_J_ADD
6
HIDDEN
62
109
100
AcDbLine
10
3660.001000000000
20
350.000000000000
30
0.0
11
3660.001000000000
21
240.000000000000
31
0.0
0
LINE
5
460
100
AcDbEntity
8
F-F_J_ADD
6
HIDDEN
62
109
100
AcDbLine
10
3762.501000000000
20
350.000000000000
30
0.0
11
3762.501000000000
21
240.000000000000
31
0.0
0
LINE
5
461
100
AcDbEntity
8
F-F_J_ADD
6
HIDDEN
62
109
100
AcDbLine
10
3865.001000000000
20
350.000000000000
30
0.0
11
3865.001000000000
21
240.000000000000
31
0.0
0
LINE
5
462
100
AcDbEntity
8
F-F_J_ADD
6
HIDDEN
62
109
100
AcDbLine
10
3970.001000000000
20
350.000000000000
30
0.0
11
3970.001000000000
21
240.000000000000
31
0.0
0
LINE
5
463
100
AcDbEntity
8
F-F_J_ADD
6
HIDDEN
62
109
100
AcDbLine
10
3762.501000000000
20
540.000000000000
30
0.0
11
3762.501000000000
21
350.000000000000
31
0.0
0
LINE
5
464
100
AcDbEntity
8
F-F_J_ADD
6
HIDDEN
62
109
100
AcDbLine
10
3475.001000000000
20
240.000000000000
30
0.0
11
3950.001000000000
21
240.000000000000
31
0.0
0
LINE
5
465
100
AcDbEntity
8
F-F_J_ADD
6
HIDDEN
62
109
100
AcDbLine
10
3950.001000000000
20
240.000000000000
30
0.0
11
3950.001000000000
21
150.000000000000
31
0.0
0
LINE
5
466
100
AcDbEntity
8
F-F_J_ADD
6
HIDDEN
62
109
100
AcDbLine
10
3712.501000000000
20
150.000000000000
30
0.0
11
3712.501000000000
21
240.000000000000
31
0.0
0
LINE
5
467
100
AcDbEntity
8
F-F_J_ADD
6
HIDDEN
62
109
100
AcDbLine
10
4000.001000000000
20
150.000000000000
30
0.0
11
4000.001000000000
21
240.000000000000
31
0.0
0
LINE
5
468
100
AcDbEntity
8
F-F_J_ADD
6
HIDDEN
62
109
100
AcDbLine
10
4050.001000000000
20
195.000000000000
30
0.0
11
3415.002000000000
21
195.000000000000
31
0.0
0
TEXT
5
469
100
AcDbEntity
8
0-7図枠
62
7
370
-3
100
AcDbText
10
2931.828
20
516.487
30
0.0
40
26.465
1
客先
41
0.856
50
0.000
  7
TATEGAKI
100
AcDbText
0
TEXT
5
46a
100
AcDbEntity
8
0-7図枠
62
7
370
-3
100
AcDbText
10
2931.828
20
411.487
30
0.0
40
26.465
1
材質
41
0.856
50
0.000
  7
TATEGAKI
100
AcDbText
0
TEXT
5
46b
100
AcDbEntity
8
0-7図枠
62
7
370
-3
100
AcDbText
10
2931.828
20
321.487
30
0.0
40
26.465
1
尺度
41
0.856
50
0.000
  7
TATEGAKI
100
AcDbText
0
TEXT
5
46c
100
AcDbEntity
8
0-7図枠
62
7
370
-3
100
AcDbText
10
3016.870
20
269.432
30
0.0
40
37.807
41
0.684
50
0.000
1
1/10
72
1
11
3060.001
21
285.000
31
0.0
100
AcDbText
73
2
0
TEXT
5
46d
100
AcDbEntity
8
0-7図枠
62
7
370
-3
100
AcDbText
10
3186.829
20
411.487
30
0.0
40
26.465
1
数量
41
0.856
50
0.000
  7
TATEGAKI
100
AcDbText
0
TEXT
5
46e
100
AcDbEntity
8
0-7図枠
62
7
370
-3
100
AcDbText
10
3186.829
20
321.487
30
0.0
40
26.465
1
日付
41
0.856
50
0.000
  7
TATEGAKI
100
AcDbText
0
TEXT
5
46f
100
AcDbEntity
8
0-7図枠
62
7
370
-3
100
AcDbText
10
3238.175
20
269.432
30
0.0
40
37.807
41
0.714
50
0.000
1
R5.12.1
72
1
11
3315.002
21
285.000
31
0.0
100
AcDbText
73
2
0
TEXT
5
470
100
AcDbEntity
8
0-7図枠
62
7
370
-3
100
AcDbText
10
3511.870
20
279.432
30
0.0
40
37.807
41
0.856
50
0.000
1
熊崎
72
1
11
3555.001
21
295.000
31
0.0
100
AcDbText
73
2
0
TEXT
5
471
100
AcDbEntity
8
0-7図枠
62
7
370
-3
100
AcDbText
10
3444.329
20
331.487
30
0.0
40
26.465
1
承認
41
0.856
50
0.000
  7
TATEGAKI
100
AcDbText
0
TEXT
5
472
100
AcDbEntity
8
0-7図枠
62
7
370
-3
100
AcDbText
10
3444.329
20
498.959
30
0.0
40
26.465
1
名　称
41
0.856
50
0.000
  7
TATEGAKI
100
AcDbText
0
TEXT
5
473
100
AcDbEntity
8
0-7図枠
62
7
370
-3
100
AcDbText
10
3659.328
20
331.487
30
0.0
40
26.465
1
検図
41
0.856
50
0.000
  7
TATEGAKI
100
AcDbText
0
TEXT
5
474
100
AcDbEntity
8
0-7図枠
62
7
370
-3
100
AcDbText
10
3719.370
20
279.432
30
0.0
40
37.807
41
0.856
50
0.000
1
井福
72
1
11
3762.501
21
295.000
31
0.0
100
AcDbText
73
2
0
TEXT
5
475
100
AcDbEntity
8
0-7図枠
62
7
370
-3
100
AcDbText
10
3864.328
20
331.487
30
0.0
40
26.465
1
担当
41
0.856
50
0.000
  7
TATEGAKI
100
AcDbText
0
TEXT
5
476
100
AcDbEntity
8
0-7図枠
62
7
370
-3
100
AcDbText
10
3926.870
20
279.432
30
0.0
40
37.807
41
0.856
50
0.000
1
平川
72
1
11
3970.001
21
295.000
31
0.0
100
AcDbText
73
2
0
TEXT
5
477
100
AcDbEntity
8
0-7図枠
62
7
370
-3
100
AcDbText
10
3444.329
20
231.487
30
0.0
40
26.465
1
図番
41
0.856
50
0.000
  7
TATEGAKI
100
AcDbText
0
LINE
5
478
100
AcDbEntity
8
0-7図枠
6
CONTINUOUS
62
2
100
AcDbLine
10
3105.001000000000
20
2695.000000000000
30
0.0
11
4050.001000000000
21
2695.000000000000
31
0.0
0
LINE
5
479
100
AcDbEntity
8
0-7図枠
6
CONTINUOUS
62
2
100
AcDbLine
10
3105.001000000000
20
2770.000000000000
30
0.0
11
3105.001000000000
21
2695.000000000000
31
0.0
0
LINE
5
47a
100
AcDbEntity
8
0-7図枠
6
CONTINUOUS
62
2
100
AcDbLine
10
3655.002000000000
20
2770.000000000000
30
0.0
11
3655.002000000000
21
2695.000000000000
31
0.0
0
LINE
5
47b
100
AcDbEntity
8
0-7図枠
6
CONTINUOUS
62
2
100
AcDbLine
10
3855.001000000000
20
2770.000000000000
30
0.0
11
3855.001000000000
21
2695.000000000000
31
0.0
0
LINE
5
47c
100
AcDbEntity
8
0-7図枠
6
CONTINUOUS
62
2
100
AcDbLine
10
3215.002000000000
20
2770.000000000000
30
0.0
11
3215.002000000000
21
2695.000000000000
31
0.0
0
TEXT
5
47d
100
AcDbEntity
8
0-7図枠
62
7
370
-3
100
AcDbText
10
3119.101
20
2718.640
30
0.0
40
33.660
41
0.963
50
0.000
1
記号
72
1
11
3162.501
21
2735.000
31
0.0
100
AcDbText
73
2
0
TEXT
5
47e
100
AcDbEntity
8
0-7図枠
62
7
370
-3
100
AcDbText
10
3281.602
20
2718.640
30
0.0
40
33.660
41
0.963
50
0.000
1
修　　　　　正
72
1
11
3437.502
21
2735.000
31
0.0
100
AcDbText
73
2
0
TEXT
5
47f
100
AcDbEntity
8
0-7図枠
62
7
370
-3
100
AcDbText
10
3691.601
20
2718.640
30
0.0
40
33.660
41
0.963
50
0.000
1
日　付
72
1
11
3757.501
21
2735.000
31
0.0
100
AcDbText
73
2
0
TEXT
5
480
100
AcDbEntity
8
0-7図枠
62
7
370
-3
100
AcDbText
10
3889.101
20
2718.640
30
0.0
40
33.660
41
0.963
50
0.000
1
担　当
72
1
11
3955.001
21
2735.000
31
0.0
100
AcDbText
73
2
0
LINE
5
481
100
AcDbEntity
8
F-F_J_ADD
6
HIDDEN
62
109
100
AcDbLine
10
3105.001000000000
20
2732.500000000000
30
0.0
11
4050.001000000000
21
2732.500000000000
31
0.0
0
LINE
5
482
100
AcDbEntity
8
F-F_J_ADD
6
HIDDEN
62
109
100
AcDbLine
10
3160.001500000000
20
2770.000000000000
30
0.0
11
3160.001500000000
21
2695.000000000000
31
0.0
0
LINE
5
483
100
AcDbEntity
8
F-F_J_ADD
6
HIDDEN
62
109
100
AcDbLine
10
3435.002000000000
20
2770.000000000000
30
0.0
11
3435.002000000000
21
2695.000000000000
31
0.0
0
LINE
5
484
100
AcDbEntity
8
F-F_J_ADD
6
HIDDEN
62
109
100
AcDbLine
10
3755.001500000000
20
2770.000000000000
30
0.0
11
3755.001500000000
21
2695.000000000000
31
0.0
0
LINE
5
485
100
AcDbEntity
8
F-F_J_ADD
6
HIDDEN
62
109
100
AcDbLine
10
3952.501000000000
20
2770.000000000000
30
0.0
11
3952.501000000000
21
2695.000000000000
31
0.0
0
TEXT
5
486
100
AcDbEntity
8
0-7図枠
62
7
370
-3
100
AcDbText
10
3992.663
20
170.548
30
0.0
40
29.405
41
0.547
50
0.000
1
4
72
1
11
4000.001
21
182.656
31
0.0
100
AcDbText
73
2
0
TEXT
5
487
100
AcDbEntity
8
0-7図枠
62
7
370
-3
100
AcDbText
10
3714.449
20
500.615
30
0.0
40
29.405
1
MFR-0606K
41
0.533
50
0.000
100
AcDbText
0
MTEXT
5
488
100
AcDbEntity
8
0-7図枠
62
7
370
-3
100
AcDbMText
10
3552.139
20
368.568
30
0.0
40
35.707
41
0.000
71
7
72
1
1
\W0.972;鋼製{\W0.700;ﾌﾗｯﾌﾟｹﾞ-ﾄ(}壁付{\W0.700;)}
7
STANDARD
11
1.00000
21
0.00000
31
0.0
0
TEXT
5
489
100
AcDbEntity
8
0-7図枠
62
7
370
-3
100
AcDbText
10
3596.797
20
437.595
30
0.0
40
37.807
1
600 Bo x 600 Ho
41
0.609
50
0.000
100
AcDbText
0
TEXT
5
48a
100
AcDbEntity
8
0-7図枠
62
7
370
-3
100
AcDbText
10
3579.514
20
179.432
30
0.0
40
37.807
1
Ｋ－２２０５
41
0.856
50
0.000
100
AcDbText
0
TEXT
5
48b
100
AcDbEntity
8
0-A文字
62
7
370
-3
100
AcDbText
10
2986.299
20
674.434
30
0.0
40
33.660
1
　　　　　１０Ｂ５／１０（青色）と致します。
41
0.856
50
0.000
100
AcDbText
0
TEXT
5
48c
100
AcDbEntity
8
0-A文字
62
7
370
-3
100
AcDbText
10
2986.299
20
734.434
30
0.0
40
33.660
1
　　　　　上塗色調は御指定なき場合、マンセル値
41
0.856
50
0.000
100
AcDbText
0
TEXT
5
48d
100
AcDbEntity
8
0-A文字
62
7
370
-3
100
AcDbText
10
2986.299
20
790.321
30
0.0
40
33.660
1
注記　１．塗装　下地処理後、ポリウレタン樹脂塗装とし
41
0.856
50
0.000
100
AcDbText
0
LINE
5
48e
100
AcDbEntity
8
0-A文字
6
CONTINUOUS
62
4
100
AcDbLine
10
2969.294607919847
20
780.293000000000
30
0.0
11
4024.636638578723
21
780.293000000000
31
0.0
0
LINE
5
48f
100
AcDbEntity
8
0-A文字
6
CONTINUOUS
62
4
100
AcDbLine
10
2969.294607919847
20
720.292000000000
30
0.0
11
4024.636638578723
21
720.292000000000
31
0.0
0
LINE
5
490
100
AcDbEntity
8
0-A文字
6
CONTINUOUS
62
4
100
AcDbLine
10
2969.294607919847
20
660.292000000000
30
0.0
11
4024.636638578723
21
660.292000000000
31
0.0
0
LINE
5
491
100
AcDbEntity
8
0-7図枠
6
CONTINUOUS
62
4
100
AcDbLine
10
3834.084000000000
20
2280.267000000000
30
0.0
11
3834.084000000000
21
2025.266000000000
31
0.0
0
LINE
5
492
100
AcDbEntity
8
0-7図枠
6
CONTINUOUS
62
4
100
AcDbLine
10
3204.085000000000
20
2205.266000000000
30
0.0
11
3204.085000000000
21
2025.266000000000
31
0.0
0
LINE
5
493
100
AcDbEntity
8
0-7図枠
6
CONTINUOUS
62
4
100
AcDbLine
10
3519.085000000000
20
2205.266000000000
30
0.0
11
3519.085000000000
21
2025.266000000000
31
0.0
0
LINE
5
494
100
AcDbEntity
8
0-7図枠
6
CONTINUOUS
62
4
100
AcDbLine
10
2954.085000000000
20
2280.267000000000
30
0.0
11
3834.084000000000
21
2280.267000000000
31
0.0
0
LINE
5
495
100
AcDbEntity
8
0-7図枠
6
CONTINUOUS
62
4
100
AcDbLine
10
2954.085000000000
20
2205.266000000000
30
0.0
11
3834.084000000000
21
2205.266000000000
31
0.0
0
LINE
5
496
100
AcDbEntity
8
0-7図枠
6
CONTINUOUS
62
4
100
AcDbLine
10
2954.085000000000
20
2145.266000000000
30
0.0
11
3834.084000000000
21
2145.266000000000
31
0.0
0
LINE
5
497
100
AcDbEntity
8
0-7図枠
6
CONTINUOUS
62
4
100
AcDbLine
10
2954.085000000000
20
2085.267000000000
30
0.0
11
3834.084000000000
21
2085.267000000000
31
0.0
0
LINE
5
498
100
AcDbEntity
8
0-7図枠
6
CONTINUOUS
62
4
100
AcDbLine
10
2954.085000000000
20
2025.266000000000
30
0.0
11
3834.084000000000
21
2025.266000000000
31
0.0
0
LINE
5
499
100
AcDbEntity
8
0-7図枠
6
CONTINUOUS
62
4
100
AcDbLine
10
2954.085000000000
20
2280.267000000000
30
0.0
11
2954.085000000000
21
2025.266000000000
31
0.0
0
TEXT
5
49a
100
AcDbEntity
8
0-7図枠
62
7
370
-3
100
AcDbText
10
2993.185
20
2161.406
30
0.0
40
33.660
41
0.963
50
0.000
1
通水断面
72
1
11
3081.585
21
2177.766
31
0.0
100
AcDbText
73
2
0
TEXT
5
49b
100
AcDbEntity
8
0-7図枠
62
7
370
-3
100
AcDbText
10
2993.185
20
2101.407
30
0.0
40
33.660
41
0.963
50
0.000
1
扉体寸法
72
1
11
3081.585
21
2117.767
31
0.0
100
AcDbText
73
2
0
TEXT
5
49c
100
AcDbEntity
8
0-7図枠
62
7
370
-3
100
AcDbText
10
2993.185
20
2041.407
30
0.0
40
33.660
41
0.963
50
0.000
1
設計水深
72
1
11
3081.585
21
2057.767
31
0.0
100
AcDbText
73
2
0
TEXT
5
49d
100
AcDbEntity
8
0-7図枠
62
7
370
-3
100
AcDbText
10
3240.684
20
2228.907
30
0.0
40
33.660
41
0.963
50
0.000
1
設　計　条　件
72
1
11
3396.584
21
2245.267
31
0.0
100
AcDbText
73
2
0
MTEXT
5
49e
100
AcDbEntity
8
0-7図枠
62
7
370
-3
100
AcDbMText
10
3365.462
20
2180.166
30
0.0
40
31.790
41
0.000
71
5
72
1
1
\W1.093;有効幅{\W0.787; 0.60 m}
7
STANDARD
11
1.00000
21
0.00000
31
0.0
0
MTEXT
5
49f
100
AcDbEntity
8
0-7図枠
62
7
370
-3
100
AcDbMText
10
3365.462
20
2120.167
30
0.0
40
31.790
41
0.000
71
5
72
1
1
\W1.093;扉体幅{\W0.787; 0.70 m}
7
STANDARD
11
1.00000
21
0.00000
31
0.0
0
MTEXT
5
4a0
100
AcDbEntity
8
0-7図枠
62
7
370
-3
100
AcDbMText
10
3365.686
20
2060.167
30
0.0
40
31.790
41
0.000
71
5
72
1
1
\W1.093;前水深{\W0.787; 2.40 m}
7
STANDARD
11
1.00000
21
0.00000
31
0.0
0
MTEXT
5
4a1
100
AcDbEntity
8
0-7図枠
62
7
370
-3
100
AcDbMText
10
3680.462
20
2060.167
30
0.0
40
31.790
41
0.000
71
5
72
1
1
\W1.093;後水深{\W0.787; 0.00 m}
7
STANDARD
11
1.00000
21
0.00000
31
0.0
0
MTEXT
5
4a2
100
AcDbEntity
8
0-7図枠
62
7
370
-3
100
AcDbMText
10
3680.462
20
2120.167
30
0.0
40
31.790
41
0.000
71
5
72
1
1
\W1.093;扉体高{\W0.787; 0.70 m}
7
STANDARD
11
1.00000
21
0.00000
31
0.0
0
MTEXT
5
4a3
100
AcDbEntity
8
0-7図枠
62
7
370
-3
100
AcDbMText
10
3680.462
20
2180.166
30
0.0
40
31.790
41
0.000
71
5
72
1
1
\W1.093;有効高{\W0.787; 0.60 m}
7
STANDARD
11
1.00000
21
0.00000
31
0.0
0
LINE
5
4a4
100
AcDbEntity
8
0-8寸法
6
CONTINUOUS
62
4
100
AcDbLine
10
311.381000000000
20
1710.188000000000
30
0.0
11
943.663000000000
21
1710.188000000000
31
0.0
0
LINE
5
4a5
100
AcDbEntity
8
0-8寸法
6
CONTINUOUS
62
4
100
AcDbLine
10
311.381000000000
20
1810.188000000000
30
0.0
11
943.663000000000
21
1810.188000000000
31
0.0
0
LINE
5
4a6
100
AcDbEntity
8
0-8寸法
6
CONTINUOUS
62
4
100
AcDbLine
10
311.381000000000
20
1610.188000000000
30
0.0
11
943.663000000000
21
1610.188000000000
31
0.0
0
MTEXT
5
4a7
100
AcDbEntity
8
0-8寸法
62
7
370
-3
100
AcDbMText
10
331.493
20
1820.495
30
0.0
40
31.790
41
0.000
71
7
72
1
1
\W1.093;吊り{\W0.787;ﾌﾞﾗｹｯﾄ PL-8t(SUS304)}
7
STANDARD
11
1.00000
21
0.00000
31
0.0
0
MTEXT
5
4a8
100
AcDbEntity
8
0-8寸法
62
7
370
-3
100
AcDbMText
10
331.475
20
1720.495
30
0.0
40
31.790
41
0.000
71
7
72
1
1
\W1.093;{\W0.787; }　　　　　{\W0.787;PL-12t(SS400)}
7
STANDARD
11
1.00000
21
0.00000
31
0.0
0
MTEXT
5
4a9
100
AcDbEntity
8
0-8寸法
62
7
370
-3
100
AcDbMText
10
331.493
20
1620.495
30
0.0
40
31.790
41
0.000
71
7
72
1
1
\W1.093;接着系{\W0.787;ｱﾝｶ- M12(SUS304}相当{\W0.787;)}
7
STANDARD
11
1.00000
21
0.00000
31
0.0
0
LINE
5
4aa
100
AcDbEntity
8
0-9扉体
6
CONTINUOUS
62
3
100
AcDbLine
10
1153.663000000000
20
1394.188000000000
30
0.0
11
1013.663000000000
21
1394.188000000000
31
0.0
0
CIRCLE
5
4ab
100
AcDbEntity
8
0-6戸当り
6
CONTINUOUS
62
7
100
AcDbCircle
10
1018.663000000000
20
1465.188000000000
30
0.0
40
9.500000000000
0
CIRCLE
5
4ac
100
AcDbEntity
8
0-6戸当り
6
CONTINUOUS
62
7
100
AcDbCircle
10
1018.663000000000
20
1465.188000000000
30
0.0
40
9.500000000000
0
POLYLINE
5
4ad
100
AcDbEntity
  8
0-8寸法
6
CONTINUOUS
62
4
100
AcDb2dPolyline
66
1
10
0
20
0
70
1
40
4.000
41
4.000
0
VERTEX
5
4ae
100
AcDbEntity
  8
0-8寸法
6
CONTINUOUS
62
4
100
AcDbVertex
100
AcDb2dVertex
10
1625.700
20
2277.688
30
0.0
42
1.000
0
VERTEX
5
4af
100
AcDbEntity
  8
0-8寸法
6
CONTINUOUS
62
4
100
AcDbVertex
100
AcDb2dVertex
10
1629.700
20
2277.688
30
0.0
42
1.000
0
SEQEND
5
4b0
100
AcDbEntity
  8
0-8寸法
0
POLYLINE
5
4b1
100
AcDbEntity
  8
0-8寸法
6
CONTINUOUS
62
4
100
AcDb2dPolyline
66
1
10
0
20
0
70
1
40
4.000
41
4.000
0
VERTEX
5
4b2
100
AcDbEntity
  8
0-8寸法
6
CONTINUOUS
62
4
100
AcDbVertex
100
AcDb2dVertex
10
1625.700
20
2277.688
30
0.0
42
1.000
0
VERTEX
5
4b3
100
AcDbEntity
  8
0-8寸法
6
CONTINUOUS
62
4
100
AcDbVertex
100
AcDb2dVertex
10
1629.700
20
2277.688
30
0.0
42
1.000
0
SEQEND
5
4b4
100
AcDbEntity
  8
0-8寸法
0
LINE
5
4b5
100
AcDbEntity
8
0-9扉体
6
CONTINUOUS
62
3
100
AcDbLine
10
1153.663000000000
20
1394.188000000000
30
0.0
11
1153.663000000000
21
1385.188000000000
31
0.0
0
LINE
5
4b6
100
AcDbEntity
8
0-9扉体
6
CONTINUOUS
62
3
100
AcDbLine
10
1013.663000000000
20
1394.188000000000
30
0.0
11
1013.663000000000
21
1385.188000000000
31
0.0
0
POLYLINE
5
4b7
100
AcDbEntity
8
0-9扉体
6
CONTINUOUS
62
  3
100
AcDb2dPolyline
66
1
10
0.0
20
0.0
30
0.0
70
0
0
VERTEX
5
4b8
100
AcDbEntity
8
0-9扉体
6
CONTINUOUS
62
  3
100
AcDbVertex
100
AcDb2dVertex
10
1053.663000000000
20
1459.187000000000
30
0.0
0
VERTEX
5
4b9
100
AcDbEntity
8
0-9扉体
6
CONTINUOUS
62
  3
100
AcDbVertex
100
AcDb2dVertex
10
1062.663000000000
20
1459.187000000000
30
0.0
0
VERTEX
5
4ba
100
AcDbEntity
8
0-9扉体
6
CONTINUOUS
62
  3
100
AcDbVertex
100
AcDb2dVertex
10
1062.663000000000
20
1394.188000000000
30
0.0
0
SEQEND
5
4bb
100
AcDbEntity
8
0-9扉体
0
LINE
5
4bc
100
AcDbEntity
8
0-9扉体
6
CONTINUOUS
62
3
100
AcDbLine
10
1053.663000000000
20
1459.187000000000
30
0.0
11
1053.663000000000
21
1394.188000000000
31
0.0
0
LINE
5
4bd
100
AcDbEntity
8
0-6戸当り
6
DOT
62
6
100
AcDbLine
10
1064.663000000000
20
1426.188000000000
30
0.0
11
1102.663000000000
21
1426.188000000000
31
0.0
0
LINE
5
4be
100
AcDbEntity
8
0-6戸当り
6
CONTINUOUS
62
6
100
AcDbLine
10
1064.663000000000
20
1418.188000000000
30
0.0
11
1102.663000000000
21
1418.188000000000
31
0.0
0
LINE
5
4bf
100
AcDbEntity
8
0-6戸当り
6
CONTINUOUS
62
6
100
AcDbLine
10
1064.663000000000
20
1452.188000000000
30
0.0
11
1064.663000000000
21
1418.188000000000
31
0.0
0
POLYLINE
5
4c0
100
AcDbEntity
8
0-6戸当り
6
CONTINUOUS
62
  6
100
AcDb2dPolyline
66
1
10
0.0
20
0.0
30
0.0
70
0
0
VERTEX
5
4c1
100
AcDbEntity
8
0-6戸当り
6
CONTINUOUS
62
  6
100
AcDbVertex
100
AcDb2dVertex
10
1064.663000000000
20
1452.188000000000
30
0.0
0
VERTEX
5
4c2
100
AcDbEntity
8
0-6戸当り
6
CONTINUOUS
62
  6
100
AcDbVertex
100
AcDb2dVertex
10
1102.663000000000
20
1452.188000000000
30
0.0
0
VERTEX
5
4c3
100
AcDbEntity
8
0-6戸当り
6
CONTINUOUS
62
  6
100
AcDbVertex
100
AcDb2dVertex
10
1102.663000000000
20
1418.188000000000
30
0.0
0
SEQEND
5
4c4
100
AcDbEntity
8
0-6戸当り
0
LINE
5
4c5
100
AcDbEntity
8
0-9扉体
6
CONTINUOUS
62
6
100
AcDbLine
10
1051.063000000000
20
1451.188000000000
30
0.0
11
1051.063000000000
21
1419.188000000000
31
0.0
0
LINE
5
4c6
100
AcDbEntity
8
0-9扉体
6
CONTINUOUS
62
6
100
AcDbLine
10
1040.163000000000
20
1443.188000000000
30
0.0
11
1040.163000000000
21
1427.188000000000
31
0.0
0
LINE
5
4c7
100
AcDbEntity
8
0-9扉体
6
CONTINUOUS
62
6
100
AcDbLine
10
1040.163000000000
20
1443.188000000000
30
0.0
11
1051.063000000000
21
1443.188000000000
31
0.0
0
LINE
5
4c8
100
AcDbEntity
8
0-9扉体
6
CONTINUOUS
62
6
100
AcDbLine
10
1040.163000000000
20
1427.188000000000
30
0.0
11
1051.063000000000
21
1427.188000000000
31
0.0
0
LINE
5
4c9
100
AcDbEntity
8
0-9扉体
6
CONTINUOUS
62
6
100
AcDbLine
10
1062.663000000000
20
1427.188000000000
30
0.0
11
1064.663000000000
21
1427.188000000000
31
0.0
0
LINE
5
4ca
100
AcDbEntity
8
0-6戸当り
6
DOT
62
6
100
AcDbLine
10
1064.663000000000
20
1444.188000000000
30
0.0
11
1102.663000000000
21
1444.188000000000
31
0.0
0
LINE
5
4cb
100
AcDbEntity
8
0-9扉体
6
CONTINUOUS
62
6
100
AcDbLine
10
1062.663000000000
20
1443.188000000000
30
0.0
11
1064.663000000000
21
1443.188000000000
31
0.0
0
LINE
5
4cc
100
AcDbEntity
8
0-9扉体
6
CONTINUOUS
62
6
100
AcDbLine
10
1116.263000000000
20
1451.188000000000
30
0.0
11
1116.263000000000
21
1419.188000000000
31
0.0
0
LINE
5
4cd
100
AcDbEntity
8
0-9扉体
6
CONTINUOUS
62
6
100
AcDbLine
10
1116.263000000000
20
1451.188000000000
30
0.0
11
1113.663000000000
21
1451.188000000000
31
0.0
0
LINE
5
4ce
100
AcDbEntity
8
0-9扉体
6
CONTINUOUS
62
6
100
AcDbLine
10
1116.263000000000
20
1419.188000000000
30
0.0
11
1113.663000000000
21
1419.188000000000
31
0.0
0
LINE
5
4cf
100
AcDbEntity
8
0-9扉体
6
CONTINUOUS
62
6
100
AcDbLine
10
1127.163000000000
20
1443.188000000000
30
0.0
11
1127.163000000000
21
1427.188000000000
31
0.0
0
LINE
5
4d0
100
AcDbEntity
8
0-9扉体
6
CONTINUOUS
62
6
100
AcDbLine
10
1127.163000000000
20
1443.188000000000
30
0.0
11
1116.263000000000
21
1443.188000000000
31
0.0
0
LINE
5
4d1
100
AcDbEntity
8
0-9扉体
6
CONTINUOUS
62
6
100
AcDbLine
10
1127.163000000000
20
1427.188000000000
30
0.0
11
1116.263000000000
21
1427.188000000000
31
0.0
0
LINE
5
4d2
100
AcDbEntity
8
0-9扉体
6
CONTINUOUS
62
6
100
AcDbLine
10
1104.663000000000
20
1427.188000000000
30
0.0
11
1102.663000000000
21
1427.188000000000
31
0.0
0
LINE
5
4d3
100
AcDbEntity
8
0-9扉体
6
CONTINUOUS
62
6
100
AcDbLine
10
1104.663000000000
20
1443.188000000000
30
0.0
11
1102.663000000000
21
1443.188000000000
31
0.0
0
POLYLINE
5
4d4
100
AcDbEntity
8
0-9扉体
6
CONTINUOUS
62
  3
100
AcDb2dPolyline
66
1
10
0.0
20
0.0
30
0.0
70
0
0
VERTEX
5
4d5
100
AcDbEntity
8
0-9扉体
6
CONTINUOUS
62
  3
100
AcDbVertex
100
AcDb2dVertex
10
1113.663000000000
20
1459.187000000000
30
0.0
0
VERTEX
5
4d6
100
AcDbEntity
8
0-9扉体
6
CONTINUOUS
62
  3
100
AcDbVertex
100
AcDb2dVertex
10
1104.663000000000
20
1459.187000000000
30
0.0
0
VERTEX
5
4d7
100
AcDbEntity
8
0-9扉体
6
CONTINUOUS
62
  3
100
AcDbVertex
100
AcDb2dVertex
10
1104.663000000000
20
1394.188000000000
30
0.0
0
SEQEND
5
4d8
100
AcDbEntity
8
0-9扉体
0
LINE
5
4d9
100
AcDbEntity
8
0-9扉体
6
CONTINUOUS
62
3
100
AcDbLine
10
1113.663000000000
20
1459.187000000000
30
0.0
11
1113.663000000000
21
1394.188000000000
31
0.0
0
LINE
5
4da
100
AcDbEntity
8
0-6戸当り
6
CONTINUOUS
62
7
100
AcDbLine
10
1028.163000000000
20
1470.672000000000
30
0.0
11
1018.663000000000
21
1476.157000000000
31
0.0
0
LINE
5
4db
100
AcDbEntity
8
0-6戸当り
6
CONTINUOUS
62
7
100
AcDbLine
10
1028.163000000000
20
1470.672000000000
30
0.0
11
1028.163000000000
21
1459.703000000000
31
0.0
0
LINE
5
4dc
100
AcDbEntity
8
0-6戸当り
6
CONTINUOUS
62
7
100
AcDbLine
10
1018.663000000000
20
1454.218000000000
30
0.0
11
1028.163000000000
21
1459.703000000000
31
0.0
0
POLYLINE
5
4dd
100
AcDbEntity
8
0-6戸当り
6
CONTINUOUS
62
  7
100
AcDb2dPolyline
66
1
10
0.0
20
0.0
30
0.0
70
0
0
VERTEX
5
4de
100
AcDbEntity
8
0-6戸当り
6
CONTINUOUS
62
  7
100
AcDbVertex
100
AcDb2dVertex
10
1018.663000000000
20
1454.218000000000
30
0.0
0
VERTEX
5
4df
100
AcDbEntity
8
0-6戸当り
6
CONTINUOUS
62
  7
100
AcDbVertex
100
AcDb2dVertex
10
1009.163000000000
20
1459.703000000000
30
0.0
0
VERTEX
5
4e0
100
AcDbEntity
8
0-6戸当り
6
CONTINUOUS
62
  7
100
AcDbVertex
100
AcDb2dVertex
10
1009.163000000000
20
1470.672000000000
30
0.0
0
VERTEX
5
4e1
100
AcDbEntity
8
0-6戸当り
6
CONTINUOUS
62
  7
100
AcDbVertex
100
AcDb2dVertex
10
1018.663000000000
20
1476.157000000000
30
0.0
0
SEQEND
5
4e2
100
AcDbEntity
8
0-6戸当り
0
LINE
5
4e3
100
AcDbEntity
8
0-8寸法
6
CONTINUOUS
62
4
100
AcDbLine
10
2837.095000000000
20
735.188000000000
30
0.0
11
2837.095000000000
21
1335.187000000000
31
0.0
0
LINE
5
4e4
100
AcDbEntity
8
0-8寸法
6
CONTINUOUS
62
4
100
AcDbLine
10
2837.095000000000
20
735.188000000000
30
0.0
11
2831.918000000000
21
754.506000000000
31
0.0
0
LINE
5
4e5
100
AcDbEntity
8
0-8寸法
6
CONTINUOUS
62
4
100
AcDbLine
10
2837.095000000000
20
735.188000000000
30
0.0
11
2842.271000000000
21
754.506000000000
31
0.0
0
LINE
5
4e6
100
AcDbEntity
8
0-8寸法
6
CONTINUOUS
62
4
100
AcDbLine
10
2837.095000000000
20
1335.187000000000
30
0.0
11
2831.918000000000
21
1315.869000000000
31
0.0
0
LINE
5
4e7
100
AcDbEntity
8
0-8寸法
6
CONTINUOUS
62
4
100
AcDbLine
10
2837.095000000000
20
1335.187000000000
30
0.0
11
2842.271000000000
21
1315.869000000000
31
0.0
0
LINE
5
4e8
100
AcDbEntity
8
0-8寸法
6
CONTINUOUS
62
4
100
AcDbLine
10
943.663000000000
20
485.188000000000
30
0.0
11
1643.663000000000
21
485.188000000000
31
0.0
0
LINE
5
4e9
100
AcDbEntity
8
0-8寸法
6
CONTINUOUS
62
4
100
AcDbLine
10
943.663000000000
20
485.188000000000
30
0.0
11
962.981000000000
21
490.364000000000
31
0.0
0
LINE
5
4ea
100
AcDbEntity
8
0-8寸法
6
CONTINUOUS
62
4
100
AcDbLine
10
943.663000000000
20
485.188000000000
30
0.0
11
962.981000000000
21
480.011000000000
31
0.0
0
LINE
5
4eb
100
AcDbEntity
8
0-8寸法
6
CONTINUOUS
62
4
100
AcDbLine
10
1643.663000000000
20
485.188000000000
30
0.0
11
1624.344000000000
21
490.364000000000
31
0.0
0
LINE
5
4ec
100
AcDbEntity
8
0-8寸法
6
CONTINUOUS
62
4
100
AcDbLine
10
1643.663000000000
20
485.188000000000
30
0.0
11
1624.344000000000
21
480.011000000000
31
0.0
0
LINE
5
4ed
100
AcDbEntity
8
0-8寸法
6
CONTINUOUS
62
4
100
AcDbLine
10
743.663000000000
20
685.188000000000
30
0.0
11
743.663000000000
21
1385.188000000000
31
0.0
0
LINE
5
4ee
100
AcDbEntity
8
0-8寸法
6
CONTINUOUS
62
4
100
AcDbLine
10
931.338000000000
20
685.188000000000
30
0.0
11
733.663000000000
21
685.188000000000
31
0.0
0
LINE
5
4ef
100
AcDbEntity
8
0-8寸法
6
CONTINUOUS
62
4
100
AcDbLine
10
931.338000000000
20
1385.188000000000
30
0.0
11
733.663000000000
21
1385.188000000000
31
0.0
0
LINE
5
4f0
100
AcDbEntity
8
0-8寸法
6
CONTINUOUS
62
4
100
AcDbLine
10
743.663000000000
20
685.188000000000
30
0.0
11
738.486000000000
21
704.506000000000
31
0.0
0
LINE
5
4f1
100
AcDbEntity
8
0-8寸法
6
CONTINUOUS
62
4
100
AcDbLine
10
743.663000000000
20
685.188000000000
30
0.0
11
748.839000000000
21
704.506000000000
31
0.0
0
LINE
5
4f2
100
AcDbEntity
8
0-8寸法
6
CONTINUOUS
62
4
100
AcDbLine
10
743.663000000000
20
1385.188000000000
30
0.0
11
738.486000000000
21
1365.869000000000
31
0.0
0
LINE
5
4f3
100
AcDbEntity
8
0-8寸法
6
CONTINUOUS
62
4
100
AcDbLine
10
743.663000000000
20
1385.188000000000
30
0.0
11
748.839000000000
21
1365.869000000000
31
0.0
0
LINE
5
4f4
100
AcDbEntity
8
0-8寸法
6
CONTINUOUS
62
4
100
AcDbLine
10
943.663000000000
20
678.332000000000
30
0.0
11
943.663000000000
21
475.188000000000
31
0.0
0
LINE
5
4f5
100
AcDbEntity
8
0-8寸法
6
CONTINUOUS
62
4
100
AcDbLine
10
1643.663000000000
20
678.332000000000
30
0.0
11
1643.663000000000
21
475.188000000000
31
0.0
0
LINE
5
4f6
100
AcDbEntity
8
0-8寸法
6
CONTINUOUS
62
4
100
AcDbLine
10
1083.663000000000
20
1610.188000000000
30
0.0
11
1503.663000000000
21
1610.188000000000
31
0.0
0
LINE
5
4f7
100
AcDbEntity
8
0-8寸法
6
CONTINUOUS
62
4
100
AcDbLine
10
1083.663000000000
20
1610.188000000000
30
0.0
11
1102.981000000000
21
1615.364000000000
31
0.0
0
LINE
5
4f8
100
AcDbEntity
8
0-8寸法
6
CONTINUOUS
62
4
100
AcDbLine
10
1083.663000000000
20
1610.188000000000
30
0.0
11
1102.981000000000
21
1605.011000000000
31
0.0
0
LINE
5
4f9
100
AcDbEntity
8
0-8寸法
6
CONTINUOUS
62
4
100
AcDbLine
10
1503.663000000000
20
1610.188000000000
30
0.0
11
1484.344000000000
21
1615.364000000000
31
0.0
0
LINE
5
4fa
100
AcDbEntity
8
0-8寸法
6
CONTINUOUS
62
4
100
AcDbLine
10
1503.663000000000
20
1610.188000000000
30
0.0
11
1484.344000000000
21
1605.011000000000
31
0.0
0
POLYLINE
5
4fb
100
AcDbEntity
8
0-9扉体
6
CONTINUOUS
62
  4
100
AcDb2dPolyline
66
1
10
0.0
20
0.0
30
0.0
70
0
0
VERTEX
5
4fc
100
AcDbEntity
8
0-9扉体
6
CONTINUOUS
62
  4
100
AcDbVertex
100
AcDb2dVertex
10
943.663000000000
20
2206.647000000000
30
0.0
0
VERTEX
5
4fd
100
AcDbEntity
8
0-9扉体
6
CONTINUOUS
62
  4
100
AcDbVertex
100
AcDb2dVertex
10
1643.663000000000
20
2206.647000000000
30
0.0
0
VERTEX
5
4fe
100
AcDbEntity
8
0-9扉体
6
CONTINUOUS
62
  4
100
AcDbVertex
100
AcDb2dVertex
10
1643.663000000000
20
2266.647000000000
30
0.0
0
SEQEND
5
4ff
100
AcDbEntity
8
0-9扉体
0
LINE
5
500
100
AcDbEntity
8
0-9扉体
6
CONTINUOUS
62
3
100
AcDbLine
10
1583.663000000000
20
2272.647000000000
30
0.0
11
1583.663000000000
21
2280.647000000000
31
0.0
0
LINE
5
501
100
AcDbEntity
8
0-9扉体
6
CONTINUOUS
62
3
100
AcDbLine
10
1623.663000000000
20
2282.647000000000
30
0.0
11
1623.663000000000
21
2280.647000000000
31
0.0
0
LINE
5
502
100
AcDbEntity
8
0-9扉体
6
CONTINUOUS
62
3
100
AcDbLine
10
1622.663000000000
20
2280.647000000000
30
0.0
11
1622.663000000000
21
2286.647000000000
31
0.0
0
LINE
5
503
100
AcDbEntity
8
0-9扉体
6
CONTINUOUS
62
3
100
AcDbLine
10
1584.663000000000
20
2280.647000000000
30
0.0
11
1584.663000000000
21
2286.647000000000
31
0.0
0
LINE
5
504
100
AcDbEntity
8
0-9扉体
6
DOT
62
3
100
AcDbLine
10
1599.663000000000
20
2282.647000000000
30
0.0
11
1595.663000000000
21
2286.647000000000
31
0.0
0
LINE
5
505
100
AcDbEntity
8
0-9扉体
6
DOT
62
3
100
AcDbLine
10
1607.663000000000
20
2282.647000000000
30
0.0
11
1611.663000000000
21
2286.647000000000
31
0.0
0
LINE
5
506
100
AcDbEntity
8
0-9扉体
6
DOT
62
3
100
AcDbLine
10
1599.663000000000
20
2282.647000000000
30
0.0
11
1607.663000000000
21
2282.647000000000
31
0.0
0
LINE
5
507
100
AcDbEntity
8
0-9扉体
6
DOT
62
3
100
AcDbLine
10
1607.663000000000
20
2266.647000000000
30
0.0
11
1607.663000000000
21
2282.647000000000
31
0.0
0
LINE
5
508
100
AcDbEntity
8
0-9扉体
6
DOT
62
3
100
AcDbLine
10
1599.663000000000
20
2266.647000000000
30
0.0
11
1599.663000000000
21
2282.647000000000
31
0.0
0
LINE
5
509
100
AcDbEntity
8
0-9扉体
6
CONTINUOUS
62
3
100
AcDbLine
10
1594.663000000000
20
2265.047000000000
30
0.0
11
1594.663000000000
21
2266.647000000000
31
0.0
0
LINE
5
50a
100
AcDbEntity
8
0-9扉体
6
CONTINUOUS
62
3
100
AcDbLine
10
1612.663000000000
20
2265.047000000000
30
0.0
11
1612.663000000000
21
2266.647000000000
31
0.0
0
LINE
5
50b
100
AcDbEntity
8
0-9扉体
6
CONTINUOUS
62
3
100
AcDbLine
10
1599.663000000000
20
2251.647000000000
30
0.0
11
1607.663000000000
21
2251.647000000000
31
0.0
0
LINE
5
50c
100
AcDbEntity
8
0-9扉体
6
CONTINUOUS
62
3
100
AcDbLine
10
1612.663000000000
20
2265.047000000000
30
0.0
11
1594.663000000000
21
2265.047000000000
31
0.0
0
LINE
5
50d
100
AcDbEntity
8
0-5基準線
6
CENTER2
62
7
100
AcDbLine
10
1603.663000000000
20
2249.244000000000
30
0.0
11
1603.663000000000
21
2288.172000000000
31
0.0
0
LINE
5
50e
100
AcDbEntity
8
0-9扉体
6
CONTINUOUS
62
7
100
AcDbLine
10
1597.163000000000
20
2258.547000000000
30
0.0
11
1596.157000000000
21
2259.128000000000
31
0.0
0
LINE
5
50f
100
AcDbEntity
8
0-9扉体
6
CONTINUOUS
62
7
100
AcDbLine
10
1610.163000000000
20
2258.547000000000
30
0.0
11
1611.168000000000
21
2259.128000000000
31
0.0
0
LINE
5
510
100
AcDbEntity
8
0-9扉体
6
CONTINUOUS
62
7
100
AcDbLine
10
1597.163000000000
20
2258.547000000000
30
0.0
11
1610.163000000000
21
2258.547000000000
31
0.0
0
LINE
5
511
100
AcDbEntity
8
0-9扉体
6
CONTINUOUS
62
3
100
AcDbLine
10
1607.663000000000
20
2258.547000000000
30
0.0
11
1607.663000000000
21
2251.647000000000
31
0.0
0
LINE
5
512
100
AcDbEntity
8
0-9扉体
6
CONTINUOUS
62
3
100
AcDbLine
10
1599.663000000000
20
2258.547000000000
30
0.0
11
1599.663000000000
21
2251.647000000000
31
0.0
0
LINE
5
513
100
AcDbEntity
8
0-9扉体
6
CONTINUOUS
62
7
100
AcDbLine
10
1611.168000000000
20
2265.047000000000
30
0.0
11
1611.168000000000
21
2259.128000000000
31
0.0
0
LINE
5
514
100
AcDbEntity
8
0-9扉体
6
CONTINUOUS
62
7
100
AcDbLine
10
1607.416000000000
20
2265.047000000000
30
0.0
11
1607.416000000000
21
2259.128000000000
31
0.0
0
LINE
5
515
100
AcDbEntity
8
0-9扉体
6
CONTINUOUS
62
7
100
AcDbLine
10
1599.910000000000
20
2265.047000000000
30
0.0
11
1599.910000000000
21
2259.128000000000
31
0.0
0
LINE
5
516
100
AcDbEntity
8
0-9扉体
6
CONTINUOUS
62
7
100
AcDbLine
10
1596.157000000000
20
2265.047000000000
30
0.0
11
1596.157000000000
21
2259.128000000000
31
0.0
0
LINE
5
517
100
AcDbEntity
8
0-9扉体
6
CONTINUOUS
62
2
100
AcDbLine
10
1606.663000000000
20
2258.547000000000
30
0.0
11
1606.663000000000
21
2251.647000000000
31
0.0
0
LINE
5
518
100
AcDbEntity
8
0-9扉体
6
CONTINUOUS
62
2
100
AcDbLine
10
1600.663000000000
20
2258.547000000000
30
0.0
11
1600.663000000000
21
2251.647000000000
31
0.0
0
LINE
5
519
100
AcDbEntity
8
0-9扉体
6
CONTINUOUS
62
6
100
AcDbLine
10
1643.614000000000
20
2283.640000000000
30
0.0
11
1634.656000000000
21
2292.598000000000
31
0.0
0
LINE
5
51a
100
AcDbEntity
8
0-9扉体
6
CONTINUOUS
62
6
100
AcDbLine
10
1643.652000000000
20
2282.187000000000
30
0.0
11
1633.203000000000
21
2292.637000000000
31
0.0
0
LINE
5
51b
100
AcDbEntity
8
0-9扉体
6
CONTINUOUS
62
6
100
AcDbLine
10
1626.322000000000
20
2272.647000000000
30
0.0
11
1618.322000000000
21
2280.647000000000
31
0.0
0
LINE
5
51c
100
AcDbEntity
8
0-9扉体
6
CONTINUOUS
62
6
100
AcDbLine
10
1624.908000000000
20
2272.647000000000
30
0.0
11
1616.908000000000
21
2280.647000000000
31
0.0
0
LINE
5
51d
100
AcDbEntity
8
0-9扉体
6
CONTINUOUS
62
6
100
AcDbLine
10
1612.180000000000
20
2272.647000000000
30
0.0
11
1604.180000000000
21
2280.647000000000
31
0.0
0
LINE
5
51e
100
AcDbEntity
8
0-9扉体
6
CONTINUOUS
62
6
100
AcDbLine
10
1610.766000000000
20
2272.647000000000
30
0.0
11
1602.766000000000
21
2280.647000000000
31
0.0
0
LINE
5
51f
100
AcDbEntity
8
0-9扉体
6
CONTINUOUS
62
6
100
AcDbLine
10
1598.038000000000
20
2272.647000000000
30
0.0
11
1590.038000000000
21
2280.647000000000
31
0.0
0
LINE
5
520
100
AcDbEntity
8
0-9扉体
6
CONTINUOUS
62
6
100
AcDbLine
10
1596.624000000000
20
2272.647000000000
30
0.0
11
1588.624000000000
21
2280.647000000000
31
0.0
0
LINE
5
521
100
AcDbEntity
8
0-9扉体
6
CONTINUOUS
62
6
100
AcDbLine
10
1583.896000000000
20
2272.647000000000
30
0.0
11
1583.663000000000
21
2272.880000000000
31
0.0
0
LINE
5
522
100
AcDbEntity
8
0-9扉体
6
CONTINUOUS
62
6
100
AcDbLine
10
1638.951000000000
20
2274.160000000000
30
0.0
11
1634.396000000000
21
2278.715000000000
31
0.0
0
LINE
5
523
100
AcDbEntity
8
0-9扉体
6
CONTINUOUS
62
6
100
AcDbLine
10
1629.731000000000
20
2283.381000000000
30
0.0
11
1625.176000000000
21
2287.936000000000
31
0.0
0
LINE
5
524
100
AcDbEntity
8
0-9扉体
6
CONTINUOUS
62
6
100
AcDbLine
10
1638.041000000000
20
2273.657000000000
30
0.0
11
1632.994000000000
21
2278.704000000000
31
0.0
0
LINE
5
525
100
AcDbEntity
8
0-9扉体
6
CONTINUOUS
62
6
100
AcDbLine
10
1629.719000000000
20
2281.978000000000
30
0.0
11
1624.672000000000
21
2287.025000000000
31
0.0
0
LINE
5
526
100
AcDbEntity
8
0-9扉体
6
CONTINUOUS
62
4
100
AcDbLine
10
1648.663000000000
20
2266.647000000000
30
0.0
11
1648.663000000000
21
2272.647000000000
31
0.0
0
LINE
5
527
100
AcDbEntity
8
0-9扉体
6
CONTINUOUS
62
6
100
AcDbLine
10
1013.663000000000
20
2211.647000000000
30
0.0
11
1013.663000000000
21
2261.647000000000
31
0.0
0
LINE
5
528
100
AcDbEntity
8
0-9扉体
6
CONTINUOUS
62
6
100
AcDbLine
10
1013.663000000000
20
2211.647000000000
30
0.0
11
1153.663000000000
21
2211.647000000000
31
0.0
0
LINE
5
529
100
AcDbEntity
8
0-9扉体
6
CONTINUOUS
62
6
100
AcDbLine
10
1053.663000000000
20
2276.147000000000
30
0.0
11
1062.663000000000
21
2276.147000000000
31
0.0
0
LINE
5
52a
100
AcDbEntity
8
0-9扉体
6
CONTINUOUS
62
6
100
AcDbLine
10
1053.663000000000
20
2241.147000000000
30
0.0
11
1062.663000000000
21
2241.147000000000
31
0.0
0
LINE
5
52b
100
AcDbEntity
8
0-9扉体
6
CONTINUOUS
62
6
100
AcDbLine
10
1051.063000000000
20
1451.188000000000
30
0.0
11
1053.663000000000
21
1451.188000000000
31
0.0
0
LINE
5
52c
100
AcDbEntity
8
0-9扉体
6
CONTINUOUS
62
6
100
AcDbLine
10
1051.063000000000
20
1419.188000000000
30
0.0
11
1053.663000000000
21
1419.188000000000
31
0.0
0
LINE
5
52d
100
AcDbEntity
8
0-9扉体
6
CONTINUOUS
62
6
100
AcDbLine
10
1051.063000000000
20
2274.647000000000
30
0.0
11
1051.063000000000
21
2242.647000000000
31
0.0
0
LINE
5
52e
100
AcDbEntity
8
0-9扉体
6
CONTINUOUS
62
6
100
AcDbLine
10
1040.163000000000
20
2250.647000000000
30
0.0
11
1051.063000000000
21
2250.647000000000
31
0.0
0
LINE
5
52f
100
AcDbEntity
8
0-9扉体
6
CONTINUOUS
62
6
100
AcDbLine
10
1062.663000000000
20
2250.647000000000
30
0.0
11
1064.663000000000
21
2250.647000000000
31
0.0
0
LINE
5
530
100
AcDbEntity
8
0-9扉体
6
CONTINUOUS
62
6
100
AcDbLine
10
1062.663000000000
20
2266.647000000000
30
0.0
11
1064.663000000000
21
2266.647000000000
31
0.0
0
LINE
5
531
100
AcDbEntity
8
0-5基準線
6
CENTER2
62
7
100
AcDbLine
10
1036.663000000000
20
2258.647000000000
30
0.0
11
1130.663000000000
21
2258.647000000000
31
0.0
0
LINE
5
532
100
AcDbEntity
8
0-9扉体
6
CONTINUOUS
62
6
100
AcDbLine
10
1116.263000000000
20
2274.647000000000
30
0.0
11
1116.263000000000
21
2242.647000000000
31
0.0
0
LINE
5
533
100
AcDbEntity
8
0-9扉体
6
CONTINUOUS
62
6
100
AcDbLine
10
1116.263000000000
20
2274.647000000000
30
0.0
11
1113.663000000000
21
2274.647000000000
31
0.0
0
LINE
5
534
100
AcDbEntity
8
0-9扉体
6
CONTINUOUS
62
6
100
AcDbLine
10
1116.263000000000
20
2242.647000000000
30
0.0
11
1113.663000000000
21
2242.647000000000
31
0.0
0
LINE
5
535
100
AcDbEntity
8
0-9扉体
6
CONTINUOUS
62
6
100
AcDbLine
10
1127.163000000000
20
2250.647000000000
30
0.0
11
1116.263000000000
21
2250.647000000000
31
0.0
0
LINE
5
536
100
AcDbEntity
8
0-9扉体
6
CONTINUOUS
62
6
100
AcDbLine
10
1104.663000000000
20
2250.647000000000
30
0.0
11
1102.663000000000
21
2250.647000000000
31
0.0
0
LINE
5
537
100
AcDbEntity
8
0-9扉体
6
CONTINUOUS
62
6
100
AcDbLine
10
1104.663000000000
20
2266.647000000000
30
0.0
11
1102.663000000000
21
2266.647000000000
31
0.0
0
LINE
5
538
100
AcDbEntity
8
0-9扉体
6
CONTINUOUS
62
6
100
AcDbLine
10
1051.063000000000
20
2274.647000000000
30
0.0
11
1053.663000000000
21
2274.647000000000
31
0.0
0
LINE
5
539
100
AcDbEntity
8
0-9扉体
6
CONTINUOUS
62
6
100
AcDbLine
10
1051.063000000000
20
2242.647000000000
30
0.0
11
1053.663000000000
21
2242.647000000000
31
0.0
0
LINE
5
53a
100
AcDbEntity
8
0-6戸当り
6
DOT
62
2
100
AcDbLine
10
1064.663000000000
20
2235.647000000000
30
0.0
11
1102.663000000000
21
2235.647000000000
31
0.0
0
LINE
5
53b
100
AcDbEntity
8
0-6戸当り
6
CONTINUOUS
62
2
100
AcDbLine
10
1064.663000000000
20
2227.647000000000
30
0.0
11
1102.663000000000
21
2227.647000000000
31
0.0
0
LINE
5
53c
100
AcDbEntity
8
0-9扉体
6
CONTINUOUS
62
6
100
AcDbLine
10
1113.663000000000
20
2276.147000000000
30
0.0
11
1104.663000000000
21
2276.147000000000
31
0.0
0
LINE
5
53d
100
AcDbEntity
8
0-9扉体
6
CONTINUOUS
62
6
100
AcDbLine
10
1113.663000000000
20
2241.147000000000
30
0.0
11
1104.663000000000
21
2241.147000000000
31
0.0
0
LINE
5
53e
100
AcDbEntity
8
0-9扉体
6
CONTINUOUS
62
6
100
AcDbLine
10
1013.663000000000
20
2261.647000000000
30
0.0
11
1040.163000000000
21
2261.647000000000
31
0.0
0
LINE
5
53f
100
AcDbEntity
8
0-9扉体
6
CONTINUOUS
62
4
100
AcDbLine
10
943.663000000000
20
2206.647000000000
30
0.0
11
943.663000000000
21
2266.647000000000
31
0.0
0
LINE
5
540
100
AcDbEntity
8
0-5基準線
6
CENTER2
62
7
100
AcDbLine
10
1083.663000000000
20
2199.192000000000
30
0.0
11
1083.663000000000
21
2372.268000000000
31
0.0
0
LINE
5
541
100
AcDbEntity
8
0-8寸法
6
CONTINUOUS
62
4
100
AcDbLine
10
2402.095000000000
20
485.188000000000
30
0.0
11
2402.095000000000
21
385.188000000000
31
0.0
0
LINE
5
542
100
AcDbEntity
8
0-8寸法
6
CONTINUOUS
62
4
100
AcDbLine
10
993.663000000000
20
2604.647000000000
30
0.0
11
1593.663000000000
21
2604.647000000000
31
0.0
0
LINE
5
543
100
AcDbEntity
8
0-8寸法
6
CONTINUOUS
62
4
100
AcDbLine
10
993.663000000000
20
2604.647000000000
30
0.0
11
1012.981000000000
21
2609.823000000000
31
0.0
0
LINE
5
544
100
AcDbEntity
8
0-8寸法
6
CONTINUOUS
62
4
100
AcDbLine
10
993.663000000000
20
2604.647000000000
30
0.0
11
1012.981000000000
21
2599.471000000000
31
0.0
0
LINE
5
545
100
AcDbEntity
8
0-8寸法
6
CONTINUOUS
62
4
100
AcDbLine
10
1593.663000000000
20
2604.647000000000
30
0.0
11
1574.344000000000
21
2609.823000000000
31
0.0
0
LINE
5
546
100
AcDbEntity
8
0-8寸法
6
CONTINUOUS
62
4
100
AcDbLine
10
1593.663000000000
20
2604.647000000000
30
0.0
11
1574.344000000000
21
2599.471000000000
31
0.0
0
LINE
5
547
100
AcDbEntity
8
0-8寸法
6
CONTINUOUS
62
4
100
AcDbLine
10
1701.679000000000
20
2110.188000000000
30
0.0
11
1627.700000000000
21
2277.688000000000
31
0.0
0
LINE
5
548
100
AcDbEntity
8
0-9扉体
6
CONTINUOUS
62
4
100
AcDbLine
10
1586.663000000000
20
2212.647000000000
30
0.0
11
1631.663000000000
21
2212.647000000000
31
0.0
0
LINE
5
549
100
AcDbEntity
8
0-9扉体
6
CONTINUOUS
62
4
100
AcDbLine
10
1637.663000000000
20
2263.647000000000
30
0.0
11
1637.663000000000
21
2218.647000000000
31
0.0
0
LINE
5
54a
100
AcDbEntity
8
0-9扉体
6
CONTINUOUS
62
4
100
AcDbLine
10
1583.663000000000
20
2209.647000000000
30
0.0
11
1583.663000000000
21
2206.647000000000
31
0.0
0
LINE
5
54b
100
AcDbEntity
8
0-9扉体
6
CONTINUOUS
62
3
100
AcDbLine
10
1433.663000000000
20
1394.188000000000
30
0.0
11
1573.663000000000
21
1394.188000000000
31
0.0
0
LINE
5
54c
100
AcDbEntity
8
0-9扉体
6
CONTINUOUS
62
3
100
AcDbLine
10
1433.663000000000
20
1394.188000000000
30
0.0
11
1433.663000000000
21
1385.188000000000
31
0.0
0
LINE
5
54d
100
AcDbEntity
8
0-9扉体
6
CONTINUOUS
62
3
100
AcDbLine
10
1573.663000000000
20
1394.188000000000
30
0.0
11
1573.663000000000
21
1385.188000000000
31
0.0
0
POLYLINE
5
54e
100
AcDbEntity
8
0-9扉体
6
CONTINUOUS
62
  3
100
AcDb2dPolyline
66
1
10
0.0
20
0.0
30
0.0
70
0
0
VERTEX
5
54f
100
AcDbEntity
8
0-9扉体
6
CONTINUOUS
62
  3
100
AcDbVertex
100
AcDb2dVertex
10
1533.663000000000
20
1459.187000000000
30
0.0
0
VERTEX
5
550
100
AcDbEntity
8
0-9扉体
6
CONTINUOUS
62
  3
100
AcDbVertex
100
AcDb2dVertex
10
1524.663000000000
20
1459.187000000000
30
0.0
0
VERTEX
5
551
100
AcDbEntity
8
0-9扉体
6
CONTINUOUS
62
  3
100
AcDbVertex
100
AcDb2dVertex
10
1524.663000000000
20
1394.188000000000
30
0.0
0
SEQEND
5
552
100
AcDbEntity
8
0-9扉体
0
LINE
5
553
100
AcDbEntity
8
0-9扉体
6
CONTINUOUS
62
3
100
AcDbLine
10
1533.663000000000
20
1459.187000000000
30
0.0
11
1533.663000000000
21
1394.188000000000
31
0.0
0
LINE
5
554
100
AcDbEntity
8
0-6戸当り
6
DOT
62
6
100
AcDbLine
10
1522.663000000000
20
1426.188000000000
30
0.0
11
1484.663000000000
21
1426.188000000000
31
0.0
0
LINE
5
555
100
AcDbEntity
8
0-6戸当り
6
CONTINUOUS
62
6
100
AcDbLine
10
1522.663000000000
20
1418.188000000000
30
0.0
11
1484.663000000000
21
1418.188000000000
31
0.0
0
LINE
5
556
100
AcDbEntity
8
0-6戸当り
6
CONTINUOUS
62
6
100
AcDbLine
10
1522.663000000000
20
1452.188000000000
30
0.0
11
1522.663000000000
21
1418.188000000000
31
0.0
0
POLYLINE
5
557
100
AcDbEntity
8
0-6戸当り
6
CONTINUOUS
62
  6
100
AcDb2dPolyline
66
1
10
0.0
20
0.0
30
0.0
70
0
0
VERTEX
5
558
100
AcDbEntity
8
0-6戸当り
6
CONTINUOUS
62
  6
100
AcDbVertex
100
AcDb2dVertex
10
1522.663000000000
20
1452.188000000000
30
0.0
0
VERTEX
5
559
100
AcDbEntity
8
0-6戸当り
6
CONTINUOUS
62
  6
100
AcDbVertex
100
AcDb2dVertex
10
1484.663000000000
20
1452.188000000000
30
0.0
0
VERTEX
5
55a
100
AcDbEntity
8
0-6戸当り
6
CONTINUOUS
62
  6
100
AcDbVertex
100
AcDb2dVertex
10
1484.663000000000
20
1418.188000000000
30
0.0
0
SEQEND
5
55b
100
AcDbEntity
8
0-6戸当り
0
LINE
5
55c
100
AcDbEntity
8
0-9扉体
6
CONTINUOUS
62
6
100
AcDbLine
10
1536.263000000000
20
1451.188000000000
30
0.0
11
1536.263000000000
21
1419.188000000000
31
0.0
0
LINE
5
55d
100
AcDbEntity
8
0-9扉体
6
CONTINUOUS
62
6
100
AcDbLine
10
1547.163000000000
20
1443.188000000000
30
0.0
11
1547.163000000000
21
1427.188000000000
31
0.0
0
LINE
5
55e
100
AcDbEntity
8
0-9扉体
6
CONTINUOUS
62
6
100
AcDbLine
10
1547.163000000000
20
1443.188000000000
30
0.0
11
1536.263000000000
21
1443.188000000000
31
0.0
0
LINE
5
55f
100
AcDbEntity
8
0-9扉体
6
CONTINUOUS
62
6
100
AcDbLine
10
1547.163000000000
20
1427.188000000000
30
0.0
11
1536.263000000000
21
1427.188000000000
31
0.0
0
LINE
5
560
100
AcDbEntity
8
0-9扉体
6
CONTINUOUS
62
6
100
AcDbLine
10
1524.663000000000
20
1427.188000000000
30
0.0
11
1522.663000000000
21
1427.188000000000
31
0.0
0
LINE
5
561
100
AcDbEntity
8
0-6戸当り
6
DOT
62
6
100
AcDbLine
10
1522.663000000000
20
1444.188000000000
30
0.0
11
1484.663000000000
21
1444.188000000000
31
0.0
0
LINE
5
562
100
AcDbEntity
8
0-9扉体
6
CONTINUOUS
62
6
100
AcDbLine
10
1524.663000000000
20
1443.188000000000
30
0.0
11
1522.663000000000
21
1443.188000000000
31
0.0
0
LINE
5
563
100
AcDbEntity
8
0-9扉体
6
CONTINUOUS
62
6
100
AcDbLine
10
1471.063000000000
20
1451.188000000000
30
0.0
11
1471.063000000000
21
1419.188000000000
31
0.0
0
LINE
5
564
100
AcDbEntity
8
0-9扉体
6
CONTINUOUS
62
6
100
AcDbLine
10
1471.063000000000
20
1451.188000000000
30
0.0
11
1473.663000000000
21
1451.188000000000
31
0.0
0
LINE
5
565
100
AcDbEntity
8
0-9扉体
6
CONTINUOUS
62
6
100
AcDbLine
10
1471.063000000000
20
1419.188000000000
30
0.0
11
1473.663000000000
21
1419.188000000000
31
0.0
0
LINE
5
566
100
AcDbEntity
8
0-9扉体
6
CONTINUOUS
62
6
100
AcDbLine
10
1460.163000000000
20
1443.188000000000
30
0.0
11
1460.163000000000
21
1427.188000000000
31
0.0
0
LINE
5
567
100
AcDbEntity
8
0-9扉体
6
CONTINUOUS
62
6
100
AcDbLine
10
1460.163000000000
20
1443.188000000000
30
0.0
11
1471.063000000000
21
1443.188000000000
31
0.0
0
LINE
5
568
100
AcDbEntity
8
0-9扉体
6
CONTINUOUS
62
6
100
AcDbLine
10
1460.163000000000
20
1427.188000000000
30
0.0
11
1471.063000000000
21
1427.188000000000
31
0.0
0
LINE
5
569
100
AcDbEntity
8
0-9扉体
6
CONTINUOUS
62
6
100
AcDbLine
10
1482.663000000000
20
1427.188000000000
30
0.0
11
1484.663000000000
21
1427.188000000000
31
0.0
0
LINE
5
56a
100
AcDbEntity
8
0-9扉体
6
CONTINUOUS
62
6
100
AcDbLine
10
1482.663000000000
20
1443.188000000000
30
0.0
11
1484.663000000000
21
1443.188000000000
31
0.0
0
POLYLINE
5
56b
100
AcDbEntity
8
0-9扉体
6
CONTINUOUS
62
  3
100
AcDb2dPolyline
66
1
10
0.0
20
0.0
30
0.0
70
0
0
VERTEX
5
56c
100
AcDbEntity
8
0-9扉体
6
CONTINUOUS
62
  3
100
AcDbVertex
100
AcDb2dVertex
10
1473.663000000000
20
1459.187000000000
30
0.0
0
VERTEX
5
56d
100
AcDbEntity
8
0-9扉体
6
CONTINUOUS
62
  3
100
AcDbVertex
100
AcDb2dVertex
10
1482.663000000000
20
1459.187000000000
30
0.0
0
VERTEX
5
56e
100
AcDbEntity
8
0-9扉体
6
CONTINUOUS
62
  3
100
AcDbVertex
100
AcDb2dVertex
10
1482.663000000000
20
1394.188000000000
30
0.0
0
SEQEND
5
56f
100
AcDbEntity
8
0-9扉体
0
LINE
5
570
100
AcDbEntity
8
0-9扉体
6
CONTINUOUS
62
3
100
AcDbLine
10
1473.663000000000
20
1459.187000000000
30
0.0
11
1473.663000000000
21
1394.188000000000
31
0.0
0
LINE
5
571
100
AcDbEntity
8
0-9扉体
6
CONTINUOUS
62
6
100
AcDbLine
10
1536.263000000000
20
1451.188000000000
30
0.0
11
1533.663000000000
21
1451.188000000000
31
0.0
0
LINE
5
572
100
AcDbEntity
8
0-9扉体
6
CONTINUOUS
62
6
100
AcDbLine
10
1536.263000000000
20
1419.188000000000
30
0.0
11
1533.663000000000
21
1419.188000000000
31
0.0
0
LINE
5
573
100
AcDbEntity
8
0-9扉体
6
CONTINUOUS
62
6
100
AcDbLine
10
1053.663000000000
20
2211.647000000000
30
0.0
11
1053.663000000000
21
2276.147000000000
31
0.0
0
LINE
5
574
100
AcDbEntity
8
0-9扉体
6
CONTINUOUS
62
6
100
AcDbLine
10
1062.663000000000
20
2211.647000000000
30
0.0
11
1062.663000000000
21
2276.147000000000
31
0.0
0
LINE
5
575
100
AcDbEntity
8
0-9扉体
6
CONTINUOUS
62
6
100
AcDbLine
10
1104.663000000000
20
2211.647000000000
30
0.0
11
1104.663000000000
21
2276.147000000000
31
0.0
0
LINE
5
576
100
AcDbEntity
8
0-9扉体
6
CONTINUOUS
62
6
100
AcDbLine
10
1113.663000000000
20
2211.647000000000
30
0.0
11
1113.663000000000
21
2276.147000000000
31
0.0
0
POLYLINE
5
577
100
AcDbEntity
8
0-9扉体
6
CONTINUOUS
62
  6
100
AcDb2dPolyline
66
1
10
0.0
20
0.0
30
0.0
70
0
0
VERTEX
5
578
100
AcDbEntity
8
0-9扉体
6
CONTINUOUS
62
  6
100
AcDbVertex
100
AcDb2dVertex
10
1153.663000000000
20
2211.647000000000
30
0.0
0
VERTEX
5
579
100
AcDbEntity
8
0-9扉体
6
CONTINUOUS
62
  6
100
AcDbVertex
100
AcDb2dVertex
10
1153.663000000000
20
2261.647000000000
30
0.0
0
VERTEX
5
57a
100
AcDbEntity
8
0-9扉体
6
CONTINUOUS
62
  6
100
AcDbVertex
100
AcDb2dVertex
10
1127.163000000000
20
2261.647000000000
30
0.0
0
SEQEND
5
57b
100
AcDbEntity
8
0-9扉体
0
LINE
5
57c
100
AcDbEntity
8
0-6戸当り
6
CONTINUOUS
62
6
100
AcDbLine
10
2525.095000000000
20
635.188000000000
30
0.0
11
2537.095000000000
21
635.188000000000
31
0.0
0
LINE
5
57d
100
AcDbEntity
8
0-6戸当り
6
CONTINUOUS
62
6
100
AcDbLine
10
2525.095000000000
20
1485.187000000000
30
0.0
11
2537.095000000000
21
1485.187000000000
31
0.0
0
LINE
5
57e
100
AcDbEntity
8
0-6戸当り
6
CONTINUOUS
62
6
100
AcDbLine
10
1693.663000000000
20
635.188000000000
30
0.0
11
893.663000000000
21
635.188000000000
31
0.0
0
LINE
5
57f
100
AcDbEntity
8
0-6戸当り
6
CONTINUOUS
62
6
100
AcDbLine
10
1693.663000000000
20
1485.187000000000
30
0.0
11
1693.663000000000
21
635.188000000000
31
0.0
0
LINE
5
580
100
AcDbEntity
8
0-6戸当り
6
CONTINUOUS
62
6
100
AcDbLine
10
893.663000000000
20
1485.187000000000
30
0.0
11
1693.663000000000
21
1485.187000000000
31
0.0
0
LINE
5
581
100
AcDbEntity
8
0-6戸当り
6
CONTINUOUS
62
6
100
AcDbLine
10
893.663000000000
20
635.188000000000
30
0.0
11
893.663000000000
21
1485.187000000000
31
0.0
0
LINE
5
582
100
AcDbEntity
8
0-6戸当り
6
CONTINUOUS
62
2
100
AcDbLine
10
2541.296000000000
20
660.187000000000
30
0.0
11
2570.808000000000
21
662.688000000000
31
0.0
0
LINE
5
583
100
AcDbEntity
8
0-6戸当り
6
CONTINUOUS
62
2
100
AcDbLine
10
2541.296000000000
20
655.188000000000
30
0.0
11
2570.808000000000
21
657.687000000000
31
0.0
0
LINE
5
584
100
AcDbEntity
8
0-6戸当り
6
CONTINUOUS
62
2
100
AcDbLine
10
2541.296000000000
20
660.187000000000
30
0.0
11
2541.296000000000
21
650.187000000000
31
0.0
0
LINE
5
585
100
AcDbEntity
8
0-6戸当り
6
CONTINUOUS
62
2
100
AcDbLine
10
2545.512000000000
20
660.545000000000
30
0.0
11
2545.512000000000
21
655.545000000000
31
0.0
0
LINE
5
586
100
AcDbEntity
8
0-6戸当り
6
CONTINUOUS
62
2
100
AcDbLine
10
2549.728000000000
20
660.902000000000
30
0.0
11
2549.728000000000
21
655.901000000000
31
0.0
0
LINE
5
587
100
AcDbEntity
8
0-6戸当り
6
CONTINUOUS
62
2
100
AcDbLine
10
2553.944000000000
20
661.259000000000
30
0.0
11
2553.944000000000
21
656.259000000000
31
0.0
0
LINE
5
588
100
AcDbEntity
8
0-6戸当り
6
CONTINUOUS
62
2
100
AcDbLine
10
2558.160000000000
20
661.616000000000
30
0.0
11
2558.160000000000
21
656.616000000000
31
0.0
0
LINE
5
589
100
AcDbEntity
8
0-6戸当り
6
CONTINUOUS
62
2
100
AcDbLine
10
2562.376000000000
20
661.973000000000
30
0.0
11
2562.376000000000
21
656.973000000000
31
0.0
0
LINE
5
58a
100
AcDbEntity
8
0-6戸当り
6
CONTINUOUS
62
2
100
AcDbLine
10
2566.592000000000
20
662.330000000000
30
0.0
11
2566.592000000000
21
657.330000000000
31
0.0
0
POLYLINE
5
58b
100
AcDbEntity
8
0-6戸当り
6
CONTINUOUS
62
  2
100
AcDb2dPolyline
66
1
10
0.0
20
0.0
30
0.0
70
0
0
VERTEX
5
58c
100
AcDbEntity
8
0-6戸当り
6
CONTINUOUS
62
  2
100
AcDbVertex
100
AcDb2dVertex
10
2541.296000000000
20
650.187000000000
30
0.0
0
VERTEX
5
58d
100
AcDbEntity
8
0-6戸当り
6
CONTINUOUS
62
  2
100
AcDbVertex
100
AcDb2dVertex
10
2570.808000000000
20
647.687000000000
30
0.0
0
VERTEX
5
58e
100
AcDbEntity
8
0-6戸当り
6
CONTINUOUS
62
  2
100
AcDbVertex
100
AcDb2dVertex
10
2570.808000000000
20
652.688000000000
30
0.0
0
SEQEND
5
58f
100
AcDbEntity
8
0-6戸当り
0
LINE
5
590
100
AcDbEntity
8
0-6戸当り
6
CONTINUOUS
62
2
100
AcDbLine
10
2541.296000000000
20
655.188000000000
30
0.0
11
2570.808000000000
21
652.688000000000
31
0.0
0
LINE
5
591
100
AcDbEntity
8
0-6戸当り
6
CONTINUOUS
62
2
100
AcDbLine
10
2545.512000000000
20
649.830000000000
30
0.0
11
2545.512000000000
21
654.830000000000
31
0.0
0
LINE
5
592
100
AcDbEntity
8
0-6戸当り
6
CONTINUOUS
62
2
100
AcDbLine
10
2549.728000000000
20
649.474000000000
30
0.0
11
2549.728000000000
21
654.473000000000
31
0.0
0
LINE
5
593
100
AcDbEntity
8
0-6戸当り
6
CONTINUOUS
62
2
100
AcDbLine
10
2553.944000000000
20
649.116000000000
30
0.0
11
2553.944000000000
21
654.116000000000
31
0.0
0
LINE
5
594
100
AcDbEntity
8
0-6戸当り
6
CONTINUOUS
62
2
100
AcDbLine
10
2558.160000000000
20
648.759000000000
30
0.0
11
2558.160000000000
21
653.759000000000
31
0.0
0
LINE
5
595
100
AcDbEntity
8
0-6戸当り
6
CONTINUOUS
62
2
100
AcDbLine
10
2562.376000000000
20
648.402000000000
30
0.0
11
2562.376000000000
21
653.401000000000
31
0.0
0
LINE
5
596
100
AcDbEntity
8
0-6戸当り
6
CONTINUOUS
62
2
100
AcDbLine
10
2566.592000000000
20
648.044000000000
30
0.0
11
2566.592000000000
21
653.045000000000
31
0.0
0
LINE
5
597
100
AcDbEntity
8
0-6戸当り
6
CONTINUOUS
62
3
100
AcDbLine
10
2523.494000000000
20
666.187000000000
30
0.0
11
2525.095000000000
21
666.187000000000
31
0.0
0
LINE
5
598
100
AcDbEntity
8
0-6戸当り
6
CONTINUOUS
62
3
100
AcDbLine
10
2523.494000000000
20
644.187000000000
30
0.0
11
2525.095000000000
21
644.187000000000
31
0.0
0
LINE
5
599
100
AcDbEntity
8
0-6戸当り
6
CONTINUOUS
62
7
100
AcDbLine
10
2515.494000000000
20
663.687000000000
30
0.0
11
2516.254000000000
21
665.003000000000
31
0.0
0
POLYLINE
5
59a
100
AcDbEntity
8
0-6戸当り
6
CONTINUOUS
62
  7
100
AcDb2dPolyline
66
1
10
0.0
20
0.0
30
0.0
70
0
0
VERTEX
5
59b
100
AcDbEntity
8
0-6戸当り
6
CONTINUOUS
62
  7
100
AcDbVertex
100
AcDb2dVertex
10
2515.494000000000
20
663.687000000000
30
0.0
0
VERTEX
5
59c
100
AcDbEntity
8
0-6戸当り
6
CONTINUOUS
62
  7
100
AcDbVertex
100
AcDb2dVertex
10
2515.494000000000
20
646.687000000000
30
0.0
0
VERTEX
5
59d
100
AcDbEntity
8
0-6戸当り
6
CONTINUOUS
62
  7
100
AcDbVertex
100
AcDb2dVertex
10
2516.254000000000
20
645.372000000000
30
0.0
0
SEQEND
5
59e
100
AcDbEntity
8
0-6戸当り
0
LINE
5
59f
100
AcDbEntity
8
0-6戸当り
6
CONTINUOUS
62
7
100
AcDbLine
10
2523.494000000000
20
645.372000000000
30
0.0
11
2516.254000000000
21
645.372000000000
31
0.0
0
LINE
5
5a0
100
AcDbEntity
8
0-6戸当り
6
CONTINUOUS
62
7
100
AcDbLine
10
2523.494000000000
20
660.095000000000
30
0.0
11
2516.254000000000
21
660.095000000000
31
0.0
0
LINE
5
5a1
100
AcDbEntity
8
0-6戸当り
6
CONTINUOUS
62
7
100
AcDbLine
10
2523.494000000000
20
650.280000000000
30
0.0
11
2516.254000000000
21
650.280000000000
31
0.0
0
LINE
5
5a2
100
AcDbEntity
8
0-6戸当り
6
CONTINUOUS
62
7
100
AcDbLine
10
2523.494000000000
20
665.003000000000
30
0.0
11
2516.254000000000
21
665.003000000000
31
0.0
0
LINE
5
5a3
100
AcDbEntity
8
0-6戸当り
6
CONTINUOUS
62
3
100
AcDbLine
10
2523.494000000000
20
644.187000000000
30
0.0
11
2523.494000000000
21
666.187000000000
31
0.0
0
LINE
5
5a4
100
AcDbEntity
8
0-6戸当り
6
CONTINUOUS
62
3
100
AcDbLine
10
2515.494000000000
20
650.187000000000
30
0.0
11
2510.809000000000
21
650.187000000000
31
0.0
0
LINE
5
5a5
100
AcDbEntity
8
0-6戸当り
6
CONTINUOUS
62
3
100
AcDbLine
10
2515.494000000000
20
660.188000000000
30
0.0
11
2510.809000000000
21
660.188000000000
31
0.0
0
LINE
5
5a6
100
AcDbEntity
8
0-6戸当り
6
CONTINUOUS
62
4
100
AcDbLine
10
2515.494000000000
20
651.188000000000
30
0.0
11
2510.577000000000
21
651.188000000000
31
0.0
0
LINE
5
5a7
100
AcDbEntity
8
0-6戸当り
6
CONTINUOUS
62
4
100
AcDbLine
10
2515.494000000000
20
659.187000000000
30
0.0
11
2510.577000000000
21
659.187000000000
31
0.0
0
LINE
5
5a8
100
AcDbEntity
8
0-6戸当り
6
CONTINUOUS
62
3
100
AcDbLine
10
2510.809000000000
20
650.187000000000
30
0.0
11
2510.809000000000
21
660.188000000000
31
0.0
0
LINE
5
5a9
100
AcDbEntity
8
0-6戸当り
6
CONTINUOUS
62
2
100
AcDbLine
10
2570.808000000000
20
662.688000000000
30
0.0
11
2570.808000000000
21
657.687000000000
31
0.0
0
LINE
5
5aa
100
AcDbEntity
8
0-6戸当り
6
CONTINUOUS
62
2
100
AcDbLine
10
2537.095000000000
20
660.187000000000
30
0.0
11
2541.296000000000
21
660.187000000000
31
0.0
0
LINE
5
5ab
100
AcDbEntity
8
0-6戸当り
6
CONTINUOUS
62
2
100
AcDbLine
10
2537.095000000000
20
650.187000000000
30
0.0
11
2541.296000000000
21
650.187000000000
31
0.0
0
LINE
5
5ac
100
AcDbEntity
8
0-5基準線
6
CENTER2
62
7
100
AcDbLine
10
2506.922000000000
20
655.188000000000
30
0.0
11
2575.877000000000
21
655.188000000000
31
0.0
0
LINE
5
5ad
100
AcDbEntity
8
0-6戸当り
6
CONTINUOUS
62
3
100
AcDbLine
10
1673.663000000000
20
664.987000000000
30
0.0
11
1665.176000000000
21
660.087000000000
31
0.0
0
LINE
5
5ae
100
AcDbEntity
8
0-6戸当り
6
CONTINUOUS
62
3
100
AcDbLine
10
1673.663000000000
20
645.387000000000
30
0.0
11
1665.176000000000
21
650.287000000000
31
0.0
0
LINE
5
5af
100
AcDbEntity
8
0-6戸当り
6
CONTINUOUS
62
3
100
AcDbLine
10
1665.176000000000
20
660.087000000000
30
0.0
11
1665.176000000000
21
650.287000000000
31
0.0
0
LINE
5
5b0
100
AcDbEntity
8
0-6戸当り
6
CONTINUOUS
62
3
100
AcDbLine
10
1673.663000000000
20
645.387000000000
30
0.0
11
1682.150000000000
21
650.287000000000
31
0.0
0
LINE
5
5b1
100
AcDbEntity
8
0-6戸当り
6
CONTINUOUS
62
3
100
AcDbLine
10
1673.663000000000
20
664.987000000000
30
0.0
11
1682.150000000000
21
660.087000000000
31
0.0
0
LINE
5
5b2
100
AcDbEntity
8
0-6戸当り
6
CONTINUOUS
62
3
100
AcDbLine
10
1682.150000000000
20
650.287000000000
30
0.0
11
1682.150000000000
21
660.087000000000
31
0.0
0
LINE
5
5b3
100
AcDbEntity
8
0-5基準線
6
CENTER2
62
7
100
AcDbLine
10
1673.663000000000
20
640.187000000000
30
0.0
11
1673.663000000000
21
670.187000000000
31
0.0
0
LINE
5
5b4
100
AcDbEntity
8
0-5基準線
6
CENTER2
62
7
100
AcDbLine
10
1658.663000000000
20
655.187000000000
30
0.0
11
1688.663000000000
21
655.187000000000
31
0.0
0
LINE
5
5b5
100
AcDbEntity
8
0-6戸当り
6
CONTINUOUS
62
3
100
AcDbLine
10
913.663000000000
20
664.987000000000
30
0.0
11
922.150000000000
21
660.087000000000
31
0.0
0
LINE
5
5b6
100
AcDbEntity
8
0-6戸当り
6
CONTINUOUS
62
3
100
AcDbLine
10
913.663000000000
20
645.387000000000
30
0.0
11
922.150000000000
21
650.287000000000
31
0.0
0
LINE
5
5b7
100
AcDbEntity
8
0-6戸当り
6
CONTINUOUS
62
3
100
AcDbLine
10
922.150000000000
20
660.087000000000
30
0.0
11
922.150000000000
21
650.287000000000
31
0.0
0
LINE
5
5b8
100
AcDbEntity
8
0-6戸当り
6
CONTINUOUS
62
3
100
AcDbLine
10
913.663000000000
20
645.387000000000
30
0.0
11
905.176000000000
21
650.287000000000
31
0.0
0
LINE
5
5b9
100
AcDbEntity
8
0-6戸当り
6
CONTINUOUS
62
3
100
AcDbLine
10
913.663000000000
20
664.987000000000
30
0.0
11
905.176000000000
21
660.087000000000
31
0.0
0
LINE
5
5ba
100
AcDbEntity
8
0-6戸当り
6
CONTINUOUS
62
3
100
AcDbLine
10
905.176000000000
20
650.287000000000
30
0.0
11
905.176000000000
21
660.087000000000
31
0.0
0
LINE
5
5bb
100
AcDbEntity
8
0-5基準線
6
CENTER2
62
7
100
AcDbLine
10
913.663000000000
20
640.187000000000
30
0.0
11
913.663000000000
21
670.187000000000
31
0.0
0
LINE
5
5bc
100
AcDbEntity
8
0-5基準線
6
CENTER2
62
7
100
AcDbLine
10
928.663000000000
20
655.187000000000
30
0.0
11
898.663000000000
21
655.187000000000
31
0.0
0
LINE
5
5bd
100
AcDbEntity
8
0-6戸当り
6
CONTINUOUS
62
3
100
AcDbLine
10
1093.663000000000
20
664.987000000000
30
0.0
11
1102.150000000000
21
660.087000000000
31
0.0
0
LINE
5
5be
100
AcDbEntity
8
0-6戸当り
6
CONTINUOUS
62
3
100
AcDbLine
10
1093.663000000000
20
645.387000000000
30
0.0
11
1102.150000000000
21
650.287000000000
31
0.0
0
LINE
5
5bf
100
AcDbEntity
8
0-6戸当り
6
CONTINUOUS
62
3
100
AcDbLine
10
1102.150000000000
20
660.087000000000
30
0.0
11
1102.150000000000
21
650.287000000000
31
0.0
0
LINE
5
5c0
100
AcDbEntity
8
0-6戸当り
6
CONTINUOUS
62
3
100
AcDbLine
10
1093.663000000000
20
645.387000000000
30
0.0
11
1085.176000000000
21
650.287000000000
31
0.0
0
LINE
5
5c1
100
AcDbEntity
8
0-6戸当り
6
CONTINUOUS
62
3
100
AcDbLine
10
1093.663000000000
20
664.987000000000
30
0.0
11
1085.176000000000
21
660.087000000000
31
0.0
0
LINE
5
5c2
100
AcDbEntity
8
0-6戸当り
6
CONTINUOUS
62
3
100
AcDbLine
10
1085.176000000000
20
650.287000000000
30
0.0
11
1085.176000000000
21
660.087000000000
31
0.0
0
LINE
5
5c3
100
AcDbEntity
8
0-5基準線
6
CENTER2
62
7
100
AcDbLine
10
1093.663000000000
20
640.187000000000
30
0.0
11
1093.663000000000
21
670.187000000000
31
0.0
0
LINE
5
5c4
100
AcDbEntity
8
0-5基準線
6
CENTER2
62
7
100
AcDbLine
10
1108.663000000000
20
655.187000000000
30
0.0
11
1078.663000000000
21
655.187000000000
31
0.0
0
LINE
5
5c5
100
AcDbEntity
8
0-8寸法
6
CONTINUOUS
62
4
100
AcDbLine
10
1693.663000000000
20
385.188000000000
30
0.0
11
1712.981000000000
21
390.364000000000
31
0.0
0
LINE
5
5c6
100
AcDbEntity
8
0-8寸法
6
CONTINUOUS
62
4
100
AcDbLine
10
1693.663000000000
20
385.188000000000
30
0.0
11
1712.981000000000
21
380.011000000000
31
0.0
0
LINE
5
5c7
100
AcDbEntity
8
0-8寸法
6
CONTINUOUS
62
4
100
AcDbLine
10
893.663000000000
20
285.188000000000
30
0.0
11
1693.663000000000
21
285.188000000000
31
0.0
0
LINE
5
5c8
100
AcDbEntity
8
0-8寸法
6
CONTINUOUS
62
4
100
AcDbLine
10
893.663000000000
20
285.188000000000
30
0.0
11
912.981000000000
21
290.364000000000
31
0.0
0
LINE
5
5c9
100
AcDbEntity
8
0-8寸法
6
CONTINUOUS
62
4
100
AcDbLine
10
893.663000000000
20
285.188000000000
30
0.0
11
912.981000000000
21
280.011000000000
31
0.0
0
LINE
5
5ca
100
AcDbEntity
8
0-8寸法
6
CONTINUOUS
62
4
100
AcDbLine
10
1693.663000000000
20
285.188000000000
30
0.0
11
1674.344000000000
21
290.364000000000
31
0.0
0
LINE
5
5cb
100
AcDbEntity
8
0-8寸法
6
CONTINUOUS
62
4
100
AcDbLine
10
1693.663000000000
20
285.188000000000
30
0.0
11
1674.344000000000
21
280.011000000000
31
0.0
0
LINE
5
5cc
100
AcDbEntity
8
0-8寸法
6
CONTINUOUS
62
4
100
AcDbLine
10
1673.663000000000
20
385.188000000000
30
0.0
11
1768.808000000000
21
385.188000000000
31
0.0
0
LINE
5
5cd
100
AcDbEntity
8
0-8寸法
6
CONTINUOUS
62
4
100
AcDbLine
10
893.663000000000
20
623.958000000000
30
0.0
11
893.663000000000
21
275.188000000000
31
0.0
0
LINE
5
5ce
100
AcDbEntity
8
0-8寸法
6
CONTINUOUS
62
4
100
AcDbLine
10
1693.663000000000
20
623.958000000000
30
0.0
11
1693.663000000000
21
275.188000000000
31
0.0
0
LINE
5
5cf
100
AcDbEntity
8
0-8寸法
6
CONTINUOUS
62
4
100
AcDbLine
10
893.663000000000
20
385.188000000000
30
0.0
11
874.344000000000
21
390.364000000000
31
0.0
0
LINE
5
5d0
100
AcDbEntity
8
0-8寸法
6
CONTINUOUS
62
4
100
AcDbLine
10
893.663000000000
20
385.188000000000
30
0.0
11
874.344000000000
21
380.011000000000
31
0.0
0
LINE
5
5d1
100
AcDbEntity
8
0-8寸法
6
CONTINUOUS
62
4
100
AcDbLine
10
913.663000000000
20
385.188000000000
30
0.0
11
818.517000000000
21
385.188000000000
31
0.0
0
LINE
5
5d2
100
AcDbEntity
8
0-5基準線
6
CENTER2
62
7
100
AcDbLine
10
1033.663000000000
20
1435.188000000000
30
0.0
11
1133.663000000000
21
1435.188000000000
31
0.0
0
LINE
5
5d3
100
AcDbEntity
8
0-5基準線
6
CENTER2
62
7
100
AcDbLine
10
1553.663000000000
20
1435.188000000000
30
0.0
11
1453.663000000000
21
1435.188000000000
31
0.0
0
LINE
5
5d4
100
AcDbEntity
8
0-5基準線
6
CENTER2
62
7
100
AcDbLine
10
1503.663000000000
20
1478.137000000000
30
0.0
11
1503.663000000000
21
1373.723000000000
31
0.0
0
LINE
5
5d5
100
AcDbEntity
8
0-5基準線
6
CENTER2
62
7
100
AcDbLine
10
1018.663000000000
20
1482.188000000000
30
0.0
11
1018.663000000000
21
1448.188000000000
31
0.0
0
LINE
5
5d6
100
AcDbEntity
8
0-5基準線
6
CENTER2
62
7
100
AcDbLine
10
1035.663000000000
20
1465.188000000000
30
0.0
11
1001.663000000000
21
1465.188000000000
31
0.0
0
LINE
5
5d7
100
AcDbEntity
8
0-6戸当り
6
CONTINUOUS
62
3
100
AcDbLine
10
913.663000000000
20
1424.987000000000
30
0.0
11
922.150000000000
21
1420.087000000000
31
0.0
0
LINE
5
5d8
100
AcDbEntity
8
0-6戸当り
6
CONTINUOUS
62
3
100
AcDbLine
10
913.663000000000
20
1405.388000000000
30
0.0
11
922.150000000000
21
1410.288000000000
31
0.0
0
LINE
5
5d9
100
AcDbEntity
8
0-6戸当り
6
CONTINUOUS
62
3
100
AcDbLine
10
922.150000000000
20
1420.087000000000
30
0.0
11
922.150000000000
21
1410.288000000000
31
0.0
0
LINE
5
5da
100
AcDbEntity
8
0-6戸当り
6
CONTINUOUS
62
3
100
AcDbLine
10
913.663000000000
20
1405.388000000000
30
0.0
11
905.176000000000
21
1410.288000000000
31
0.0
0
LINE
5
5db
100
AcDbEntity
8
0-6戸当り
6
CONTINUOUS
62
3
100
AcDbLine
10
913.663000000000
20
1424.987000000000
30
0.0
11
905.176000000000
21
1420.087000000000
31
0.0
0
LINE
5
5dc
100
AcDbEntity
8
0-6戸当り
6
CONTINUOUS
62
3
100
AcDbLine
10
905.176000000000
20
1410.288000000000
30
0.0
11
905.176000000000
21
1420.087000000000
31
0.0
0
LINE
5
5dd
100
AcDbEntity
8
0-5基準線
6
CENTER2
62
7
100
AcDbLine
10
913.663000000000
20
1400.188000000000
30
0.0
11
913.663000000000
21
1430.187000000000
31
0.0
0
LINE
5
5de
100
AcDbEntity
8
0-5基準線
6
CENTER2
62
7
100
AcDbLine
10
928.663000000000
20
1415.187000000000
30
0.0
11
898.663000000000
21
1415.187000000000
31
0.0
0
LINE
5
5df
100
AcDbEntity
8
0-6戸当り
6
CONTINUOUS
62
3
100
AcDbLine
10
1673.663000000000
20
1424.987000000000
30
0.0
11
1665.176000000000
21
1420.087000000000
31
0.0
0
LINE
5
5e0
100
AcDbEntity
8
0-6戸当り
6
CONTINUOUS
62
3
100
AcDbLine
10
1673.663000000000
20
1405.388000000000
30
0.0
11
1665.176000000000
21
1410.288000000000
31
0.0
0
LINE
5
5e1
100
AcDbEntity
8
0-6戸当り
6
CONTINUOUS
62
3
100
AcDbLine
10
1665.176000000000
20
1420.087000000000
30
0.0
11
1665.176000000000
21
1410.288000000000
31
0.0
0
LINE
5
5e2
100
AcDbEntity
8
0-6戸当り
6
CONTINUOUS
62
3
100
AcDbLine
10
1673.663000000000
20
1405.388000000000
30
0.0
11
1682.150000000000
21
1410.288000000000
31
0.0
0
LINE
5
5e3
100
AcDbEntity
8
0-6戸当り
6
CONTINUOUS
62
3
100
AcDbLine
10
1673.663000000000
20
1424.987000000000
30
0.0
11
1682.150000000000
21
1420.087000000000
31
0.0
0
LINE
5
5e4
100
AcDbEntity
8
0-6戸当り
6
CONTINUOUS
62
3
100
AcDbLine
10
1682.150000000000
20
1410.288000000000
30
0.0
11
1682.150000000000
21
1420.087000000000
31
0.0
0
LINE
5
5e5
100
AcDbEntity
8
0-5基準線
6
CENTER2
62
7
100
AcDbLine
10
1673.663000000000
20
1400.188000000000
30
0.0
11
1673.663000000000
21
1430.187000000000
31
0.0
0
LINE
5
5e6
100
AcDbEntity
8
0-5基準線
6
CENTER2
62
7
100
AcDbLine
10
1658.663000000000
20
1415.187000000000
30
0.0
11
1688.663000000000
21
1415.187000000000
31
0.0
0
LINE
5
5e7
100
AcDbEntity
8
0-6戸当り
6
CONTINUOUS
62
7
100
AcDbLine
10
1559.163000000000
20
1470.672000000000
30
0.0
11
1568.663000000000
21
1476.157000000000
31
0.0
0
LINE
5
5e8
100
AcDbEntity
8
0-6戸当り
6
CONTINUOUS
62
7
100
AcDbLine
10
1559.163000000000
20
1470.672000000000
30
0.0
11
1559.163000000000
21
1459.703000000000
31
0.0
0
LINE
5
5e9
100
AcDbEntity
8
0-6戸当り
6
CONTINUOUS
62
7
100
AcDbLine
10
1568.663000000000
20
1454.218000000000
30
0.0
11
1559.163000000000
21
1459.703000000000
31
0.0
0
POLYLINE
5
5ea
100
AcDbEntity
8
0-6戸当り
6
CONTINUOUS
62
  7
100
AcDb2dPolyline
66
1
10
0.0
20
0.0
30
0.0
70
0
0
VERTEX
5
5eb
100
AcDbEntity
8
0-6戸当り
6
CONTINUOUS
62
  7
100
AcDbVertex
100
AcDb2dVertex
10
1568.663000000000
20
1454.218000000000
30
0.0
0
VERTEX
5
5ec
100
AcDbEntity
8
0-6戸当り
6
CONTINUOUS
62
  7
100
AcDbVertex
100
AcDb2dVertex
10
1578.163000000000
20
1459.703000000000
30
0.0
0
VERTEX
5
5ed
100
AcDbEntity
8
0-6戸当り
6
CONTINUOUS
62
  7
100
AcDbVertex
100
AcDb2dVertex
10
1578.163000000000
20
1470.672000000000
30
0.0
0
VERTEX
5
5ee
100
AcDbEntity
8
0-6戸当り
6
CONTINUOUS
62
  7
100
AcDbVertex
100
AcDb2dVertex
10
1568.663000000000
20
1476.157000000000
30
0.0
0
SEQEND
5
5ef
100
AcDbEntity
8
0-6戸当り
0
LINE
5
5f0
100
AcDbEntity
8
0-5基準線
6
CENTER2
62
7
100
AcDbLine
10
1568.663000000000
20
1482.188000000000
30
0.0
11
1568.663000000000
21
1448.188000000000
31
0.0
0
LINE
5
5f1
100
AcDbEntity
8
0-5基準線
6
CENTER2
62
7
100
AcDbLine
10
1551.663000000000
20
1465.188000000000
30
0.0
11
1585.663000000000
21
1465.188000000000
31
0.0
0
LINE
5
5f2
100
AcDbEntity
8
0-8寸法
6
CONTINUOUS
62
4
100
AcDbLine
10
643.663000000000
20
635.188000000000
30
0.0
11
638.486000000000
21
615.869000000000
31
0.0
0
LINE
5
5f3
100
AcDbEntity
8
0-8寸法
6
CONTINUOUS
62
4
100
AcDbLine
10
643.663000000000
20
635.188000000000
30
0.0
11
648.839000000000
21
615.869000000000
31
0.0
0
LINE
5
5f4
100
AcDbEntity
8
0-8寸法
6
CONTINUOUS
62
4
100
AcDbLine
10
643.663000000000
20
655.187000000000
30
0.0
11
643.663000000000
21
560.042000000000
31
0.0
0
LINE
5
5f5
100
AcDbEntity
8
0-8寸法
6
CONTINUOUS
62
4
100
AcDbLine
10
543.663000000000
20
635.188000000000
30
0.0
11
543.663000000000
21
1485.187000000000
31
0.0
0
LINE
5
5f6
100
AcDbEntity
8
0-8寸法
6
CONTINUOUS
62
4
100
AcDbLine
10
869.895000000000
20
635.188000000000
30
0.0
11
533.663000000000
21
635.188000000000
31
0.0
0
LINE
5
5f7
100
AcDbEntity
8
0-8寸法
6
CONTINUOUS
62
4
100
AcDbLine
10
543.663000000000
20
635.188000000000
30
0.0
11
538.486000000000
21
654.506000000000
31
0.0
0
LINE
5
5f8
100
AcDbEntity
8
0-8寸法
6
CONTINUOUS
62
4
100
AcDbLine
10
543.663000000000
20
635.188000000000
30
0.0
11
548.839000000000
21
654.506000000000
31
0.0
0
LINE
5
5f9
100
AcDbEntity
8
0-8寸法
6
CONTINUOUS
62
4
100
AcDbLine
10
543.663000000000
20
1485.187000000000
30
0.0
11
538.486000000000
21
1465.869000000000
31
0.0
0
LINE
5
5fa
100
AcDbEntity
8
0-8寸法
6
CONTINUOUS
62
4
100
AcDbLine
10
543.663000000000
20
1485.187000000000
30
0.0
11
548.839000000000
21
1465.869000000000
31
0.0
0
LINE
5
5fb
100
AcDbEntity
8
0-6戸当り
6
CONTINUOUS
62
3
100
AcDbLine
10
2522.695000000000
20
1452.188000000000
30
0.0
11
2522.695000000000
21
1478.188000000000
31
0.0
0
LINE
5
5fc
100
AcDbEntity
8
0-6戸当り
6
CONTINUOUS
62
2
100
AcDbLine
10
2522.695000000000
20
1452.188000000000
30
0.0
11
2525.095000000000
21
1452.188000000000
31
0.0
0
LINE
5
5fd
100
AcDbEntity
8
0-6戸当り
6
CONTINUOUS
62
2
100
AcDbLine
10
2522.695000000000
20
1478.188000000000
30
0.0
11
2525.095000000000
21
1478.188000000000
31
0.0
0
LINE
5
5fe
100
AcDbEntity
8
0-8寸法
6
CONTINUOUS
62
4
100
AcDbLine
10
2537.095000000000
20
1685.188000000000
30
0.0
11
2556.413000000000
21
1690.364000000000
31
0.0
0
LINE
5
5ff
100
AcDbEntity
8
0-8寸法
6
CONTINUOUS
62
4
100
AcDbLine
10
2537.095000000000
20
1685.188000000000
30
0.0
11
2556.413000000000
21
1680.011000000000
31
0.0
0
LINE
5
600
100
AcDbEntity
8
0-8寸法
6
CONTINUOUS
62
4
100
AcDbLine
10
2624.846000000000
20
1685.188000000000
30
0.0
11
2525.095000000000
21
1685.188000000000
31
0.0
0
LINE
5
601
100
AcDbEntity
8
0-8寸法
6
CONTINUOUS
62
4
100
AcDbLine
10
2525.095000000000
20
1491.001000000000
30
0.0
11
2525.095000000000
21
1695.188000000000
31
0.0
0
LINE
5
602
100
AcDbEntity
8
0-8寸法
6
CONTINUOUS
62
4
100
AcDbLine
10
2537.095000000000
20
1593.013000000000
30
0.0
11
2537.095000000000
21
1695.188000000000
31
0.0
0
LINE
5
603
100
AcDbEntity
8
0-8寸法
6
CONTINUOUS
62
4
100
AcDbLine
10
2837.095000000000
20
635.188000000000
30
0.0
11
2837.095000000000
21
735.188000000000
31
0.0
0
LINE
5
604
100
AcDbEntity
8
0-8寸法
6
CONTINUOUS
62
4
100
AcDbLine
10
2837.095000000000
20
635.188000000000
30
0.0
11
2831.918000000000
21
654.506000000000
31
0.0
0
LINE
5
605
100
AcDbEntity
8
0-8寸法
6
CONTINUOUS
62
4
100
AcDbLine
10
2837.095000000000
20
635.188000000000
30
0.0
11
2842.271000000000
21
654.506000000000
31
0.0
0
LINE
5
606
100
AcDbEntity
8
0-8寸法
6
CONTINUOUS
62
4
100
AcDbLine
10
2837.095000000000
20
735.188000000000
30
0.0
11
2831.918000000000
21
715.870000000000
31
0.0
0
LINE
5
607
100
AcDbEntity
8
0-8寸法
6
CONTINUOUS
62
4
100
AcDbLine
10
2837.095000000000
20
735.188000000000
30
0.0
11
2842.271000000000
21
715.870000000000
31
0.0
0
LINE
5
608
100
AcDbEntity
8
0-8寸法
6
CONTINUOUS
62
4
100
AcDbLine
10
2837.095000000000
20
1335.187000000000
30
0.0
11
2837.095000000000
21
1485.187000000000
31
0.0
0
LINE
5
609
100
AcDbEntity
8
0-8寸法
6
CONTINUOUS
62
4
100
AcDbLine
10
2837.095000000000
20
1335.187000000000
30
0.0
11
2831.918000000000
21
1354.506000000000
31
0.0
0
LINE
5
60a
100
AcDbEntity
8
0-8寸法
6
CONTINUOUS
62
4
100
AcDbLine
10
2837.095000000000
20
1335.187000000000
30
0.0
11
2842.271000000000
21
1354.506000000000
31
0.0
0
LINE
5
60b
100
AcDbEntity
8
0-8寸法
6
CONTINUOUS
62
4
100
AcDbLine
10
2837.095000000000
20
1485.187000000000
30
0.0
11
2831.918000000000
21
1465.869000000000
31
0.0
0
LINE
5
60c
100
AcDbEntity
8
0-8寸法
6
CONTINUOUS
62
4
100
AcDbLine
10
2837.095000000000
20
1485.187000000000
30
0.0
11
2842.271000000000
21
1465.869000000000
31
0.0
0
LINE
5
60d
100
AcDbEntity
8
0-8寸法
6
CONTINUOUS
62
4
100
AcDbLine
10
2525.095000000000
20
985.188000000000
30
0.0
11
2544.413000000000
21
990.364000000000
31
0.0
0
LINE
5
60e
100
AcDbEntity
8
0-8寸法
6
CONTINUOUS
62
4
100
AcDbLine
10
2525.095000000000
20
985.188000000000
30
0.0
11
2544.413000000000
21
980.011000000000
31
0.0
0
LINE
5
60f
100
AcDbEntity
8
0-8寸法
6
CONTINUOUS
62
4
100
AcDbLine
10
2505.094000000000
20
985.188000000000
30
0.0
11
2485.776000000000
21
990.364000000000
31
0.0
0
LINE
5
610
100
AcDbEntity
8
0-8寸法
6
CONTINUOUS
62
4
100
AcDbLine
10
2505.094000000000
20
985.188000000000
30
0.0
11
2485.776000000000
21
980.011000000000
31
0.0
0
LINE
5
611
100
AcDbEntity
8
0-6戸当り
6
CONTINUOUS
62
6
100
AcDbLine
10
2537.095000000000
20
976.115000000000
30
0.0
11
2537.095000000000
21
535.188000000000
31
0.0
0
LINE
5
612
100
AcDbEntity
8
0-6戸当り
6
CONTINUOUS
62
6
100
AcDbLine
10
2525.095000000000
20
1069.454000000000
30
0.0
11
2525.095000000000
21
635.188000000000
31
0.0
0
LINE
5
613
100
AcDbEntity
8
0-3RC
6
CONTINUOUS
62
6
100
AcDbLine
10
2537.095000000000
20
1585.187000000000
30
0.0
11
2537.095000000000
21
998.928000000000
31
0.0
0
LINE
5
614
100
AcDbEntity
8
0-6戸当り
6
CONTINUOUS
62
6
100
AcDbLine
10
2525.095000000000
20
1485.187000000000
30
0.0
11
2525.095000000000
21
1102.005000000000
31
0.0
0
LINE
5
615
100
AcDbEntity
8
0-8寸法
6
CONTINUOUS
62
4
100
AcDbLine
10
1858.772000000000
20
285.188000000000
30
0.0
11
2402.095000000000
21
285.188000000000
31
0.0
0
LINE
5
616
100
AcDbEntity
8
0-9扉体
6
CONTINUOUS
62
6
100
AcDbLine
10
1040.163000000000
20
2266.647000000000
30
0.0
11
1040.163000000000
21
2250.647000000000
31
0.0
0
LINE
5
617
100
AcDbEntity
8
0-9扉体
6
CONTINUOUS
62
6
100
AcDbLine
10
1040.163000000000
20
2266.647000000000
30
0.0
11
1051.063000000000
21
2266.647000000000
31
0.0
0
LINE
5
618
100
AcDbEntity
8
0-9扉体
6
CONTINUOUS
62
6
100
AcDbLine
10
1127.163000000000
20
2266.647000000000
30
0.0
11
1116.263000000000
21
2266.647000000000
31
0.0
0
LINE
5
619
100
AcDbEntity
8
0-9扉体
6
CONTINUOUS
62
6
100
AcDbLine
10
1127.163000000000
20
2266.647000000000
30
0.0
11
1127.163000000000
21
2250.647000000000
31
0.0
0
LINE
5
61a
100
AcDbEntity
8
0-3RC
6
CONTINUOUS
62
6
100
AcDbLine
10
793.663000000000
20
2304.647000000000
30
0.0
11
1793.663000000000
21
2304.647000000000
31
0.0
0
LINE
5
61b
100
AcDbEntity
8
0-6戸当り
6
CONTINUOUS
62
6
100
AcDbLine
10
893.663000000000
20
2292.647000000000
30
0.0
11
893.663000000000
21
2304.647000000000
31
0.0
0
LINE
5
61c
100
AcDbEntity
8
0-6戸当り
6
CONTINUOUS
62
7
100
AcDbLine
10
893.663000000000
20
2292.647000000000
30
0.0
11
1693.663000000000
21
2292.647000000000
31
0.0
0
LINE
5
61d
100
AcDbEntity
8
0-6戸当り
6
CONTINUOUS
62
6
100
AcDbLine
10
1693.663000000000
20
2292.647000000000
30
0.0
11
1693.663000000000
21
2304.647000000000
31
0.0
0
LINE
5
61e
100
AcDbEntity
8
0-6戸当り
6
CONTINUOUS
62
2
100
AcDbLine
10
1668.663000000000
20
2308.849000000000
30
0.0
11
1666.163000000000
21
2338.361000000000
31
0.0
0
LINE
5
61f
100
AcDbEntity
8
0-6戸当り
6
CONTINUOUS
62
2
100
AcDbLine
10
1673.663000000000
20
2308.849000000000
30
0.0
11
1671.163000000000
21
2338.361000000000
31
0.0
0
LINE
5
620
100
AcDbEntity
8
0-6戸当り
6
CONTINUOUS
62
2
100
AcDbLine
10
1668.663000000000
20
2308.849000000000
30
0.0
11
1678.663000000000
21
2308.849000000000
31
0.0
0
LINE
5
621
100
AcDbEntity
8
0-6戸当り
6
CONTINUOUS
62
2
100
AcDbLine
10
1668.305000000000
20
2313.065000000000
30
0.0
11
1673.306000000000
21
2313.065000000000
31
0.0
0
LINE
5
622
100
AcDbEntity
8
0-6戸当り
6
CONTINUOUS
62
2
100
AcDbLine
10
1667.949000000000
20
2317.281000000000
30
0.0
11
1672.949000000000
21
2317.281000000000
31
0.0
0
LINE
5
623
100
AcDbEntity
8
0-6戸当り
6
CONTINUOUS
62
2
100
AcDbLine
10
1667.592000000000
20
2321.497000000000
30
0.0
11
1672.591000000000
21
2321.497000000000
31
0.0
0
LINE
5
624
100
AcDbEntity
8
0-6戸当り
6
CONTINUOUS
62
2
100
AcDbLine
10
1667.234000000000
20
2325.713000000000
30
0.0
11
1672.234000000000
21
2325.713000000000
31
0.0
0
LINE
5
625
100
AcDbEntity
8
0-6戸当り
6
CONTINUOUS
62
2
100
AcDbLine
10
1666.877000000000
20
2329.929000000000
30
0.0
11
1671.877000000000
21
2329.929000000000
31
0.0
0
LINE
5
626
100
AcDbEntity
8
0-6戸当り
6
CONTINUOUS
62
2
100
AcDbLine
10
1666.520000000000
20
2334.145000000000
30
0.0
11
1671.520000000000
21
2334.145000000000
31
0.0
0
POLYLINE
5
627
100
AcDbEntity
8
0-6戸当り
6
CONTINUOUS
62
  2
100
AcDb2dPolyline
66
1
10
0.0
20
0.0
30
0.0
70
0
0
VERTEX
5
628
100
AcDbEntity
8
0-6戸当り
6
CONTINUOUS
62
  2
100
AcDbVertex
100
AcDb2dVertex
10
1678.663000000000
20
2308.849000000000
30
0.0
0
VERTEX
5
629
100
AcDbEntity
8
0-6戸当り
6
CONTINUOUS
62
  2
100
AcDbVertex
100
AcDb2dVertex
10
1681.163000000000
20
2338.361000000000
30
0.0
0
VERTEX
5
62a
100
AcDbEntity
8
0-6戸当り
6
CONTINUOUS
62
  2
100
AcDbVertex
100
AcDb2dVertex
10
1676.163000000000
20
2338.361000000000
30
0.0
0
SEQEND
5
62b
100
AcDbEntity
8
0-6戸当り
0
LINE
5
62c
100
AcDbEntity
8
0-6戸当り
6
CONTINUOUS
62
2
100
AcDbLine
10
1673.663000000000
20
2308.849000000000
30
0.0
11
1676.163000000000
21
2338.361000000000
31
0.0
0
LINE
5
62d
100
AcDbEntity
8
0-6戸当り
6
CONTINUOUS
62
2
100
AcDbLine
10
1679.020000000000
20
2313.065000000000
30
0.0
11
1674.020000000000
21
2313.065000000000
31
0.0
0
LINE
5
62e
100
AcDbEntity
8
0-6戸当り
6
CONTINUOUS
62
2
100
AcDbLine
10
1679.377000000000
20
2317.281000000000
30
0.0
11
1674.377000000000
21
2317.281000000000
31
0.0
0
LINE
5
62f
100
AcDbEntity
8
0-6戸当り
6
CONTINUOUS
62
2
100
AcDbLine
10
1679.734000000000
20
2321.497000000000
30
0.0
11
1674.734000000000
21
2321.497000000000
31
0.0
0
LINE
5
630
100
AcDbEntity
8
0-6戸当り
6
CONTINUOUS
62
2
100
AcDbLine
10
1680.091000000000
20
2325.713000000000
30
0.0
11
1675.091000000000
21
2325.713000000000
31
0.0
0
LINE
5
631
100
AcDbEntity
8
0-6戸当り
6
CONTINUOUS
62
2
100
AcDbLine
10
1680.448000000000
20
2329.929000000000
30
0.0
11
1675.449000000000
21
2329.929000000000
31
0.0
0
LINE
5
632
100
AcDbEntity
8
0-6戸当り
6
CONTINUOUS
62
2
100
AcDbLine
10
1680.806000000000
20
2334.145000000000
30
0.0
11
1675.806000000000
21
2334.145000000000
31
0.0
0
LINE
5
633
100
AcDbEntity
8
0-6戸当り
6
CONTINUOUS
62
3
100
AcDbLine
10
1662.663000000000
20
2291.047000000000
30
0.0
11
1662.663000000000
21
2292.647000000000
31
0.0
0
LINE
5
634
100
AcDbEntity
8
0-6戸当り
6
CONTINUOUS
62
3
100
AcDbLine
10
1684.663000000000
20
2291.047000000000
30
0.0
11
1684.663000000000
21
2292.647000000000
31
0.0
0
LINE
5
635
100
AcDbEntity
8
0-6戸当り
6
CONTINUOUS
62
7
100
AcDbLine
10
1665.163000000000
20
2283.047000000000
30
0.0
11
1663.848000000000
21
2283.806000000000
31
0.0
0
POLYLINE
5
636
100
AcDbEntity
8
0-6戸当り
6
CONTINUOUS
62
  7
100
AcDb2dPolyline
66
1
10
0.0
20
0.0
30
0.0
70
0
0
VERTEX
5
637
100
AcDbEntity
8
0-6戸当り
6
CONTINUOUS
62
  7
100
AcDbVertex
100
AcDb2dVertex
10
1665.163000000000
20
2283.047000000000
30
0.0
0
VERTEX
5
638
100
AcDbEntity
8
0-6戸当り
6
CONTINUOUS
62
  7
100
AcDbVertex
100
AcDb2dVertex
10
1682.163000000000
20
2283.047000000000
30
0.0
0
VERTEX
5
639
100
AcDbEntity
8
0-6戸当り
6
CONTINUOUS
62
  7
100
AcDbVertex
100
AcDb2dVertex
10
1683.478000000000
20
2283.806000000000
30
0.0
0
SEQEND
5
63a
100
AcDbEntity
8
0-6戸当り
0
LINE
5
63b
100
AcDbEntity
8
0-6戸当り
6
CONTINUOUS
62
7
100
AcDbLine
10
1683.478000000000
20
2291.047000000000
30
0.0
11
1683.478000000000
21
2283.806000000000
31
0.0
0
LINE
5
63c
100
AcDbEntity
8
0-6戸当り
6
CONTINUOUS
62
7
100
AcDbLine
10
1668.756000000000
20
2291.047000000000
30
0.0
11
1668.756000000000
21
2283.806000000000
31
0.0
0
LINE
5
63d
100
AcDbEntity
8
0-6戸当り
6
CONTINUOUS
62
7
100
AcDbLine
10
1678.570000000000
20
2291.047000000000
30
0.0
11
1678.570000000000
21
2283.806000000000
31
0.0
0
LINE
5
63e
100
AcDbEntity
8
0-6戸当り
6
CONTINUOUS
62
7
100
AcDbLine
10
1663.848000000000
20
2291.047000000000
30
0.0
11
1663.848000000000
21
2283.806000000000
31
0.0
0
LINE
5
63f
100
AcDbEntity
8
0-6戸当り
6
CONTINUOUS
62
3
100
AcDbLine
10
1684.663000000000
20
2291.047000000000
30
0.0
11
1662.663000000000
21
2291.047000000000
31
0.0
0
LINE
5
640
100
AcDbEntity
8
0-6戸当り
6
CONTINUOUS
62
3
100
AcDbLine
10
1678.663000000000
20
2283.047000000000
30
0.0
11
1678.663000000000
21
2278.361000000000
31
0.0
0
LINE
5
641
100
AcDbEntity
8
0-6戸当り
6
CONTINUOUS
62
3
100
AcDbLine
10
1668.663000000000
20
2283.047000000000
30
0.0
11
1668.663000000000
21
2278.361000000000
31
0.0
0
LINE
5
642
100
AcDbEntity
8
0-6戸当り
6
CONTINUOUS
62
4
100
AcDbLine
10
1677.663000000000
20
2283.047000000000
30
0.0
11
1677.663000000000
21
2278.130000000000
31
0.0
0
LINE
5
643
100
AcDbEntity
8
0-6戸当り
6
CONTINUOUS
62
4
100
AcDbLine
10
1669.663000000000
20
2283.047000000000
30
0.0
11
1669.663000000000
21
2278.130000000000
31
0.0
0
LINE
5
644
100
AcDbEntity
8
0-6戸当り
6
CONTINUOUS
62
3
100
AcDbLine
10
1678.663000000000
20
2278.361000000000
30
0.0
11
1668.663000000000
21
2278.361000000000
31
0.0
0
LINE
5
645
100
AcDbEntity
8
0-6戸当り
6
CONTINUOUS
62
2
100
AcDbLine
10
1666.163000000000
20
2338.361000000000
30
0.0
11
1671.163000000000
21
2338.361000000000
31
0.0
0
LINE
5
646
100
AcDbEntity
8
0-6戸当り
6
CONTINUOUS
62
2
100
AcDbLine
10
1668.663000000000
20
2304.648000000000
30
0.0
11
1668.663000000000
21
2308.849000000000
31
0.0
0
LINE
5
647
100
AcDbEntity
8
0-6戸当り
6
CONTINUOUS
62
2
100
AcDbLine
10
1678.663000000000
20
2304.648000000000
30
0.0
11
1678.663000000000
21
2308.849000000000
31
0.0
0
LINE
5
648
100
AcDbEntity
8
0-5基準線
6
CENTER2
62
7
100
AcDbLine
10
1673.663000000000
20
2274.474000000000
30
0.0
11
1673.663000000000
21
2343.430000000000
31
0.0
0
LINE
5
649
100
AcDbEntity
8
0-6戸当り
6
CONTINUOUS
62
3
100
AcDbLine
10
924.663000000000
20
2291.047000000000
30
0.0
11
924.663000000000
21
2292.647000000000
31
0.0
0
LINE
5
64a
100
AcDbEntity
8
0-6戸当り
6
CONTINUOUS
62
3
100
AcDbLine
10
902.662000000000
20
2291.047000000000
30
0.0
11
902.662000000000
21
2292.647000000000
31
0.0
0
LINE
5
64b
100
AcDbEntity
8
0-6戸当り
6
CONTINUOUS
62
7
100
AcDbLine
10
922.163000000000
20
2283.047000000000
30
0.0
11
923.478000000000
21
2283.806000000000
31
0.0
0
POLYLINE
5
64c
100
AcDbEntity
8
0-6戸当り
6
CONTINUOUS
62
  7
100
AcDb2dPolyline
66
1
10
0.0
20
0.0
30
0.0
70
0
0
VERTEX
5
64d
100
AcDbEntity
8
0-6戸当り
6
CONTINUOUS
62
  7
100
AcDbVertex
100
AcDb2dVertex
10
922.163000000000
20
2283.047000000000
30
0.0
0
VERTEX
5
64e
100
AcDbEntity
8
0-6戸当り
6
CONTINUOUS
62
  7
100
AcDbVertex
100
AcDb2dVertex
10
905.163000000000
20
2283.047000000000
30
0.0
0
VERTEX
5
64f
100
AcDbEntity
8
0-6戸当り
6
CONTINUOUS
62
  7
100
AcDbVertex
100
AcDb2dVertex
10
903.848000000000
20
2283.806000000000
30
0.0
0
SEQEND
5
650
100
AcDbEntity
8
0-6戸当り
0
LINE
5
651
100
AcDbEntity
8
0-6戸当り
6
CONTINUOUS
62
7
100
AcDbLine
10
903.848000000000
20
2291.047000000000
30
0.0
11
903.848000000000
21
2283.806000000000
31
0.0
0
LINE
5
652
100
AcDbEntity
8
0-6戸当り
6
CONTINUOUS
62
7
100
AcDbLine
10
918.570000000000
20
2291.047000000000
30
0.0
11
918.570000000000
21
2283.806000000000
31
0.0
0
LINE
5
653
100
AcDbEntity
8
0-6戸当り
6
CONTINUOUS
62
7
100
AcDbLine
10
908.755000000000
20
2291.047000000000
30
0.0
11
908.755000000000
21
2283.806000000000
31
0.0
0
LINE
5
654
100
AcDbEntity
8
0-6戸当り
6
CONTINUOUS
62
7
100
AcDbLine
10
923.478000000000
20
2291.047000000000
30
0.0
11
923.478000000000
21
2283.806000000000
31
0.0
0
LINE
5
655
100
AcDbEntity
8
0-6戸当り
6
CONTINUOUS
62
3
100
AcDbLine
10
902.662000000000
20
2291.047000000000
30
0.0
11
924.663000000000
21
2291.047000000000
31
0.0
0
LINE
5
656
100
AcDbEntity
8
0-6戸当り
6
CONTINUOUS
62
3
100
AcDbLine
10
908.663000000000
20
2283.047000000000
30
0.0
11
908.663000000000
21
2278.361000000000
31
0.0
0
LINE
5
657
100
AcDbEntity
8
0-6戸当り
6
CONTINUOUS
62
3
100
AcDbLine
10
918.663000000000
20
2283.047000000000
30
0.0
11
918.663000000000
21
2278.361000000000
31
0.0
0
LINE
5
658
100
AcDbEntity
8
0-6戸当り
6
CONTINUOUS
62
4
100
AcDbLine
10
909.663000000000
20
2283.047000000000
30
0.0
11
909.663000000000
21
2278.130000000000
31
0.0
0
LINE
5
659
100
AcDbEntity
8
0-6戸当り
6
CONTINUOUS
62
4
100
AcDbLine
10
917.663000000000
20
2283.047000000000
30
0.0
11
917.663000000000
21
2278.130000000000
31
0.0
0
LINE
5
65a
100
AcDbEntity
8
0-6戸当り
6
CONTINUOUS
62
3
100
AcDbLine
10
908.663000000000
20
2278.361000000000
30
0.0
11
918.663000000000
21
2278.361000000000
31
0.0
0
LINE
5
65b
100
AcDbEntity
8
0-5基準線
6
CENTER2
62
7
100
AcDbLine
10
913.663000000000
20
2274.474000000000
30
0.0
11
913.663000000000
21
2343.430000000000
31
0.0
0
LINE
5
65c
100
AcDbEntity
8
0-3RC
6
CONTINUOUS
62
7
100
AcDbLine
10
2525.095000000000
20
1335.187000000000
30
0.0
11
2687.095000000000
21
1335.187000000000
31
0.0
0
LINE
5
65d
100
AcDbEntity
8
0-3RC
6
CONTINUOUS
62
7
100
AcDbLine
10
2525.095000000000
20
735.188000000000
30
0.0
11
2687.095000000000
21
735.188000000000
31
0.0
0
LINE
5
65e
100
AcDbEntity
8
0-3RC
6
DOT
62
4
100
AcDbLine
10
993.663000000000
20
2292.647000000000
30
0.0
11
993.663000000000
21
2404.647000000000
31
0.0
0
LINE
5
65f
100
AcDbEntity
8
0-3RC
6
CONTINUOUS
62
7
100
AcDbLine
10
1593.663000000000
20
2292.647000000000
30
0.0
11
1593.663000000000
21
2404.647000000000
31
0.0
0
LINE
5
660
100
AcDbEntity
8
0-8寸法
6
CONTINUOUS
62
4
100
AcDbLine
10
993.663000000000
20
2420.779000000000
30
0.0
11
993.663000000000
21
2614.647000000000
31
0.0
0
LINE
5
661
100
AcDbEntity
8
0-5基準線
6
CENTER2
62
7
100
AcDbLine
10
1293.663000000000
20
2404.647000000000
30
0.0
11
1293.663000000000
21
2187.357000000000
31
0.0
0
LINE
5
662
100
AcDbEntity
8
0-8寸法
6
CONTINUOUS
62
4
100
AcDbLine
10
893.663000000000
20
2604.647000000000
30
0.0
11
993.662000000000
21
2604.647000000000
31
0.0
0
LINE
5
663
100
AcDbEntity
8
0-8寸法
6
CONTINUOUS
62
4
100
AcDbLine
10
893.663000000000
20
2604.647000000000
30
0.0
11
912.981000000000
21
2609.823000000000
31
0.0
0
LINE
5
664
100
AcDbEntity
8
0-8寸法
6
CONTINUOUS
62
4
100
AcDbLine
10
893.663000000000
20
2604.647000000000
30
0.0
11
912.981000000000
21
2599.471000000000
31
0.0
0
LINE
5
665
100
AcDbEntity
8
0-8寸法
6
CONTINUOUS
62
4
100
AcDbLine
10
993.662000000000
20
2604.647000000000
30
0.0
11
974.344000000000
21
2609.823000000000
31
0.0
0
LINE
5
666
100
AcDbEntity
8
0-8寸法
6
CONTINUOUS
62
4
100
AcDbLine
10
993.662000000000
20
2604.647000000000
30
0.0
11
974.344000000000
21
2599.471000000000
31
0.0
0
LINE
5
667
100
AcDbEntity
8
0-8寸法
6
CONTINUOUS
62
4
100
AcDbLine
10
1593.663000000000
20
2604.647000000000
30
0.0
11
1693.663000000000
21
2604.647000000000
31
0.0
0
LINE
5
668
100
AcDbEntity
8
0-8寸法
6
CONTINUOUS
62
4
100
AcDbLine
10
1593.663000000000
20
2420.779000000000
30
0.0
11
1593.663000000000
21
2614.647000000000
31
0.0
0
LINE
5
669
100
AcDbEntity
8
0-8寸法
6
CONTINUOUS
62
4
100
AcDbLine
10
1593.663000000000
20
2604.647000000000
30
0.0
11
1612.981000000000
21
2609.823000000000
31
0.0
0
LINE
5
66a
100
AcDbEntity
8
0-8寸法
6
CONTINUOUS
62
4
100
AcDbLine
10
1593.663000000000
20
2604.647000000000
30
0.0
11
1612.981000000000
21
2599.471000000000
31
0.0
0
LINE
5
66b
100
AcDbEntity
8
0-8寸法
6
CONTINUOUS
62
4
100
AcDbLine
10
1693.663000000000
20
2604.647000000000
30
0.0
11
1674.344000000000
21
2609.823000000000
31
0.0
0
LINE
5
66c
100
AcDbEntity
8
0-8寸法
6
CONTINUOUS
62
4
100
AcDbLine
10
1693.663000000000
20
2604.647000000000
30
0.0
11
1674.344000000000
21
2599.471000000000
31
0.0
0
LINE
5
66d
100
AcDbEntity
8
0-8寸法
6
CONTINUOUS
62
4
100
AcDbLine
10
893.663000000000
20
2318.495000000000
30
0.0
11
893.663000000000
21
2614.647000000000
31
0.0
0
LINE
5
66e
100
AcDbEntity
8
0-8寸法
6
CONTINUOUS
62
4
100
AcDbLine
10
1693.663000000000
20
2318.495000000000
30
0.0
11
1693.663000000000
21
2614.647000000000
31
0.0
0
LINE
5
66f
100
AcDbEntity
8
0-8寸法
6
CONTINUOUS
62
4
100
AcDbLine
10
943.663000000000
20
2010.188000000000
30
0.0
11
1643.663000000000
21
2010.188000000000
31
0.0
0
LINE
5
670
100
AcDbEntity
8
0-8寸法
6
CONTINUOUS
62
4
100
AcDbLine
10
943.663000000000
20
2010.188000000000
30
0.0
11
962.981000000000
21
2015.364000000000
31
0.0
0
LINE
5
671
100
AcDbEntity
8
0-8寸法
6
CONTINUOUS
62
4
100
AcDbLine
10
943.663000000000
20
2010.188000000000
30
0.0
11
962.981000000000
21
2005.011000000000
31
0.0
0
LINE
5
672
100
AcDbEntity
8
0-8寸法
6
CONTINUOUS
62
4
100
AcDbLine
10
1643.663000000000
20
2010.188000000000
30
0.0
11
1624.344000000000
21
2015.364000000000
31
0.0
0
LINE
5
673
100
AcDbEntity
8
0-8寸法
6
CONTINUOUS
62
4
100
AcDbLine
10
1643.663000000000
20
2010.188000000000
30
0.0
11
1624.344000000000
21
2005.011000000000
31
0.0
0
LINE
5
674
100
AcDbEntity
8
0-8寸法
6
CONTINUOUS
62
4
100
AcDbLine
10
943.663000000000
20
2191.952000000000
30
0.0
11
943.663000000000
21
2000.188000000000
31
0.0
0
LINE
5
675
100
AcDbEntity
8
0-8寸法
6
CONTINUOUS
62
4
100
AcDbLine
10
1643.663000000000
20
2191.952000000000
30
0.0
11
1643.663000000000
21
2000.188000000000
31
0.0
0
LINE
5
676
100
AcDbEntity
8
0-8寸法
6
CONTINUOUS
62
4
100
AcDbLine
10
2537.095000000000
20
635.188000000000
30
0.0
11
2534.972000000000
21
615.301000000000
31
0.0
0
LINE
5
677
100
AcDbEntity
8
0-8寸法
6
CONTINUOUS
62
4
100
AcDbLine
10
2537.095000000000
20
635.188000000000
30
0.0
11
2525.313000000000
21
619.026000000000
31
0.0
0
LINE
5
678
100
AcDbEntity
8
0-9扉体
6
CONTINUOUS
62
3
100
AcDbLine
10
1293.663000000000
20
2280.647000000000
30
0.0
11
1578.227000000000
21
2280.647000000000
31
0.0
0
LINE
5
679
100
AcDbEntity
8
0-9扉体
6
CONTINUOUS
62
3
100
AcDbLine
10
1583.663000000000
20
2280.647000000000
30
0.0
11
1623.663000000000
21
2280.647000000000
31
0.0
0
LINE
5
67a
100
AcDbEntity
8
0-9扉体
6
CONTINUOUS
62
3
100
AcDbLine
10
1293.663000000000
20
2286.647000000000
30
0.0
11
1578.227000000000
21
2286.647000000000
31
0.0
0
LINE
5
67b
100
AcDbEntity
8
0-9扉体
6
CONTINUOUS
62
3
100
AcDbLine
10
1584.663000000000
20
2286.647000000000
30
0.0
11
1622.663000000000
21
2286.647000000000
31
0.0
0
LINE
5
67c
100
AcDbEntity
8
0-9扉体
6
CONTINUOUS
62
6
100
AcDbLine
10
1157.203000000000
20
2272.647000000000
30
0.0
11
1177.203000000000
21
2292.647000000000
31
0.0
0
LINE
5
67d
100
AcDbEntity
8
0-9扉体
6
CONTINUOUS
62
6
100
AcDbLine
10
1155.788000000000
20
2272.647000000000
30
0.0
11
1175.788000000000
21
2292.647000000000
31
0.0
0
LINE
5
67e
100
AcDbEntity
8
0-9扉体
6
CONTINUOUS
62
6
100
AcDbLine
10
1044.065000000000
20
2272.647000000000
30
0.0
11
1064.065000000000
21
2292.647000000000
31
0.0
0
LINE
5
67f
100
AcDbEntity
8
0-9扉体
6
CONTINUOUS
62
6
100
AcDbLine
10
1042.651000000000
20
2272.647000000000
30
0.0
11
1062.651000000000
21
2292.647000000000
31
0.0
0
LINE
5
680
100
AcDbEntity
8
0-6戸当り
6
CONTINUOUS
62
2
100
AcDbLine
10
1064.663000000000
20
2227.647000000000
30
0.0
11
1064.663000000000
21
2292.647000000000
31
0.0
0
LINE
5
681
100
AcDbEntity
8
0-6戸当り
6
CONTINUOUS
62
2
100
AcDbLine
10
1102.663000000000
20
2227.647000000000
30
0.0
11
1102.663000000000
21
2292.647000000000
31
0.0
0
LINE
5
682
100
AcDbEntity
8
0-9扉体
6
CONTINUOUS
62
6
100
AcDbLine
10
1060.293000000000
20
2276.147000000000
30
0.0
11
1064.663000000000
21
2280.516000000000
31
0.0
0
LINE
5
683
100
AcDbEntity
8
0-9扉体
6
CONTINUOUS
62
6
100
AcDbLine
10
1061.707000000000
20
2276.147000000000
30
0.0
11
1064.663000000000
21
2279.103000000000
31
0.0
0
LINE
5
684
100
AcDbEntity
8
0-9扉体
6
CONTINUOUS
62
6
100
AcDbLine
10
1102.663000000000
20
2290.232000000000
30
0.0
11
1105.078000000000
21
2292.647000000000
31
0.0
0
LINE
5
685
100
AcDbEntity
8
0-9扉体
6
CONTINUOUS
62
6
100
AcDbLine
10
1102.663000000000
20
2288.818000000000
30
0.0
11
1106.492000000000
21
2292.647000000000
31
0.0
0
LINE
5
686
100
AcDbEntity
8
0-9扉体
6
CONTINUOUS
62
6
100
AcDbLine
10
1102.720000000000
20
2276.147000000000
30
0.0
11
1119.220000000000
21
2292.647000000000
31
0.0
0
LINE
5
687
100
AcDbEntity
8
0-9扉体
6
CONTINUOUS
62
6
100
AcDbLine
10
1104.134000000000
20
2276.147000000000
30
0.0
11
1120.634000000000
21
2292.647000000000
31
0.0
0
LINE
5
688
100
AcDbEntity
8
0-6戸当り
6
CONTINUOUS
62
3
100
AcDbLine
10
1005.663000000000
20
2290.247000000000
30
0.0
11
1031.663000000000
21
2290.247000000000
31
0.0
0
LINE
5
689
100
AcDbEntity
8
0-6戸当り
6
CONTINUOUS
62
2
100
AcDbLine
10
1005.663000000000
20
2290.247000000000
30
0.0
11
1005.663000000000
21
2292.647000000000
31
0.0
0
LINE
5
68a
100
AcDbEntity
8
0-6戸当り
6
CONTINUOUS
62
2
100
AcDbLine
10
1031.663000000000
20
2290.247000000000
30
0.0
11
1031.663000000000
21
2292.647000000000
31
0.0
0
LINE
5
68b
100
AcDbEntity
8
0-9扉体
6
CONTINUOUS
62
4
100
AcDbLine
10
938.663000000000
20
2266.647000000000
30
0.0
11
938.663000000000
21
2272.647000000000
31
0.0
0
LINE
5
68c
100
AcDbEntity
8
0-9扉体
6
CONTINUOUS
62
6
100
AcDbLine
10
973.354000000000
20
2272.647000000000
30
0.0
11
993.354000000000
21
2292.647000000000
31
0.0
0
LINE
5
68d
100
AcDbEntity
8
0-9扉体
6
CONTINUOUS
62
6
100
AcDbLine
10
972.068000000000
20
2272.775000000000
30
0.0
11
991.940000000000
21
2292.647000000000
31
0.0
0
LINE
5
68e
100
AcDbEntity
8
0-9扉体
6
CONTINUOUS
62
6
100
AcDbLine
10
1171.345000000000
20
2272.647000000000
30
0.0
11
1191.345000000000
21
2292.647000000000
31
0.0
0
LINE
5
68f
100
AcDbEntity
8
0-9扉体
6
CONTINUOUS
62
6
100
AcDbLine
10
1169.931000000000
20
2272.647000000000
30
0.0
11
1189.931000000000
21
2292.647000000000
31
0.0
0
LINE
5
690
100
AcDbEntity
8
0-9扉体
6
CONTINUOUS
62
6
100
AcDbLine
10
1185.487000000000
20
2272.647000000000
30
0.0
11
1205.487000000000
21
2292.647000000000
31
0.0
0
LINE
5
691
100
AcDbEntity
8
0-9扉体
6
CONTINUOUS
62
6
100
AcDbLine
10
1184.073000000000
20
2272.647000000000
30
0.0
11
1204.073000000000
21
2292.647000000000
31
0.0
0
LINE
5
692
100
AcDbEntity
8
0-9扉体
6
CONTINUOUS
62
6
100
AcDbLine
10
1199.630000000000
20
2272.647000000000
30
0.0
11
1219.630000000000
21
2292.647000000000
31
0.0
0
LINE
5
693
100
AcDbEntity
8
0-9扉体
6
CONTINUOUS
62
6
100
AcDbLine
10
1198.215000000000
20
2272.647000000000
30
0.0
11
1218.215000000000
21
2292.647000000000
31
0.0
0
LINE
5
694
100
AcDbEntity
8
0-9扉体
6
CONTINUOUS
62
4
100
AcDbLine
10
1127.163000000000
20
2266.647000000000
30
0.0
11
1648.663000000000
21
2266.647000000000
31
0.0
0
LINE
5
695
100
AcDbEntity
8
0-9扉体
6
CONTINUOUS
62
6
100
AcDbLine
10
957.798000000000
20
2272.647000000000
30
0.0
11
977.798000000000
21
2292.647000000000
31
0.0
0
LINE
5
696
100
AcDbEntity
8
0-9扉体
6
CONTINUOUS
62
6
100
AcDbLine
10
959.212000000000
20
2272.647000000000
30
0.0
11
979.212000000000
21
2292.647000000000
31
0.0
0
LINE
5
697
100
AcDbEntity
8
0-9扉体
6
CONTINUOUS
62
6
100
AcDbLine
10
946.589000000000
20
2275.580000000000
30
0.0
11
963.656000000000
21
2292.647000000000
31
0.0
0
LINE
5
698
100
AcDbEntity
8
0-9扉体
6
CONTINUOUS
62
6
100
AcDbLine
10
947.331000000000
20
2274.908000000000
30
0.0
11
965.070000000000
21
2292.647000000000
31
0.0
0
LINE
5
699
100
AcDbEntity
8
0-9扉体
6
CONTINUOUS
62
6
100
AcDbLine
10
944.220000000000
20
2285.940000000000
30
0.0
11
950.370000000000
21
2292.090000000000
31
0.0
0
LINE
5
69a
100
AcDbEntity
8
0-8寸法
6
CONTINUOUS
62
4
100
AcDbLine
10
2612.576000000000
20
985.188000000000
30
0.0
11
2473.679000000000
21
985.188000000000
31
0.0
0
LINE
5
69b
100
AcDbEntity
8
0-6戸当り
6
CONTINUOUS
62
3
100
AcDbLine
10
1293.663000000000
20
664.987000000000
30
0.0
11
1302.150000000000
21
660.087000000000
31
0.0
0
LINE
5
69c
100
AcDbEntity
8
0-6戸当り
6
CONTINUOUS
62
3
100
AcDbLine
10
1293.663000000000
20
645.387000000000
30
0.0
11
1302.150000000000
21
650.287000000000
31
0.0
0
LINE
5
69d
100
AcDbEntity
8
0-6戸当り
6
CONTINUOUS
62
3
100
AcDbLine
10
1302.150000000000
20
660.087000000000
30
0.0
11
1302.150000000000
21
650.287000000000
31
0.0
0
LINE
5
69e
100
AcDbEntity
8
0-6戸当り
6
CONTINUOUS
62
3
100
AcDbLine
10
1293.663000000000
20
645.387000000000
30
0.0
11
1285.176000000000
21
650.287000000000
31
0.0
0
LINE
5
69f
100
AcDbEntity
8
0-6戸当り
6
CONTINUOUS
62
3
100
AcDbLine
10
1293.663000000000
20
664.987000000000
30
0.0
11
1285.176000000000
21
660.087000000000
31
0.0
0
LINE
5
6a0
100
AcDbEntity
8
0-6戸当り
6
CONTINUOUS
62
3
100
AcDbLine
10
1285.176000000000
20
650.287000000000
30
0.0
11
1285.176000000000
21
660.087000000000
31
0.0
0
LINE
5
6a1
100
AcDbEntity
8
0-5基準線
6
CENTER2
62
7
100
AcDbLine
10
1293.663000000000
20
640.187000000000
30
0.0
11
1293.663000000000
21
670.187000000000
31
0.0
0
LINE
5
6a2
100
AcDbEntity
8
0-5基準線
6
CENTER2
62
7
100
AcDbLine
10
1308.663000000000
20
655.187000000000
30
0.0
11
1278.663000000000
21
655.187000000000
31
0.0
0
LINE
5
6a3
100
AcDbEntity
8
0-6戸当り
6
CONTINUOUS
62
3
100
AcDbLine
10
1493.663000000000
20
664.987000000000
30
0.0
11
1502.150000000000
21
660.087000000000
31
0.0
0
LINE
5
6a4
100
AcDbEntity
8
0-6戸当り
6
CONTINUOUS
62
3
100
AcDbLine
10
1493.663000000000
20
645.387000000000
30
0.0
11
1502.150000000000
21
650.287000000000
31
0.0
0
LINE
5
6a5
100
AcDbEntity
8
0-6戸当り
6
CONTINUOUS
62
3
100
AcDbLine
10
1502.150000000000
20
660.087000000000
30
0.0
11
1502.150000000000
21
650.287000000000
31
0.0
0
LINE
5
6a6
100
AcDbEntity
8
0-6戸当り
6
CONTINUOUS
62
3
100
AcDbLine
10
1493.663000000000
20
645.387000000000
30
0.0
11
1485.176000000000
21
650.287000000000
31
0.0
0
LINE
5
6a7
100
AcDbEntity
8
0-6戸当り
6
CONTINUOUS
62
3
100
AcDbLine
10
1493.663000000000
20
664.987000000000
30
0.0
11
1485.176000000000
21
660.087000000000
31
0.0
0
LINE
5
6a8
100
AcDbEntity
8
0-6戸当り
6
CONTINUOUS
62
3
100
AcDbLine
10
1485.176000000000
20
650.287000000000
30
0.0
11
1485.176000000000
21
660.087000000000
31
0.0
0
LINE
5
6a9
100
AcDbEntity
8
0-5基準線
6
CENTER2
62
7
100
AcDbLine
10
1493.663000000000
20
640.187000000000
30
0.0
11
1493.663000000000
21
670.187000000000
31
0.0
0
LINE
5
6aa
100
AcDbEntity
8
0-5基準線
6
CENTER2
62
7
100
AcDbLine
10
1508.663000000000
20
655.187000000000
30
0.0
11
1478.663000000000
21
655.187000000000
31
0.0
0
LINE
5
6ab
100
AcDbEntity
8
0-8寸法
6
CONTINUOUS
62
4
100
AcDbLine
10
913.663000000000
20
385.188000000000
30
0.0
11
1093.663000000000
21
385.188000000000
31
0.0
0
LINE
5
6ac
100
AcDbEntity
8
0-8寸法
6
CONTINUOUS
62
4
100
AcDbLine
10
913.663000000000
20
623.958000000000
30
0.0
11
913.663000000000
21
375.188000000000
31
0.0
0
LINE
5
6ad
100
AcDbEntity
8
0-8寸法
6
CONTINUOUS
62
4
100
AcDbLine
10
1093.663000000000
20
623.958000000000
30
0.0
11
1093.663000000000
21
375.188000000000
31
0.0
0
LINE
5
6ae
100
AcDbEntity
8
0-8寸法
6
CONTINUOUS
62
4
100
AcDbLine
10
913.663000000000
20
385.188000000000
30
0.0
11
932.981000000000
21
390.364000000000
31
0.0
0
LINE
5
6af
100
AcDbEntity
8
0-8寸法
6
CONTINUOUS
62
4
100
AcDbLine
10
913.663000000000
20
385.188000000000
30
0.0
11
932.981000000000
21
380.011000000000
31
0.0
0
LINE
5
6b0
100
AcDbEntity
8
0-8寸法
6
CONTINUOUS
62
4
100
AcDbLine
10
1093.663000000000
20
385.188000000000
30
0.0
11
1074.344000000000
21
390.364000000000
31
0.0
0
LINE
5
6b1
100
AcDbEntity
8
0-8寸法
6
CONTINUOUS
62
4
100
AcDbLine
10
1093.663000000000
20
385.188000000000
30
0.0
11
1074.344000000000
21
380.011000000000
31
0.0
0
LINE
5
6b2
100
AcDbEntity
8
0-8寸法
6
CONTINUOUS
62
4
100
AcDbLine
10
1093.663000000000
20
385.188000000000
30
0.0
11
1493.663000000000
21
385.188000000000
31
0.0
0
LINE
5
6b3
100
AcDbEntity
8
0-8寸法
6
CONTINUOUS
62
4
100
AcDbLine
10
1493.663000000000
20
623.958000000000
30
0.0
11
1493.663000000000
21
375.188000000000
31
0.0
0
LINE
5
6b4
100
AcDbEntity
8
0-8寸法
6
CONTINUOUS
62
4
100
AcDbLine
10
1093.663000000000
20
385.188000000000
30
0.0
11
1112.981000000000
21
390.364000000000
31
0.0
0
LINE
5
6b5
100
AcDbEntity
8
0-8寸法
6
CONTINUOUS
62
4
100
AcDbLine
10
1093.663000000000
20
385.188000000000
30
0.0
11
1112.981000000000
21
380.011000000000
31
0.0
0
LINE
5
6b6
100
AcDbEntity
8
0-8寸法
6
CONTINUOUS
62
4
100
AcDbLine
10
1493.663000000000
20
385.188000000000
30
0.0
11
1474.344000000000
21
390.364000000000
31
0.0
0
LINE
5
6b7
100
AcDbEntity
8
0-8寸法
6
CONTINUOUS
62
4
100
AcDbLine
10
1493.663000000000
20
385.188000000000
30
0.0
11
1474.344000000000
21
380.011000000000
31
0.0
0
LINE
5
6b8
100
AcDbEntity
8
0-8寸法
6
CONTINUOUS
62
4
100
AcDbLine
10
1493.663000000000
20
385.188000000000
30
0.0
11
1673.663000000000
21
385.188000000000
31
0.0
0
LINE
5
6b9
100
AcDbEntity
8
0-8寸法
6
CONTINUOUS
62
4
100
AcDbLine
10
1673.663000000000
20
623.958000000000
30
0.0
11
1673.663000000000
21
375.188000000000
31
0.0
0
LINE
5
6ba
100
AcDbEntity
8
0-8寸法
6
CONTINUOUS
62
4
100
AcDbLine
10
1493.663000000000
20
385.188000000000
30
0.0
11
1512.981000000000
21
390.364000000000
31
0.0
0
LINE
5
6bb
100
AcDbEntity
8
0-8寸法
6
CONTINUOUS
62
4
100
AcDbLine
10
1493.663000000000
20
385.188000000000
30
0.0
11
1512.981000000000
21
380.011000000000
31
0.0
0
LINE
5
6bc
100
AcDbEntity
8
0-8寸法
6
CONTINUOUS
62
4
100
AcDbLine
10
1673.663000000000
20
385.188000000000
30
0.0
11
1654.344000000000
21
390.364000000000
31
0.0
0
LINE
5
6bd
100
AcDbEntity
8
0-8寸法
6
CONTINUOUS
62
4
100
AcDbLine
10
1673.663000000000
20
385.188000000000
30
0.0
11
1654.344000000000
21
380.011000000000
31
0.0
0
LINE
5
6be
100
AcDbEntity
8
0-6戸当り
6
CONTINUOUS
62
3
100
AcDbLine
10
913.663000000000
20
1244.987000000000
30
0.0
11
922.150000000000
21
1240.087000000000
31
0.0
0
LINE
5
6bf
100
AcDbEntity
8
0-6戸当り
6
CONTINUOUS
62
3
100
AcDbLine
10
913.663000000000
20
1225.388000000000
30
0.0
11
922.150000000000
21
1230.288000000000
31
0.0
0
LINE
5
6c0
100
AcDbEntity
8
0-6戸当り
6
CONTINUOUS
62
3
100
AcDbLine
10
922.150000000000
20
1240.087000000000
30
0.0
11
922.150000000000
21
1230.288000000000
31
0.0
0
LINE
5
6c1
100
AcDbEntity
8
0-6戸当り
6
CONTINUOUS
62
3
100
AcDbLine
10
913.663000000000
20
1225.388000000000
30
0.0
11
905.176000000000
21
1230.288000000000
31
0.0
0
LINE
5
6c2
100
AcDbEntity
8
0-6戸当り
6
CONTINUOUS
62
3
100
AcDbLine
10
913.663000000000
20
1244.987000000000
30
0.0
11
905.176000000000
21
1240.087000000000
31
0.0
0
LINE
5
6c3
100
AcDbEntity
8
0-6戸当り
6
CONTINUOUS
62
3
100
AcDbLine
10
905.176000000000
20
1230.288000000000
30
0.0
11
905.176000000000
21
1240.087000000000
31
0.0
0
LINE
5
6c4
100
AcDbEntity
8
0-5基準線
6
CENTER2
62
7
100
AcDbLine
10
913.663000000000
20
1220.188000000000
30
0.0
11
913.663000000000
21
1250.187000000000
31
0.0
0
LINE
5
6c5
100
AcDbEntity
8
0-5基準線
6
CENTER2
62
7
100
AcDbLine
10
928.663000000000
20
1235.188000000000
30
0.0
11
898.663000000000
21
1235.188000000000
31
0.0
0
LINE
5
6c6
100
AcDbEntity
8
0-6戸当り
6
CONTINUOUS
62
3
100
AcDbLine
10
913.663000000000
20
1044.987000000000
30
0.0
11
922.150000000000
21
1040.087000000000
31
0.0
0
LINE
5
6c7
100
AcDbEntity
8
0-6戸当り
6
CONTINUOUS
62
3
100
AcDbLine
10
913.663000000000
20
1025.388000000000
30
0.0
11
922.150000000000
21
1030.288000000000
31
0.0
0
LINE
5
6c8
100
AcDbEntity
8
0-6戸当り
6
CONTINUOUS
62
3
100
AcDbLine
10
922.150000000000
20
1040.087000000000
30
0.0
11
922.150000000000
21
1030.288000000000
31
0.0
0
LINE
5
6c9
100
AcDbEntity
8
0-6戸当り
6
CONTINUOUS
62
3
100
AcDbLine
10
913.663000000000
20
1025.388000000000
30
0.0
11
905.176000000000
21
1030.288000000000
31
0.0
0
LINE
5
6ca
100
AcDbEntity
8
0-6戸当り
6
CONTINUOUS
62
3
100
AcDbLine
10
913.663000000000
20
1044.987000000000
30
0.0
11
905.176000000000
21
1040.087000000000
31
0.0
0
LINE
5
6cb
100
AcDbEntity
8
0-6戸当り
6
CONTINUOUS
62
3
100
AcDbLine
10
905.176000000000
20
1030.288000000000
30
0.0
11
905.176000000000
21
1040.087000000000
31
0.0
0
LINE
5
6cc
100
AcDbEntity
8
0-5基準線
6
CENTER2
62
7
100
AcDbLine
10
913.663000000000
20
1020.188000000000
30
0.0
11
913.663000000000
21
1050.187000000000
31
0.0
0
LINE
5
6cd
100
AcDbEntity
8
0-5基準線
6
CENTER2
62
7
100
AcDbLine
10
928.663000000000
20
1035.188000000000
30
0.0
11
898.663000000000
21
1035.188000000000
31
0.0
0
LINE
5
6ce
100
AcDbEntity
8
0-6戸当り
6
CONTINUOUS
62
3
100
AcDbLine
10
913.663000000000
20
844.988000000000
30
0.0
11
922.150000000000
21
840.087000000000
31
0.0
0
LINE
5
6cf
100
AcDbEntity
8
0-6戸当り
6
CONTINUOUS
62
3
100
AcDbLine
10
913.663000000000
20
825.388000000000
30
0.0
11
922.150000000000
21
830.288000000000
31
0.0
0
LINE
5
6d0
100
AcDbEntity
8
0-6戸当り
6
CONTINUOUS
62
3
100
AcDbLine
10
922.150000000000
20
840.087000000000
30
0.0
11
922.150000000000
21
830.288000000000
31
0.0
0
LINE
5
6d1
100
AcDbEntity
8
0-6戸当り
6
CONTINUOUS
62
3
100
AcDbLine
10
913.663000000000
20
825.388000000000
30
0.0
11
905.176000000000
21
830.288000000000
31
0.0
0
LINE
5
6d2
100
AcDbEntity
8
0-6戸当り
6
CONTINUOUS
62
3
100
AcDbLine
10
913.663000000000
20
844.988000000000
30
0.0
11
905.176000000000
21
840.087000000000
31
0.0
0
LINE
5
6d3
100
AcDbEntity
8
0-6戸当り
6
CONTINUOUS
62
3
100
AcDbLine
10
905.176000000000
20
830.288000000000
30
0.0
11
905.176000000000
21
840.087000000000
31
0.0
0
LINE
5
6d4
100
AcDbEntity
8
0-5基準線
6
CENTER2
62
7
100
AcDbLine
10
913.663000000000
20
820.188000000000
30
0.0
11
913.663000000000
21
850.187000000000
31
0.0
0
LINE
5
6d5
100
AcDbEntity
8
0-5基準線
6
CENTER2
62
7
100
AcDbLine
10
928.663000000000
20
835.188000000000
30
0.0
11
898.663000000000
21
835.188000000000
31
0.0
0
LINE
5
6d6
100
AcDbEntity
8
0-6戸当り
6
CONTINUOUS
62
3
100
AcDbLine
10
1673.663000000000
20
1244.987000000000
30
0.0
11
1665.176000000000
21
1240.087000000000
31
0.0
0
LINE
5
6d7
100
AcDbEntity
8
0-6戸当り
6
CONTINUOUS
62
3
100
AcDbLine
10
1673.663000000000
20
1225.388000000000
30
0.0
11
1665.176000000000
21
1230.288000000000
31
0.0
0
LINE
5
6d8
100
AcDbEntity
8
0-6戸当り
6
CONTINUOUS
62
3
100
AcDbLine
10
1665.176000000000
20
1240.087000000000
30
0.0
11
1665.176000000000
21
1230.288000000000
31
0.0
0
LINE
5
6d9
100
AcDbEntity
8
0-6戸当り
6
CONTINUOUS
62
3
100
AcDbLine
10
1673.663000000000
20
1225.388000000000
30
0.0
11
1682.150000000000
21
1230.288000000000
31
0.0
0
LINE
5
6da
100
AcDbEntity
8
0-6戸当り
6
CONTINUOUS
62
3
100
AcDbLine
10
1673.663000000000
20
1244.987000000000
30
0.0
11
1682.150000000000
21
1240.087000000000
31
0.0
0
LINE
5
6db
100
AcDbEntity
8
0-6戸当り
6
CONTINUOUS
62
3
100
AcDbLine
10
1682.150000000000
20
1230.288000000000
30
0.0
11
1682.150000000000
21
1240.087000000000
31
0.0
0
LINE
5
6dc
100
AcDbEntity
8
0-5基準線
6
CENTER2
62
7
100
AcDbLine
10
1673.663000000000
20
1220.188000000000
30
0.0
11
1673.663000000000
21
1250.187000000000
31
0.0
0
LINE
5
6dd
100
AcDbEntity
8
0-5基準線
6
CENTER2
62
7
100
AcDbLine
10
1658.663000000000
20
1235.188000000000
30
0.0
11
1688.663000000000
21
1235.188000000000
31
0.0
0
LINE
5
6de
100
AcDbEntity
8
0-6戸当り
6
CONTINUOUS
62
3
100
AcDbLine
10
1673.663000000000
20
1044.987000000000
30
0.0
11
1665.176000000000
21
1040.087000000000
31
0.0
0
LINE
5
6df
100
AcDbEntity
8
0-6戸当り
6
CONTINUOUS
62
3
100
AcDbLine
10
1673.663000000000
20
1025.388000000000
30
0.0
11
1665.176000000000
21
1030.288000000000
31
0.0
0
LINE
5
6e0
100
AcDbEntity
8
0-6戸当り
6
CONTINUOUS
62
3
100
AcDbLine
10
1665.176000000000
20
1040.087000000000
30
0.0
11
1665.176000000000
21
1030.288000000000
31
0.0
0
LINE
5
6e1
100
AcDbEntity
8
0-6戸当り
6
CONTINUOUS
62
3
100
AcDbLine
10
1673.663000000000
20
1025.388000000000
30
0.0
11
1682.150000000000
21
1030.288000000000
31
0.0
0
LINE
5
6e2
100
AcDbEntity
8
0-6戸当り
6
CONTINUOUS
62
3
100
AcDbLine
10
1673.663000000000
20
1044.987000000000
30
0.0
11
1682.150000000000
21
1040.087000000000
31
0.0
0
LINE
5
6e3
100
AcDbEntity
8
0-6戸当り
6
CONTINUOUS
62
3
100
AcDbLine
10
1682.150000000000
20
1030.288000000000
30
0.0
11
1682.150000000000
21
1040.087000000000
31
0.0
0
LINE
5
6e4
100
AcDbEntity
8
0-5基準線
6
CENTER2
62
7
100
AcDbLine
10
1673.663000000000
20
1020.188000000000
30
0.0
11
1673.663000000000
21
1050.187000000000
31
0.0
0
LINE
5
6e5
100
AcDbEntity
8
0-5基準線
6
CENTER2
62
7
100
AcDbLine
10
1658.663000000000
20
1035.188000000000
30
0.0
11
1688.663000000000
21
1035.188000000000
31
0.0
0
LINE
5
6e6
100
AcDbEntity
8
0-6戸当り
6
CONTINUOUS
62
3
100
AcDbLine
10
1673.663000000000
20
844.988000000000
30
0.0
11
1665.176000000000
21
840.087000000000
31
0.0
0
LINE
5
6e7
100
AcDbEntity
8
0-6戸当り
6
CONTINUOUS
62
3
100
AcDbLine
10
1673.663000000000
20
825.388000000000
30
0.0
11
1665.176000000000
21
830.288000000000
31
0.0
0
LINE
5
6e8
100
AcDbEntity
8
0-6戸当り
6
CONTINUOUS
62
3
100
AcDbLine
10
1665.176000000000
20
840.087000000000
30
0.0
11
1665.176000000000
21
830.288000000000
31
0.0
0
LINE
5
6e9
100
AcDbEntity
8
0-6戸当り
6
CONTINUOUS
62
3
100
AcDbLine
10
1673.663000000000
20
825.388000000000
30
0.0
11
1682.150000000000
21
830.288000000000
31
0.0
0
LINE
5
6ea
100
AcDbEntity
8
0-6戸当り
6
CONTINUOUS
62
3
100
AcDbLine
10
1673.663000000000
20
844.988000000000
30
0.0
11
1682.150000000000
21
840.087000000000
31
0.0
0
LINE
5
6eb
100
AcDbEntity
8
0-6戸当り
6
CONTINUOUS
62
3
100
AcDbLine
10
1682.150000000000
20
830.288000000000
30
0.0
11
1682.150000000000
21
840.087000000000
31
0.0
0
LINE
5
6ec
100
AcDbEntity
8
0-5基準線
6
CENTER2
62
7
100
AcDbLine
10
1673.663000000000
20
820.188000000000
30
0.0
11
1673.663000000000
21
850.187000000000
31
0.0
0
LINE
5
6ed
100
AcDbEntity
8
0-5基準線
6
CENTER2
62
7
100
AcDbLine
10
1658.663000000000
20
835.188000000000
30
0.0
11
1688.663000000000
21
835.188000000000
31
0.0
0
LINE
5
6ee
100
AcDbEntity
8
0-6戸当り
6
CONTINUOUS
62
3
100
AcDbLine
10
993.663000000000
20
1424.987000000000
30
0.0
11
1002.150000000000
21
1420.087000000000
31
0.0
0
LINE
5
6ef
100
AcDbEntity
8
0-6戸当り
6
CONTINUOUS
62
3
100
AcDbLine
10
993.663000000000
20
1405.388000000000
30
0.0
11
1002.150000000000
21
1410.288000000000
31
0.0
0
LINE
5
6f0
100
AcDbEntity
8
0-6戸当り
6
CONTINUOUS
62
3
100
AcDbLine
10
1002.150000000000
20
1420.087000000000
30
0.0
11
1002.150000000000
21
1410.288000000000
31
0.0
0
LINE
5
6f1
100
AcDbEntity
8
0-6戸当り
6
CONTINUOUS
62
3
100
AcDbLine
10
993.663000000000
20
1405.388000000000
30
0.0
11
985.176000000000
21
1410.288000000000
31
0.0
0
LINE
5
6f2
100
AcDbEntity
8
0-6戸当り
6
CONTINUOUS
62
3
100
AcDbLine
10
993.663000000000
20
1424.987000000000
30
0.0
11
985.176000000000
21
1420.087000000000
31
0.0
0
LINE
5
6f3
100
AcDbEntity
8
0-6戸当り
6
CONTINUOUS
62
3
100
AcDbLine
10
985.176000000000
20
1410.288000000000
30
0.0
11
985.176000000000
21
1420.087000000000
31
0.0
0
LINE
5
6f4
100
AcDbEntity
8
0-5基準線
6
CENTER2
62
7
100
AcDbLine
10
993.663000000000
20
1400.188000000000
30
0.0
11
993.663000000000
21
1430.187000000000
31
0.0
0
LINE
5
6f5
100
AcDbEntity
8
0-5基準線
6
CENTER2
62
7
100
AcDbLine
10
1008.663000000000
20
1415.187000000000
30
0.0
11
978.663000000000
21
1415.187000000000
31
0.0
0
LINE
5
6f6
100
AcDbEntity
8
0-6戸当り
6
CONTINUOUS
62
3
100
AcDbLine
10
1193.663000000000
20
1424.987000000000
30
0.0
11
1202.150000000000
21
1420.087000000000
31
0.0
0
LINE
5
6f7
100
AcDbEntity
8
0-6戸当り
6
CONTINUOUS
62
3
100
AcDbLine
10
1193.663000000000
20
1405.388000000000
30
0.0
11
1202.150000000000
21
1410.288000000000
31
0.0
0
LINE
5
6f8
100
AcDbEntity
8
0-6戸当り
6
CONTINUOUS
62
3
100
AcDbLine
10
1202.150000000000
20
1420.087000000000
30
0.0
11
1202.150000000000
21
1410.288000000000
31
0.0
0
LINE
5
6f9
100
AcDbEntity
8
0-6戸当り
6
CONTINUOUS
62
3
100
AcDbLine
10
1193.663000000000
20
1405.388000000000
30
0.0
11
1185.176000000000
21
1410.288000000000
31
0.0
0
LINE
5
6fa
100
AcDbEntity
8
0-6戸当り
6
CONTINUOUS
62
3
100
AcDbLine
10
1193.663000000000
20
1424.987000000000
30
0.0
11
1185.176000000000
21
1420.087000000000
31
0.0
0
LINE
5
6fb
100
AcDbEntity
8
0-6戸当り
6
CONTINUOUS
62
3
100
AcDbLine
10
1185.176000000000
20
1410.288000000000
30
0.0
11
1185.176000000000
21
1420.087000000000
31
0.0
0
LINE
5
6fc
100
AcDbEntity
8
0-5基準線
6
CENTER2
62
7
100
AcDbLine
10
1193.663000000000
20
1400.188000000000
30
0.0
11
1193.663000000000
21
1430.187000000000
31
0.0
0
LINE
5
6fd
100
AcDbEntity
8
0-5基準線
6
CENTER2
62
7
100
AcDbLine
10
1208.663000000000
20
1415.187000000000
30
0.0
11
1178.663000000000
21
1415.187000000000
31
0.0
0
LINE
5
6fe
100
AcDbEntity
8
0-6戸当り
6
CONTINUOUS
62
3
100
AcDbLine
10
1393.663000000000
20
1424.987000000000
30
0.0
11
1402.150000000000
21
1420.087000000000
31
0.0
0
LINE
5
6ff
100
AcDbEntity
8
0-6戸当り
6
CONTINUOUS
62
3
100
AcDbLine
10
1393.663000000000
20
1405.388000000000
30
0.0
11
1402.150000000000
21
1410.288000000000
31
0.0
0
LINE
5
700
100
AcDbEntity
8
0-6戸当り
6
CONTINUOUS
62
3
100
AcDbLine
10
1402.150000000000
20
1420.087000000000
30
0.0
11
1402.150000000000
21
1410.288000000000
31
0.0
0
LINE
5
701
100
AcDbEntity
8
0-6戸当り
6
CONTINUOUS
62
3
100
AcDbLine
10
1393.663000000000
20
1405.388000000000
30
0.0
11
1385.176000000000
21
1410.288000000000
31
0.0
0
LINE
5
702
100
AcDbEntity
8
0-6戸当り
6
CONTINUOUS
62
3
100
AcDbLine
10
1393.663000000000
20
1424.987000000000
30
0.0
11
1385.176000000000
21
1420.087000000000
31
0.0
0
LINE
5
703
100
AcDbEntity
8
0-6戸当り
6
CONTINUOUS
62
3
100
AcDbLine
10
1385.176000000000
20
1410.288000000000
30
0.0
11
1385.176000000000
21
1420.087000000000
31
0.0
0
LINE
5
704
100
AcDbEntity
8
0-5基準線
6
CENTER2
62
7
100
AcDbLine
10
1393.663000000000
20
1400.188000000000
30
0.0
11
1393.663000000000
21
1430.187000000000
31
0.0
0
LINE
5
705
100
AcDbEntity
8
0-5基準線
6
CENTER2
62
7
100
AcDbLine
10
1408.663000000000
20
1415.187000000000
30
0.0
11
1378.663000000000
21
1415.187000000000
31
0.0
0
LINE
5
706
100
AcDbEntity
8
0-6戸当り
6
CONTINUOUS
62
3
100
AcDbLine
10
1593.663000000000
20
1424.987000000000
30
0.0
11
1602.150000000000
21
1420.087000000000
31
0.0
0
LINE
5
707
100
AcDbEntity
8
0-6戸当り
6
CONTINUOUS
62
3
100
AcDbLine
10
1593.663000000000
20
1405.388000000000
30
0.0
11
1602.150000000000
21
1410.288000000000
31
0.0
0
LINE
5
708
100
AcDbEntity
8
0-6戸当り
6
CONTINUOUS
62
3
100
AcDbLine
10
1602.150000000000
20
1420.087000000000
30
0.0
11
1602.150000000000
21
1410.288000000000
31
0.0
0
LINE
5
709
100
AcDbEntity
8
0-6戸当り
6
CONTINUOUS
62
3
100
AcDbLine
10
1593.663000000000
20
1405.388000000000
30
0.0
11
1585.176000000000
21
1410.288000000000
31
0.0
0
LINE
5
70a
100
AcDbEntity
8
0-6戸当り
6
CONTINUOUS
62
3
100
AcDbLine
10
1593.663000000000
20
1424.987000000000
30
0.0
11
1585.176000000000
21
1420.087000000000
31
0.0
0
LINE
5
70b
100
AcDbEntity
8
0-6戸当り
6
CONTINUOUS
62
3
100
AcDbLine
10
1585.176000000000
20
1410.288000000000
30
0.0
11
1585.176000000000
21
1420.087000000000
31
0.0
0
LINE
5
70c
100
AcDbEntity
8
0-5基準線
6
CENTER2
62
7
100
AcDbLine
10
1593.663000000000
20
1400.188000000000
30
0.0
11
1593.663000000000
21
1430.187000000000
31
0.0
0
LINE
5
70d
100
AcDbEntity
8
0-5基準線
6
CENTER2
62
7
100
AcDbLine
10
1608.663000000000
20
1415.187000000000
30
0.0
11
1578.663000000000
21
1415.187000000000
31
0.0
0
LINE
5
70e
100
AcDbEntity
8
0-8寸法
6
CONTINUOUS
62
4
100
AcDbLine
10
643.663000000000
20
655.187000000000
30
0.0
11
643.663000000000
21
835.188000000000
31
0.0
0
LINE
5
70f
100
AcDbEntity
8
0-8寸法
6
CONTINUOUS
62
4
100
AcDbLine
10
869.895000000000
20
835.188000000000
30
0.0
11
633.663000000000
21
835.188000000000
31
0.0
0
LINE
5
710
100
AcDbEntity
8
0-8寸法
6
CONTINUOUS
62
4
100
AcDbLine
10
643.663000000000
20
655.187000000000
30
0.0
11
638.486000000000
21
674.506000000000
31
0.0
0
LINE
5
711
100
AcDbEntity
8
0-8寸法
6
CONTINUOUS
62
4
100
AcDbLine
10
643.663000000000
20
655.187000000000
30
0.0
11
648.839000000000
21
674.506000000000
31
0.0
0
LINE
5
712
100
AcDbEntity
8
0-8寸法
6
CONTINUOUS
62
4
100
AcDbLine
10
643.663000000000
20
835.188000000000
30
0.0
11
638.486000000000
21
815.869000000000
31
0.0
0
LINE
5
713
100
AcDbEntity
8
0-8寸法
6
CONTINUOUS
62
4
100
AcDbLine
10
643.663000000000
20
835.188000000000
30
0.0
11
648.839000000000
21
815.869000000000
31
0.0
0
LINE
5
714
100
AcDbEntity
8
0-8寸法
6
CONTINUOUS
62
4
100
AcDbLine
10
643.663000000000
20
835.188000000000
30
0.0
11
643.663000000000
21
1235.188000000000
31
0.0
0
LINE
5
715
100
AcDbEntity
8
0-8寸法
6
CONTINUOUS
62
4
100
AcDbLine
10
869.895000000000
20
1235.188000000000
30
0.0
11
633.663000000000
21
1235.188000000000
31
0.0
0
LINE
5
716
100
AcDbEntity
8
0-8寸法
6
CONTINUOUS
62
4
100
AcDbLine
10
643.663000000000
20
835.188000000000
30
0.0
11
638.486000000000
21
854.506000000000
31
0.0
0
LINE
5
717
100
AcDbEntity
8
0-8寸法
6
CONTINUOUS
62
4
100
AcDbLine
10
643.663000000000
20
835.188000000000
30
0.0
11
648.839000000000
21
854.506000000000
31
0.0
0
LINE
5
718
100
AcDbEntity
8
0-8寸法
6
CONTINUOUS
62
4
100
AcDbLine
10
643.663000000000
20
1235.188000000000
30
0.0
11
638.486000000000
21
1215.869000000000
31
0.0
0
LINE
5
719
100
AcDbEntity
8
0-8寸法
6
CONTINUOUS
62
4
100
AcDbLine
10
643.663000000000
20
1235.188000000000
30
0.0
11
648.839000000000
21
1215.869000000000
31
0.0
0
LINE
5
71a
100
AcDbEntity
8
0-8寸法
6
CONTINUOUS
62
4
100
AcDbLine
10
643.663000000000
20
1235.188000000000
30
0.0
11
643.663000000000
21
1415.187000000000
31
0.0
0
LINE
5
71b
100
AcDbEntity
8
0-8寸法
6
CONTINUOUS
62
4
100
AcDbLine
10
869.895000000000
20
1415.187000000000
30
0.0
11
633.663000000000
21
1415.187000000000
31
0.0
0
LINE
5
71c
100
AcDbEntity
8
0-8寸法
6
CONTINUOUS
62
4
100
AcDbLine
10
643.663000000000
20
1235.188000000000
30
0.0
11
638.486000000000
21
1254.506000000000
31
0.0
0
LINE
5
71d
100
AcDbEntity
8
0-8寸法
6
CONTINUOUS
62
4
100
AcDbLine
10
643.663000000000
20
1235.188000000000
30
0.0
11
648.839000000000
21
1254.506000000000
31
0.0
0
LINE
5
71e
100
AcDbEntity
8
0-8寸法
6
CONTINUOUS
62
4
100
AcDbLine
10
643.663000000000
20
1415.187000000000
30
0.0
11
638.486000000000
21
1395.869000000000
31
0.0
0
LINE
5
71f
100
AcDbEntity
8
0-8寸法
6
CONTINUOUS
62
4
100
AcDbLine
10
643.663000000000
20
1415.187000000000
30
0.0
11
648.839000000000
21
1395.869000000000
31
0.0
0
LINE
5
720
100
AcDbEntity
8
0-8寸法
6
CONTINUOUS
62
4
100
AcDbLine
10
643.663000000000
20
1415.187000000000
30
0.0
11
643.663000000000
21
1485.187000000000
31
0.0
0
LINE
5
721
100
AcDbEntity
8
0-8寸法
6
CONTINUOUS
62
4
100
AcDbLine
10
643.663000000000
20
1415.187000000000
30
0.0
11
638.486000000000
21
1434.506000000000
31
0.0
0
LINE
5
722
100
AcDbEntity
8
0-8寸法
6
CONTINUOUS
62
4
100
AcDbLine
10
643.663000000000
20
1415.187000000000
30
0.0
11
648.839000000000
21
1434.506000000000
31
0.0
0
LINE
5
723
100
AcDbEntity
8
0-8寸法
6
CONTINUOUS
62
4
100
AcDbLine
10
643.663000000000
20
1485.187000000000
30
0.0
11
638.486000000000
21
1465.869000000000
31
0.0
0
LINE
5
724
100
AcDbEntity
8
0-8寸法
6
CONTINUOUS
62
4
100
AcDbLine
10
643.663000000000
20
1485.187000000000
30
0.0
11
648.839000000000
21
1465.869000000000
31
0.0
0
LINE
5
725
100
AcDbEntity
8
0-8寸法
6
CONTINUOUS
62
4
100
AcDbLine
10
869.895000000000
20
1485.187000000000
30
0.0
11
533.663000000000
21
1485.187000000000
31
0.0
0
LINE
5
726
100
AcDbEntity
8
0-8寸法
6
CONTINUOUS
62
4
100
AcDbLine
10
869.895000000000
20
655.187000000000
30
0.0
11
633.663000000000
21
655.187000000000
31
0.0
0
LINE
5
727
100
AcDbEntity
8
0-5基準線
6
CENTER2
62
7
100
AcDbLine
10
1083.663000000000
20
1478.137000000000
30
0.0
11
1083.663000000000
21
1373.723000000000
31
0.0
0
LINE
5
728
100
AcDbEntity
8
0-8寸法
6
CONTINUOUS
62
4
100
AcDbLine
10
1018.663000000000
20
1710.188000000000
30
0.0
11
1568.663000000000
21
1710.188000000000
31
0.0
0
LINE
5
729
100
AcDbEntity
8
0-8寸法
6
CONTINUOUS
62
4
100
AcDbLine
10
1018.663000000000
20
1710.188000000000
30
0.0
11
1037.981000000000
21
1715.364000000000
31
0.0
0
LINE
5
72a
100
AcDbEntity
8
0-8寸法
6
CONTINUOUS
62
4
100
AcDbLine
10
1018.663000000000
20
1710.188000000000
30
0.0
11
1037.981000000000
21
1705.011000000000
31
0.0
0
LINE
5
72b
100
AcDbEntity
8
0-8寸法
6
CONTINUOUS
62
4
100
AcDbLine
10
1568.663000000000
20
1710.188000000000
30
0.0
11
1549.344000000000
21
1715.364000000000
31
0.0
0
LINE
5
72c
100
AcDbEntity
8
0-8寸法
6
CONTINUOUS
62
4
100
AcDbLine
10
1568.663000000000
20
1710.188000000000
30
0.0
11
1549.344000000000
21
1705.011000000000
31
0.0
0
LINE
5
72d
100
AcDbEntity
8
0-8寸法
6
CONTINUOUS
62
4
100
AcDbLine
10
1018.663000000000
20
1497.344000000000
30
0.0
11
1018.663000000000
21
1720.188000000000
31
0.0
0
LINE
5
72e
100
AcDbEntity
8
0-8寸法
6
CONTINUOUS
62
4
100
AcDbLine
10
1083.663000000000
20
1497.344000000000
30
0.0
11
1083.663000000000
21
1620.188000000000
31
0.0
0
LINE
5
72f
100
AcDbEntity
8
0-8寸法
6
CONTINUOUS
62
4
100
AcDbLine
10
1503.663000000000
20
1497.344000000000
30
0.0
11
1503.663000000000
21
1620.188000000000
31
0.0
0
LINE
5
730
100
AcDbEntity
8
0-8寸法
6
CONTINUOUS
62
4
100
AcDbLine
10
1568.663000000000
20
1497.344000000000
30
0.0
11
1568.663000000000
21
1720.188000000000
31
0.0
0
LINE
5
731
100
AcDbEntity
8
0-9扉体
6
CONTINUOUS
62
6
100
AcDbLine
10
987.496000000000
20
2272.647000000000
30
0.0
11
1005.663000000000
21
2290.814000000000
31
0.0
0
LINE
5
732
100
AcDbEntity
8
0-9扉体
6
CONTINUOUS
62
6
100
AcDbLine
10
986.082000000000
20
2272.647000000000
30
0.0
11
1005.663000000000
21
2292.228000000000
31
0.0
0
LINE
5
733
100
AcDbEntity
8
0-9扉体
6
CONTINUOUS
62
6
100
AcDbLine
10
1000.224000000000
20
2272.647000000000
30
0.0
11
1009.163000000000
21
2281.586000000000
31
0.0
0
LINE
5
734
100
AcDbEntity
8
0-9扉体
6
CONTINUOUS
62
6
100
AcDbLine
10
1001.639000000000
20
2272.647000000000
30
0.0
11
1009.163000000000
21
2280.171000000000
31
0.0
0
LINE
5
735
100
AcDbEntity
8
0-9扉体
6
CONTINUOUS
62
6
100
AcDbLine
10
1028.509000000000
20
2272.647000000000
30
0.0
11
1048.509000000000
21
2292.647000000000
31
0.0
0
LINE
5
736
100
AcDbEntity
8
0-9扉体
6
CONTINUOUS
62
6
100
AcDbLine
10
1029.923000000000
20
2272.647000000000
30
0.0
11
1049.923000000000
21
2292.647000000000
31
0.0
0
LINE
5
737
100
AcDbEntity
8
0-9扉体
6
CONTINUOUS
62
6
100
AcDbLine
10
1028.163000000000
20
2285.029000000000
30
0.0
11
1035.781000000000
21
2292.647000000000
31
0.0
0
LINE
5
738
100
AcDbEntity
8
0-6戸当り
6
CONTINUOUS
62
6
100
AcDbLine
10
1028.163000000000
20
2286.443000000000
30
0.0
11
1028.967000000000
21
2287.247000000000
31
0.0
0
LINE
5
739
100
AcDbEntity
8
0-9扉体
6
CONTINUOUS
62
6
100
AcDbLine
10
1029.413000000000
20
2287.693000000000
30
0.0
11
1034.367000000000
21
2292.647000000000
31
0.0
0
LINE
5
73a
100
AcDbEntity
8
0-9扉体
6
CONTINUOUS
62
4
100
AcDbLine
10
1116.263000000000
20
2272.647000000000
30
0.0
11
1648.663000000000
21
2272.647000000000
31
0.0
0
LINE
5
73b
100
AcDbEntity
8
0-9扉体
6
CONTINUOUS
62
6
100
AcDbLine
10
1115.362000000000
20
2274.647000000000
30
0.0
11
1133.362000000000
21
2292.647000000000
31
0.0
0
LINE
5
73c
100
AcDbEntity
8
0-9扉体
6
CONTINUOUS
62
6
100
AcDbLine
10
1116.263000000000
20
2274.134000000000
30
0.0
11
1134.776000000000
21
2292.647000000000
31
0.0
0
LINE
5
73d
100
AcDbEntity
8
0-9扉体
6
CONTINUOUS
62
6
100
AcDbLine
10
1128.918000000000
20
2272.647000000000
30
0.0
11
1148.919000000000
21
2292.647000000000
31
0.0
0
LINE
5
73e
100
AcDbEntity
8
0-9扉体
6
CONTINUOUS
62
6
100
AcDbLine
10
1127.504000000000
20
2272.647000000000
30
0.0
11
1147.504000000000
21
2292.647000000000
31
0.0
0
LINE
5
73f
100
AcDbEntity
8
0-9扉体
6
CONTINUOUS
62
6
100
AcDbLine
10
1143.061000000000
20
2272.647000000000
30
0.0
11
1163.061000000000
21
2292.647000000000
31
0.0
0
LINE
5
740
100
AcDbEntity
8
0-9扉体
6
CONTINUOUS
62
6
100
AcDbLine
10
1141.647000000000
20
2272.647000000000
30
0.0
11
1161.646000000000
21
2292.647000000000
31
0.0
0
LINE
5
741
100
AcDbEntity
8
0-9扉体
6
CONTINUOUS
62
6
100
AcDbLine
10
1212.358000000000
20
2272.647000000000
30
0.0
11
1232.358000000000
21
2292.647000000000
31
0.0
0
LINE
5
742
100
AcDbEntity
8
0-9扉体
6
CONTINUOUS
62
6
100
AcDbLine
10
1210.943000000000
20
2272.647000000000
30
0.0
11
1230.943000000000
21
2292.647000000000
31
0.0
0
LINE
5
743
100
AcDbEntity
8
0-9扉体
6
CONTINUOUS
62
6
100
AcDbLine
10
1225.086000000000
20
2272.647000000000
30
0.0
11
1245.086000000000
21
2292.647000000000
31
0.0
0
LINE
5
744
100
AcDbEntity
8
0-9扉体
6
CONTINUOUS
62
6
100
AcDbLine
10
1223.671000000000
20
2272.647000000000
30
0.0
11
1243.672000000000
21
2292.647000000000
31
0.0
0
LINE
5
745
100
AcDbEntity
8
0-9扉体
6
CONTINUOUS
62
6
100
AcDbLine
10
1237.814000000000
20
2272.647000000000
30
0.0
11
1257.814000000000
21
2292.647000000000
31
0.0
0
LINE
5
746
100
AcDbEntity
8
0-9扉体
6
CONTINUOUS
62
6
100
AcDbLine
10
1236.399000000000
20
2272.647000000000
30
0.0
11
1256.400000000000
21
2292.647000000000
31
0.0
0
LINE
5
747
100
AcDbEntity
8
0-9扉体
6
CONTINUOUS
62
6
100
AcDbLine
10
1250.542000000000
20
2272.647000000000
30
0.0
11
1270.542000000000
21
2292.647000000000
31
0.0
0
LINE
5
748
100
AcDbEntity
8
0-9扉体
6
CONTINUOUS
62
6
100
AcDbLine
10
1249.128000000000
20
2272.647000000000
30
0.0
11
1269.128000000000
21
2292.647000000000
31
0.0
0
LINE
5
749
100
AcDbEntity
8
0-9扉体
6
CONTINUOUS
62
6
100
AcDbLine
10
1263.270000000000
20
2272.647000000000
30
0.0
11
1283.270000000000
21
2292.647000000000
31
0.0
0
LINE
5
74a
100
AcDbEntity
8
0-9扉体
6
CONTINUOUS
62
6
100
AcDbLine
10
1261.856000000000
20
2272.647000000000
30
0.0
11
1281.856000000000
21
2292.647000000000
31
0.0
0
LINE
5
74b
100
AcDbEntity
8
0-9扉体
6
CONTINUOUS
62
6
100
AcDbLine
10
1288.726000000000
20
2272.647000000000
30
0.0
11
1293.663000000000
21
2277.584000000000
31
0.0
0
LINE
5
74c
100
AcDbEntity
8
0-9扉体
6
CONTINUOUS
62
6
100
AcDbLine
10
1287.312000000000
20
2272.647000000000
30
0.0
11
1293.663000000000
21
2278.998000000000
31
0.0
0
LINE
5
74d
100
AcDbEntity
8
0-9扉体
6
CONTINUOUS
62
6
100
AcDbLine
10
1274.584000000000
20
2272.647000000000
30
0.0
11
1293.663000000000
21
2291.726000000000
31
0.0
0
LINE
5
74e
100
AcDbEntity
8
0-9扉体
6
CONTINUOUS
62
6
100
AcDbLine
10
1275.998000000000
20
2272.647000000000
30
0.0
11
1293.663000000000
21
2290.312000000000
31
0.0
0
LINE
5
74f
100
AcDbEntity
8
0-8寸法
6
CONTINUOUS
62
4
100
AcDbLine
10
993.663000000000
20
1810.188000000000
30
0.0
11
1593.663000000000
21
1810.188000000000
31
0.0
0
LINE
5
750
100
AcDbEntity
8
0-8寸法
6
CONTINUOUS
62
4
100
AcDbLine
10
993.663000000000
20
1497.344000000000
30
0.0
11
993.663000000000
21
1820.188000000000
31
0.0
0
LINE
5
751
100
AcDbEntity
8
0-8寸法
6
CONTINUOUS
62
4
100
AcDbLine
10
1593.663000000000
20
1497.344000000000
30
0.0
11
1593.663000000000
21
1820.188000000000
31
0.0
0
LINE
5
752
100
AcDbEntity
8
0-8寸法
6
CONTINUOUS
62
4
100
AcDbLine
10
993.663000000000
20
1810.188000000000
30
0.0
11
1012.981000000000
21
1815.364000000000
31
0.0
0
LINE
5
753
100
AcDbEntity
8
0-8寸法
6
CONTINUOUS
62
4
100
AcDbLine
10
993.663000000000
20
1810.188000000000
30
0.0
11
1012.981000000000
21
1805.011000000000
31
0.0
0
LINE
5
754
100
AcDbEntity
8
0-8寸法
6
CONTINUOUS
62
4
100
AcDbLine
10
1593.663000000000
20
1810.188000000000
30
0.0
11
1574.344000000000
21
1815.364000000000
31
0.0
0
LINE
5
755
100
AcDbEntity
8
0-8寸法
6
CONTINUOUS
62
4
100
AcDbLine
10
1593.663000000000
20
1810.188000000000
30
0.0
11
1574.344000000000
21
1805.011000000000
31
0.0
0
LINE
5
756
100
AcDbEntity
8
0-9扉体
6
CONTINUOUS
62
4
100
AcDbLine
10
943.664000000000
20
1385.188000000000
30
0.0
11
1643.663000000000
21
1385.188000000000
31
0.0
0
LINE
5
757
100
AcDbEntity
8
0-9扉体
6
DOT
62
4
100
AcDbLine
10
949.664000000000
20
1379.187000000000
30
0.0
11
1637.663000000000
21
1379.187000000000
31
0.0
0
LINE
5
758
100
AcDbEntity
8
0-9扉体
6
CONTINUOUS
62
4
100
AcDbLine
10
1573.663000000000
20
1390.188000000000
30
0.0
11
1648.663000000000
21
1390.188000000000
31
0.0
0
LINE
5
759
100
AcDbEntity
8
0-9扉体
6
CONTINUOUS
62
4
100
AcDbLine
10
938.664000000000
20
1390.188000000000
30
0.0
11
1013.664000000000
21
1390.188000000000
31
0.0
0
LINE
5
75a
100
AcDbEntity
8
0-9扉体
6
CONTINUOUS
62
4
100
AcDbLine
10
1153.663000000000
20
1390.188000000000
30
0.0
11
1268.663000000000
21
1390.188000000000
31
0.0
0
LINE
5
75b
100
AcDbEntity
8
0-A文字
6
CONTINUOUS
62
4
100
AcDbLine
10
1025.265000000000
20
1090.743000000000
30
0.0
11
1221.362000000000
21
1090.743000000000
31
0.0
0
LINE
5
75c
100
AcDbEntity
8
0-9扉体
6
CONTINUOUS
62
4
100
AcDbLine
10
1003.664000000000
20
1320.188000000000
30
0.0
11
1583.663000000000
21
1320.188000000000
31
0.0
0
LINE
5
75d
100
AcDbEntity
8
0-9扉体
6
DOT
62
4
100
AcDbLine
10
1310.673000000000
20
1379.187000000000
30
0.0
11
1310.673000000000
21
1320.188000000000
31
0.0
0
LINE
5
75e
100
AcDbEntity
8
0-9扉体
6
CONTINUOUS
62
4
100
AcDbLine
10
938.664000000000
20
680.188000000000
30
0.0
11
938.664000000000
21
1390.188000000000
31
0.0
0
LINE
5
75f
100
AcDbEntity
8
0-9扉体
6
CONTINUOUS
62
4
100
AcDbLine
10
1648.663000000000
20
680.188000000000
30
0.0
11
938.664000000000
21
680.188000000000
31
0.0
0
LINE
5
760
100
AcDbEntity
8
0-9扉体
6
CONTINUOUS
62
4
100
AcDbLine
10
1648.663000000000
20
1390.188000000000
30
0.0
11
1648.663000000000
21
680.188000000000
31
0.0
0
LINE
5
761
100
AcDbEntity
8
0-9扉体
6
CONTINUOUS
62
4
100
AcDbLine
10
943.664000000000
20
685.188000000000
30
0.0
11
943.664000000000
21
1385.188000000000
31
0.0
0
LINE
5
762
100
AcDbEntity
8
0-9扉体
6
CONTINUOUS
62
4
100
AcDbLine
10
1643.663000000000
20
685.188000000000
30
0.0
11
943.664000000000
21
685.188000000000
31
0.0
0
LINE
5
763
100
AcDbEntity
8
0-9扉体
6
CONTINUOUS
62
4
100
AcDbLine
10
1643.663000000000
20
1385.188000000000
30
0.0
11
1643.663000000000
21
685.188000000000
31
0.0
0
LINE
5
764
100
AcDbEntity
8
0-9扉体
6
DOT
62
4
100
AcDbLine
10
949.664000000000
20
685.188000000000
30
0.0
11
949.664000000000
21
1385.188000000000
31
0.0
0
LINE
5
765
100
AcDbEntity
8
0-9扉体
6
CONTINUOUS
62
4
100
AcDbLine
10
1003.664000000000
20
685.188000000000
30
0.0
11
1003.664000000000
21
1385.188000000000
31
0.0
0
LINE
5
766
100
AcDbEntity
8
0-9扉体
6
DOT
62
4
100
AcDbLine
10
1637.663000000000
20
1385.188000000000
30
0.0
11
1637.663000000000
21
685.188000000000
31
0.0
0
LINE
5
767
100
AcDbEntity
8
0-9扉体
6
DOT
62
4
100
AcDbLine
10
1310.673000000000
20
750.188000000000
30
0.0
11
1310.673000000000
21
691.188000000000
31
0.0
0
LINE
5
768
100
AcDbEntity
8
0-9扉体
6
DOT
62
4
100
AcDbLine
10
1637.663000000000
20
691.188000000000
30
0.0
11
949.664000000000
21
691.188000000000
31
0.0
0
LINE
5
769
100
AcDbEntity
8
0-9扉体
6
CONTINUOUS
62
4
100
AcDbLine
10
1583.663000000000
20
1385.188000000000
30
0.0
11
1583.663000000000
21
685.188000000000
31
0.0
0
LINE
5
76a
100
AcDbEntity
8
0-9扉体
6
CONTINUOUS
62
4
100
AcDbLine
10
1583.663000000000
20
750.188000000000
30
0.0
11
1003.664000000000
21
750.188000000000
31
0.0
0
LINE
5
76b
100
AcDbEntity
8
0-9扉体
6
CONTINUOUS
62
4
100
AcDbLine
10
1310.673000000000
20
1320.188000000000
30
0.0
11
1310.673000000000
21
750.188000000000
31
0.0
0
LINE
5
76c
100
AcDbEntity
8
0-9扉体
6
CONTINUOUS
62
4
100
AcDbLine
10
1245.673000000000
20
1320.188000000000
30
0.0
11
1245.673000000000
21
750.188000000000
31
0.0
0
LINE
5
76d
100
AcDbEntity
8
0-9扉体
6
CONTINUOUS
62
4
100
AcDbLine
10
2505.094000000000
20
1390.188000000000
30
0.0
11
2499.095000000000
21
1390.188000000000
31
0.0
0
LINE
5
76e
100
AcDbEntity
8
0-9扉体
6
CONTINUOUS
62
3
100
AcDbLine
10
2505.094000000000
20
1325.188000000000
30
0.0
11
2513.094000000000
21
1325.188000000000
31
0.0
0
LINE
5
76f
100
AcDbEntity
8
0-9扉体
6
CONTINUOUS
62
3
100
AcDbLine
10
2515.095000000000
20
1365.188000000000
30
0.0
11
2513.094000000000
21
1365.188000000000
31
0.0
0
LINE
5
770
100
AcDbEntity
8
0-9扉体
6
CONTINUOUS
62
3
100
AcDbLine
10
2513.094000000000
20
1325.188000000000
30
0.0
11
2513.094000000000
21
1365.188000000000
31
0.0
0
LINE
5
771
100
AcDbEntity
8
0-9扉体
6
CONTINUOUS
62
3
100
AcDbLine
10
2519.095000000000
20
1326.188000000000
30
0.0
11
2519.095000000000
21
1364.188000000000
31
0.0
0
LINE
5
772
100
AcDbEntity
8
0-9扉体
6
CONTINUOUS
62
3
100
AcDbLine
10
2513.094000000000
20
1364.188000000000
30
0.0
11
2519.095000000000
21
1364.188000000000
31
0.0
0
LINE
5
773
100
AcDbEntity
8
0-9扉体
6
CONTINUOUS
62
3
100
AcDbLine
10
2513.094000000000
20
1326.188000000000
30
0.0
11
2519.095000000000
21
1326.188000000000
31
0.0
0
LINE
5
774
100
AcDbEntity
8
0-9扉体
6
DOT
62
3
100
AcDbLine
10
2515.095000000000
20
1341.188000000000
30
0.0
11
2519.095000000000
21
1337.188000000000
31
0.0
0
LINE
5
775
100
AcDbEntity
8
0-9扉体
6
DOT
62
3
100
AcDbLine
10
2515.095000000000
20
1349.188000000000
30
0.0
11
2519.095000000000
21
1353.188000000000
31
0.0
0
LINE
5
776
100
AcDbEntity
8
0-9扉体
6
DOT
62
3
100
AcDbLine
10
2515.095000000000
20
1341.188000000000
30
0.0
11
2515.095000000000
21
1349.188000000000
31
0.0
0
LINE
5
777
100
AcDbEntity
8
0-9扉体
6
DOT
62
3
100
AcDbLine
10
2499.094000000000
20
1349.188000000000
30
0.0
11
2515.095000000000
21
1349.188000000000
31
0.0
0
LINE
5
778
100
AcDbEntity
8
0-9扉体
6
DOT
62
3
100
AcDbLine
10
2499.094000000000
20
1341.188000000000
30
0.0
11
2515.095000000000
21
1341.188000000000
31
0.0
0
LINE
5
779
100
AcDbEntity
8
0-9扉体
6
CONTINUOUS
62
3
100
AcDbLine
10
2497.494000000000
20
1336.187000000000
30
0.0
11
2499.094000000000
21
1336.187000000000
31
0.0
0
LINE
5
77a
100
AcDbEntity
8
0-9扉体
6
CONTINUOUS
62
3
100
AcDbLine
10
2497.494000000000
20
1354.188000000000
30
0.0
11
2499.094000000000
21
1354.188000000000
31
0.0
0
LINE
5
77b
100
AcDbEntity
8
0-9扉体
6
CONTINUOUS
62
3
100
AcDbLine
10
2484.095000000000
20
1341.188000000000
30
0.0
11
2484.095000000000
21
1349.188000000000
31
0.0
0
LINE
5
77c
100
AcDbEntity
8
0-9扉体
6
CONTINUOUS
62
3
100
AcDbLine
10
2497.494000000000
20
1354.188000000000
30
0.0
11
2497.494000000000
21
1336.187000000000
31
0.0
0
LINE
5
77d
100
AcDbEntity
8
0-9扉体
6
CONTINUOUS
62
7
100
AcDbLine
10
2490.995000000000
20
1338.688000000000
30
0.0
11
2491.575000000000
21
1337.682000000000
31
0.0
0
LINE
5
77e
100
AcDbEntity
8
0-9扉体
6
CONTINUOUS
62
7
100
AcDbLine
10
2490.995000000000
20
1351.687000000000
30
0.0
11
2491.575000000000
21
1352.693000000000
31
0.0
0
LINE
5
77f
100
AcDbEntity
8
0-9扉体
6
CONTINUOUS
62
7
100
AcDbLine
10
2490.995000000000
20
1338.688000000000
30
0.0
11
2490.995000000000
21
1351.687000000000
31
0.0
0
LINE
5
780
100
AcDbEntity
8
0-9扉体
6
CONTINUOUS
62
3
100
AcDbLine
10
2490.995000000000
20
1349.188000000000
30
0.0
11
2484.095000000000
21
1349.188000000000
31
0.0
0
LINE
5
781
100
AcDbEntity
8
0-9扉体
6
CONTINUOUS
62
3
100
AcDbLine
10
2490.995000000000
20
1341.188000000000
30
0.0
11
2484.095000000000
21
1341.188000000000
31
0.0
0
LINE
5
782
100
AcDbEntity
8
0-9扉体
6
CONTINUOUS
62
7
100
AcDbLine
10
2497.494000000000
20
1352.693000000000
30
0.0
11
2491.575000000000
21
1352.693000000000
31
0.0
0
LINE
5
783
100
AcDbEntity
8
0-9扉体
6
CONTINUOUS
62
7
100
AcDbLine
10
2497.494000000000
20
1348.940000000000
30
0.0
11
2491.575000000000
21
1348.940000000000
31
0.0
0
LINE
5
784
100
AcDbEntity
8
0-9扉体
6
CONTINUOUS
62
7
100
AcDbLine
10
2497.494000000000
20
1341.435000000000
30
0.0
11
2491.575000000000
21
1341.435000000000
31
0.0
0
LINE
5
785
100
AcDbEntity
8
0-9扉体
6
CONTINUOUS
62
7
100
AcDbLine
10
2497.494000000000
20
1337.682000000000
30
0.0
11
2491.575000000000
21
1337.682000000000
31
0.0
0
LINE
5
786
100
AcDbEntity
8
0-9扉体
6
CONTINUOUS
62
2
100
AcDbLine
10
2490.995000000000
20
1348.188000000000
30
0.0
11
2484.095000000000
21
1348.188000000000
31
0.0
0
LINE
5
787
100
AcDbEntity
8
0-9扉体
6
CONTINUOUS
62
2
100
AcDbLine
10
2490.995000000000
20
1342.188000000000
30
0.0
11
2484.095000000000
21
1342.188000000000
31
0.0
0
LINE
5
788
100
AcDbEntity
8
0-9扉体
6
CONTINUOUS
62
4
100
AcDbLine
10
2505.094000000000
20
1390.188000000000
30
0.0
11
2505.094000000000
21
685.188000000000
31
0.0
0
LINE
5
789
100
AcDbEntity
8
0-9扉体
6
CONTINUOUS
62
3
100
AcDbLine
10
2505.094000000000
20
745.187000000000
30
0.0
11
2513.094000000000
21
745.187000000000
31
0.0
0
LINE
5
78a
100
AcDbEntity
8
0-9扉体
6
CONTINUOUS
62
3
100
AcDbLine
10
2515.095000000000
20
705.188000000000
30
0.0
11
2513.094000000000
21
705.188000000000
31
0.0
0
LINE
5
78b
100
AcDbEntity
8
0-9扉体
6
CONTINUOUS
62
3
100
AcDbLine
10
2513.094000000000
20
745.187000000000
30
0.0
11
2513.094000000000
21
705.188000000000
31
0.0
0
LINE
5
78c
100
AcDbEntity
8
0-9扉体
6
CONTINUOUS
62
3
100
AcDbLine
10
2519.095000000000
20
744.188000000000
30
0.0
11
2519.095000000000
21
706.187000000000
31
0.0
0
LINE
5
78d
100
AcDbEntity
8
0-9扉体
6
CONTINUOUS
62
3
100
AcDbLine
10
2513.094000000000
20
706.187000000000
30
0.0
11
2519.095000000000
21
706.187000000000
31
0.0
0
LINE
5
78e
100
AcDbEntity
8
0-9扉体
6
CONTINUOUS
62
3
100
AcDbLine
10
2513.094000000000
20
744.188000000000
30
0.0
11
2519.095000000000
21
744.188000000000
31
0.0
0
LINE
5
78f
100
AcDbEntity
8
0-9扉体
6
DOT
62
3
100
AcDbLine
10
2515.095000000000
20
729.187000000000
30
0.0
11
2519.095000000000
21
733.188000000000
31
0.0
0
LINE
5
790
100
AcDbEntity
8
0-9扉体
6
DOT
62
3
100
AcDbLine
10
2515.095000000000
20
721.187000000000
30
0.0
11
2519.095000000000
21
717.187000000000
31
0.0
0
LINE
5
791
100
AcDbEntity
8
0-9扉体
6
DOT
62
3
100
AcDbLine
10
2515.095000000000
20
729.187000000000
30
0.0
11
2515.095000000000
21
721.187000000000
31
0.0
0
LINE
5
792
100
AcDbEntity
8
0-9扉体
6
DOT
62
3
100
AcDbLine
10
2499.094000000000
20
721.187000000000
30
0.0
11
2515.095000000000
21
721.187000000000
31
0.0
0
LINE
5
793
100
AcDbEntity
8
0-9扉体
6
DOT
62
3
100
AcDbLine
10
2499.094000000000
20
729.187000000000
30
0.0
11
2515.095000000000
21
729.187000000000
31
0.0
0
LINE
5
794
100
AcDbEntity
8
0-9扉体
6
CONTINUOUS
62
3
100
AcDbLine
10
2497.494000000000
20
734.188000000000
30
0.0
11
2499.094000000000
21
734.188000000000
31
0.0
0
LINE
5
795
100
AcDbEntity
8
0-9扉体
6
CONTINUOUS
62
3
100
AcDbLine
10
2497.494000000000
20
716.187000000000
30
0.0
11
2499.094000000000
21
716.187000000000
31
0.0
0
LINE
5
796
100
AcDbEntity
8
0-9扉体
6
CONTINUOUS
62
3
100
AcDbLine
10
2484.095000000000
20
729.187000000000
30
0.0
11
2484.095000000000
21
721.187000000000
31
0.0
0
LINE
5
797
100
AcDbEntity
8
0-9扉体
6
CONTINUOUS
62
3
100
AcDbLine
10
2497.494000000000
20
716.187000000000
30
0.0
11
2497.494000000000
21
734.188000000000
31
0.0
0
LINE
5
798
100
AcDbEntity
8
0-5基準線
6
CENTER2
62
7
100
AcDbLine
10
2481.691000000000
20
725.188000000000
30
0.0
11
2520.619000000000
21
725.188000000000
31
0.0
0
LINE
5
799
100
AcDbEntity
8
0-9扉体
6
CONTINUOUS
62
7
100
AcDbLine
10
2490.995000000000
20
731.688000000000
30
0.0
11
2491.575000000000
21
732.693000000000
31
0.0
0
LINE
5
79a
100
AcDbEntity
8
0-9扉体
6
CONTINUOUS
62
7
100
AcDbLine
10
2490.995000000000
20
718.688000000000
30
0.0
11
2491.575000000000
21
717.682000000000
31
0.0
0
LINE
5
79b
100
AcDbEntity
8
0-9扉体
6
CONTINUOUS
62
7
100
AcDbLine
10
2490.995000000000
20
731.688000000000
30
0.0
11
2490.995000000000
21
718.688000000000
31
0.0
0
LINE
5
79c
100
AcDbEntity
8
0-9扉体
6
CONTINUOUS
62
3
100
AcDbLine
10
2490.995000000000
20
721.187000000000
30
0.0
11
2484.095000000000
21
721.187000000000
31
0.0
0
LINE
5
79d
100
AcDbEntity
8
0-9扉体
6
CONTINUOUS
62
3
100
AcDbLine
10
2490.995000000000
20
729.187000000000
30
0.0
11
2484.095000000000
21
729.187000000000
31
0.0
0
LINE
5
79e
100
AcDbEntity
8
0-9扉体
6
CONTINUOUS
62
7
100
AcDbLine
10
2497.494000000000
20
717.682000000000
30
0.0
11
2491.575000000000
21
717.682000000000
31
0.0
0
LINE
5
79f
100
AcDbEntity
8
0-9扉体
6
CONTINUOUS
62
7
100
AcDbLine
10
2497.494000000000
20
721.435000000000
30
0.0
11
2491.575000000000
21
721.435000000000
31
0.0
0
LINE
5
7a0
100
AcDbEntity
8
0-9扉体
6
CONTINUOUS
62
7
100
AcDbLine
10
2497.494000000000
20
728.941000000000
30
0.0
11
2491.575000000000
21
728.941000000000
31
0.0
0
LINE
5
7a1
100
AcDbEntity
8
0-9扉体
6
CONTINUOUS
62
7
100
AcDbLine
10
2497.494000000000
20
732.693000000000
30
0.0
11
2491.575000000000
21
732.693000000000
31
0.0
0
LINE
5
7a2
100
AcDbEntity
8
0-9扉体
6
CONTINUOUS
62
2
100
AcDbLine
10
2490.995000000000
20
722.187000000000
30
0.0
11
2484.095000000000
21
722.187000000000
31
0.0
0
LINE
5
7a3
100
AcDbEntity
8
0-9扉体
6
CONTINUOUS
62
2
100
AcDbLine
10
2490.995000000000
20
728.187000000000
30
0.0
11
2484.095000000000
21
728.187000000000
31
0.0
0
LINE
5
7a4
100
AcDbEntity
8
0-5基準線
6
CENTER2
62
7
100
AcDbLine
10
2480.751000000000
20
1345.188000000000
30
0.0
11
2520.619000000000
21
1345.188000000000
31
0.0
0
LINE
5
7a5
100
AcDbEntity
8
0-9扉体
6
CONTINUOUS
62
4
100
AcDbLine
10
2487.094000000000
20
1394.188000000000
30
0.0
11
2487.094000000000
21
1385.188000000000
31
0.0
0
LINE
5
7a6
100
AcDbEntity
8
0-9扉体
6
CONTINUOUS
62
4
100
AcDbLine
10
2487.094000000000
20
1394.188000000000
30
0.0
11
2501.594000000000
21
1408.688000000000
31
0.0
0
LINE
5
7a7
100
AcDbEntity
8
0-5基準線
6
CENTER2
62
7
100
AcDbLine
10
2484.095000000000
20
1455.187000000000
30
0.0
11
2484.095000000000
21
1415.188000000000
31
0.0
0
LINE
5
7a8
100
AcDbEntity
8
0-9扉体
6
CONTINUOUS
62
4
100
AcDbLine
10
2466.595000000000
20
1459.187000000000
30
0.0
11
2437.095000000000
21
1394.188000000000
31
0.0
0
LINE
5
7a9
100
AcDbEntity
8
0-5基準線
6
CENTER2
62
7
100
AcDbLine
10
2465.375000000000
20
1435.188000000000
30
0.0
11
2503.334000000000
21
1435.188000000000
31
0.0
0
LINE
5
7aa
100
AcDbEntity
8
0-9扉体
6
CONTINUOUS
62
6
100
AcDbLine
10
2516.088000000000
20
685.237000000000
30
0.0
11
2525.045000000000
21
694.195000000000
31
0.0
0
LINE
5
7ab
100
AcDbEntity
8
0-9扉体
6
CONTINUOUS
62
6
100
AcDbLine
10
2514.635000000000
20
685.198000000000
30
0.0
11
2525.084000000000
21
695.648000000000
31
0.0
0
LINE
5
7ac
100
AcDbEntity
8
0-9扉体
6
CONTINUOUS
62
6
100
AcDbLine
10
2505.094000000000
20
702.528000000000
30
0.0
11
2513.094000000000
21
710.528000000000
31
0.0
0
LINE
5
7ad
100
AcDbEntity
8
0-9扉体
6
CONTINUOUS
62
6
100
AcDbLine
10
2505.094000000000
20
703.942000000000
30
0.0
11
2513.094000000000
21
711.942000000000
31
0.0
0
LINE
5
7ae
100
AcDbEntity
8
0-9扉体
6
CONTINUOUS
62
6
100
AcDbLine
10
2505.094000000000
20
716.670000000000
30
0.0
11
2513.094000000000
21
724.670000000000
31
0.0
0
LINE
5
7af
100
AcDbEntity
8
0-9扉体
6
CONTINUOUS
62
6
100
AcDbLine
10
2505.094000000000
20
718.085000000000
30
0.0
11
2513.094000000000
21
726.085000000000
31
0.0
0
LINE
5
7b0
100
AcDbEntity
8
0-9扉体
6
CONTINUOUS
62
6
100
AcDbLine
10
2505.094000000000
20
730.812000000000
30
0.0
11
2513.094000000000
21
738.812000000000
31
0.0
0
LINE
5
7b1
100
AcDbEntity
8
0-9扉体
6
CONTINUOUS
62
6
100
AcDbLine
10
2505.094000000000
20
732.227000000000
30
0.0
11
2513.094000000000
21
740.227000000000
31
0.0
0
LINE
5
7b2
100
AcDbEntity
8
0-9扉体
6
CONTINUOUS
62
6
100
AcDbLine
10
2505.094000000000
20
744.955000000000
30
0.0
11
2505.327000000000
21
745.187000000000
31
0.0
0
LINE
5
7b3
100
AcDbEntity
8
0-9扉体
6
CONTINUOUS
62
6
100
AcDbLine
10
2506.608000000000
20
689.899000000000
30
0.0
11
2511.163000000000
21
694.454000000000
31
0.0
0
LINE
5
7b4
100
AcDbEntity
8
0-9扉体
6
CONTINUOUS
62
6
100
AcDbLine
10
2515.828000000000
20
699.120000000000
30
0.0
11
2520.383000000000
21
703.675000000000
31
0.0
0
LINE
5
7b5
100
AcDbEntity
8
0-9扉体
6
CONTINUOUS
62
6
100
AcDbLine
10
2506.104000000000
20
690.810000000000
30
0.0
11
2511.151000000000
21
695.857000000000
31
0.0
0
LINE
5
7b6
100
AcDbEntity
8
0-9扉体
6
CONTINUOUS
62
6
100
AcDbLine
10
2514.425000000000
20
699.131000000000
30
0.0
11
2519.473000000000
21
704.178000000000
31
0.0
0
LINE
5
7b7
100
AcDbEntity
8
0-9扉体
6
CONTINUOUS
62
6
100
AcDbLine
10
2510.770000000000
20
1325.188000000000
30
0.0
11
2513.094000000000
21
1327.513000000000
31
0.0
0
LINE
5
7b8
100
AcDbEntity
8
0-9扉体
6
CONTINUOUS
62
6
100
AcDbLine
10
2509.355000000000
20
1325.188000000000
30
0.0
11
2513.094000000000
21
1328.927000000000
31
0.0
0
LINE
5
7b9
100
AcDbEntity
8
0-9扉体
6
CONTINUOUS
62
6
100
AcDbLine
10
2505.094000000000
20
1333.655000000000
30
0.0
11
2513.094000000000
21
1341.655000000000
31
0.0
0
LINE
5
7ba
100
AcDbEntity
8
0-9扉体
6
CONTINUOUS
62
6
100
AcDbLine
10
2505.094000000000
20
1335.069000000000
30
0.0
11
2513.094000000000
21
1343.069000000000
31
0.0
0
LINE
5
7bb
100
AcDbEntity
8
0-9扉体
6
CONTINUOUS
62
6
100
AcDbLine
10
2505.094000000000
20
1347.797000000000
30
0.0
11
2513.094000000000
21
1355.797000000000
31
0.0
0
LINE
5
7bc
100
AcDbEntity
8
0-9扉体
6
CONTINUOUS
62
6
100
AcDbLine
10
2505.094000000000
20
1349.211000000000
30
0.0
11
2513.094000000000
21
1357.211000000000
31
0.0
0
LINE
5
7bd
100
AcDbEntity
8
0-9扉体
6
CONTINUOUS
62
6
100
AcDbLine
10
2505.139000000000
20
1376.126000000000
30
0.0
11
2514.156000000000
21
1385.143000000000
31
0.0
0
LINE
5
7be
100
AcDbEntity
8
0-9扉体
6
CONTINUOUS
62
6
100
AcDbLine
10
2505.458000000000
20
1377.860000000000
30
0.0
11
2512.423000000000
21
1384.824000000000
31
0.0
0
LINE
5
7bf
100
AcDbEntity
8
0-9扉体
6
CONTINUOUS
62
6
100
AcDbLine
10
2505.094000000000
20
1363.354000000000
30
0.0
11
2513.336000000000
21
1371.595000000000
31
0.0
0
LINE
5
7c0
100
AcDbEntity
8
0-9扉体
6
CONTINUOUS
62
6
100
AcDbLine
10
2518.687000000000
20
1376.946000000000
30
0.0
11
2523.023000000000
21
1381.282000000000
31
0.0
0
LINE
5
7c1
100
AcDbEntity
8
0-9扉体
6
CONTINUOUS
62
6
100
AcDbLine
10
2505.094000000000
20
1361.939000000000
30
0.0
11
2514.403000000000
21
1371.248000000000
31
0.0
0
LINE
5
7c2
100
AcDbEntity
8
0-9扉体
6
CONTINUOUS
62
6
100
AcDbLine
10
2519.034000000000
20
1375.879000000000
30
0.0
11
2523.601000000000
21
1380.446000000000
31
0.0
0
LINE
5
7c3
100
AcDbEntity
8
0-A文字
6
CONTINUOUS
62
7
100
AcDbLine
10
2088.990000000000
20
1055.188000000000
30
0.0
11
2289.690000000000
21
1055.188000000000
31
0.0
0
LINE
5
7c4
100
AcDbEntity
8
0-A文字
6
CONTINUOUS
62
7
100
AcDbLine
10
2088.990000000000
20
1015.188000000000
30
0.0
11
2289.690000000000
21
1015.188000000000
31
0.0
0
LINE
5
7c5
100
AcDbEntity
8
0-A文字
6
CONTINUOUS
62
7
100
AcDbLine
10
2088.990000000000
20
1055.188000000000
30
0.0
11
2088.990000000000
21
1015.188000000000
31
0.0
0
LINE
5
7c6
100
AcDbEntity
8
0-A文字
6
CONTINUOUS
62
7
100
AcDbLine
10
2289.690000000000
20
1055.188000000000
30
0.0
11
2289.690000000000
21
1075.188000000000
31
0.0
0
LINE
5
7c7
100
AcDbEntity
8
0-A文字
6
CONTINUOUS
62
7
100
AcDbLine
10
2289.690000000000
20
1015.188000000000
30
0.0
11
2289.690000000000
21
995.187000000000
31
0.0
0
LINE
5
7c8
100
AcDbEntity
8
0-A文字
6
CONTINUOUS
62
7
100
AcDbLine
10
2289.690000000000
20
1075.188000000000
30
0.0
11
2358.972000000000
21
1035.188000000000
31
0.0
0
LINE
5
7c9
100
AcDbEntity
8
0-A文字
6
CONTINUOUS
62
7
100
AcDbLine
10
2289.690000000000
20
995.187000000000
30
0.0
11
2358.972000000000
21
1035.188000000000
31
0.0
0
LINE
5
7ca
100
AcDbEntity
8
0-8寸法
6
CONTINUOUS
62
4
100
AcDbLine
10
2094.886000000000
20
1485.187000000000
30
0.0
11
2293.115000000000
21
1485.187000000000
31
0.0
0
LINE
5
7cb
100
AcDbEntity
8
0-8寸法
6
CONTINUOUS
62
4
100
AcDbLine
10
2109.195000000000
20
1475.187000000000
30
0.0
11
2279.137000000000
21
1475.187000000000
31
0.0
0
LINE
5
7cc
100
AcDbEntity
8
0-8寸法
6
CONTINUOUS
62
4
100
AcDbLine
10
2127.587000000000
20
1465.188000000000
30
0.0
11
2258.538000000000
21
1465.188000000000
31
0.0
0
LINE
5
7cd
100
AcDbEntity
8
0-8寸法
6
CONTINUOUS
62
4
100
AcDbLine
10
2147.450000000000
20
1455.187000000000
30
0.0
11
2240.146000000000
21
1455.187000000000
31
0.0
0
LINE
5
7ce
100
AcDbEntity
8
0-8寸法
6
CONTINUOUS
62
4
100
AcDbLine
10
2165.843000000000
20
1445.187000000000
30
0.0
11
2218.811000000000
21
1445.187000000000
31
0.0
0
LINE
5
7cf
100
AcDbEntity
8
0-8寸法
6
CONTINUOUS
62
4
100
AcDbLine
10
2178.349000000000
20
1435.187000000000
30
0.0
11
2204.098000000000
21
1435.187000000000
31
0.0
0
LINE
5
7d0
100
AcDbEntity
8
0-8寸法
6
CONTINUOUS
62
4
100
AcDbLine
10
2067.976000000000
20
1485.187000000000
30
0.0
11
2015.094000000000
21
1485.187000000000
31
0.0
0
LINE
5
7d1
100
AcDbEntity
8
0-8寸法
6
CONTINUOUS
62
4
100
AcDbLine
10
2025.094000000000
20
690.188000000000
30
0.0
11
2019.918000000000
21
709.506000000000
31
0.0
0
LINE
5
7d2
100
AcDbEntity
8
0-8寸法
6
CONTINUOUS
62
4
100
AcDbLine
10
2025.094000000000
20
690.188000000000
30
0.0
11
2030.271000000000
21
709.506000000000
31
0.0
0
LINE
5
7d3
100
AcDbEntity
8
0-8寸法
6
CONTINUOUS
62
4
100
AcDbLine
10
2025.094000000000
20
1485.187000000000
30
0.0
11
2019.918000000000
21
1465.869000000000
31
0.0
0
LINE
5
7d4
100
AcDbEntity
8
0-8寸法
6
CONTINUOUS
62
4
100
AcDbLine
10
2025.094000000000
20
1485.187000000000
30
0.0
11
2030.271000000000
21
1465.869000000000
31
0.0
0
LINE
5
7d5
100
AcDbEntity
8
0-9扉体
6
CONTINUOUS
62
4
100
AcDbLine
10
2499.095000000000
20
976.115000000000
30
0.0
11
2499.095000000000
21
685.188000000000
31
0.0
0
LINE
5
7d6
100
AcDbEntity
8
0-8寸法
6
CONTINUOUS
62
4
100
AcDbLine
10
2354.095000000000
20
1335.187000000000
30
0.0
11
2348.918000000000
21
1315.869000000000
31
0.0
0
LINE
5
7d7
100
AcDbEntity
8
0-8寸法
6
CONTINUOUS
62
4
100
AcDbLine
10
2354.095000000000
20
1335.187000000000
30
0.0
11
2359.271000000000
21
1315.869000000000
31
0.0
0
LINE
5
7d8
100
AcDbEntity
8
0-8寸法
6
CONTINUOUS
62
4
100
AcDbLine
10
2354.095000000000
20
1435.188000000000
30
0.0
11
2348.918000000000
21
1454.506000000000
31
0.0
0
LINE
5
7d9
100
AcDbEntity
8
0-8寸法
6
CONTINUOUS
62
4
100
AcDbLine
10
2354.095000000000
20
1435.188000000000
30
0.0
11
2359.271000000000
21
1454.506000000000
31
0.0
0
LINE
5
7da
100
AcDbEntity
8
0-8寸法
6
CONTINUOUS
62
4
100
AcDbLine
10
2354.095000000000
20
1264.839000000000
30
0.0
11
2354.095000000000
21
1503.836000000000
31
0.0
0
LINE
5
7db
100
AcDbEntity
8
0-9扉体
6
CONTINUOUS
62
4
100
AcDbLine
10
2437.095000000000
20
1394.188000000000
30
0.0
11
2437.095000000000
21
1385.188000000000
31
0.0
0
LINE
5
7dc
100
AcDbEntity
8
0-9扉体
6
CONTINUOUS
62
4
100
AcDbLine
10
2437.095000000000
20
1394.188000000000
30
0.0
11
2487.094000000000
21
1394.188000000000
31
0.0
0
LINE
5
7dd
100
AcDbEntity
8
0-9扉体
6
CONTINUOUS
62
4
100
AcDbLine
10
2499.095000000000
20
685.188000000000
30
0.0
11
2505.094000000000
21
685.188000000000
31
0.0
0
LINE
5
7de
100
AcDbEntity
8
0-9扉体
6
CONTINUOUS
62
4
100
AcDbLine
10
2435.595000000000
20
1320.188000000000
30
0.0
11
2434.095000000000
21
1320.188000000000
31
0.0
0
LINE
5
7df
100
AcDbEntity
8
0-9扉体
6
CONTINUOUS
62
4
100
AcDbLine
10
2440.095000000000
20
1373.187000000000
30
0.0
11
2440.095000000000
21
1324.687000000000
31
0.0
0
LINE
5
7e0
100
AcDbEntity
8
0-9扉体
6
CONTINUOUS
62
4
100
AcDbLine
10
2446.094000000000
20
1379.187000000000
30
0.0
11
2494.595000000000
21
1379.187000000000
31
0.0
0
LINE
5
7e1
100
AcDbEntity
8
0-9扉体
6
CONTINUOUS
62
4
100
AcDbLine
10
2434.095000000000
20
1385.188000000000
30
0.0
11
2499.095000000000
21
1385.188000000000
31
0.0
0
LINE
5
7e2
100
AcDbEntity
8
0-9扉体
6
CONTINUOUS
62
4
100
AcDbLine
10
2434.095000000000
20
1385.188000000000
30
0.0
11
2434.095000000000
21
690.188000000000
31
0.0
0
LINE
5
7e3
100
AcDbEntity
8
0-9扉体
6
CONTINUOUS
62
4
100
AcDbLine
10
2435.595000000000
20
755.188000000000
30
0.0
11
2434.095000000000
21
755.188000000000
31
0.0
0
LINE
5
7e4
100
AcDbEntity
8
0-9扉体
6
CONTINUOUS
62
4
100
AcDbLine
10
2440.095000000000
20
702.188000000000
30
0.0
11
2440.095000000000
21
750.688000000000
31
0.0
0
LINE
5
7e5
100
AcDbEntity
8
0-9扉体
6
CONTINUOUS
62
4
100
AcDbLine
10
2446.094000000000
20
696.188000000000
30
0.0
11
2494.595000000000
21
696.188000000000
31
0.0
0
LINE
5
7e6
100
AcDbEntity
8
0-9扉体
6
CONTINUOUS
62
4
100
AcDbLine
10
2434.095000000000
20
690.188000000000
30
0.0
11
2499.095000000000
21
690.188000000000
31
0.0
0
LINE
5
7e7
100
AcDbEntity
8
0-8寸法
6
CONTINUOUS
62
4
100
AcDbLine
10
2025.094000000000
20
690.188000000000
30
0.0
11
2025.094000000000
21
1485.187000000000
31
0.0
0
LINE
5
7e8
100
AcDbEntity
8
0-8寸法
6
CONTINUOUS
62
4
100
AcDbLine
10
2434.095000000000
20
1085.188000000000
30
0.0
11
2453.413000000000
21
1090.364000000000
31
0.0
0
LINE
5
7e9
100
AcDbEntity
8
0-8寸法
6
CONTINUOUS
62
4
100
AcDbLine
10
2434.095000000000
20
1085.188000000000
30
0.0
11
2453.413000000000
21
1080.011000000000
31
0.0
0
LINE
5
7ea
100
AcDbEntity
8
0-8寸法
6
CONTINUOUS
62
4
100
AcDbLine
10
2499.095000000000
20
1085.188000000000
30
0.0
11
2479.776000000000
21
1080.011000000000
31
0.0
0
LINE
5
7eb
100
AcDbEntity
8
0-8寸法
6
CONTINUOUS
62
4
100
AcDbLine
10
2505.095000000000
20
1085.188000000000
30
0.0
11
2524.413000000000
21
1090.364000000000
31
0.0
0
LINE
5
7ec
100
AcDbEntity
8
0-8寸法
6
CONTINUOUS
62
4
100
AcDbLine
10
2505.095000000000
20
1085.188000000000
30
0.0
11
2524.413000000000
21
1080.011000000000
31
0.0
0
LINE
5
7ed
100
AcDbEntity
8
0-8寸法
6
CONTINUOUS
62
4
100
AcDbLine
10
2499.095000000000
20
1085.188000000000
30
0.0
11
2479.776000000000
21
1090.364000000000
31
0.0
0
LINE
5
7ee
100
AcDbEntity
8
0-9扉体
6
CONTINUOUS
62
4
100
AcDbLine
10
2499.095000000000
20
1390.188000000000
30
0.0
11
2499.095000000000
21
998.928000000000
31
0.0
0
LINE
5
7ef
100
AcDbEntity
8
0-8寸法
6
CONTINUOUS
62
4
100
AcDbLine
10
2424.095000000000
20
1385.188000000000
30
0.0
11
2344.095000000000
21
1385.188000000000
31
0.0
0
LINE
5
7f0
100
AcDbEntity
8
0-8寸法
6
CONTINUOUS
62
4
100
AcDbLine
10
2424.095000000000
20
1335.187000000000
30
0.0
11
2344.095000000000
21
1335.187000000000
31
0.0
0
LINE
5
7f1
100
AcDbEntity
8
0-8寸法
6
CONTINUOUS
62
4
100
AcDbLine
10
2444.721000000000
20
1435.188000000000
30
0.0
11
2344.095000000000
21
1435.188000000000
31
0.0
0
LINE
5
7f2
100
AcDbEntity
8
0-8寸法
6
CONTINUOUS
62
4
100
AcDbLine
10
2424.095000000000
20
690.188000000000
30
0.0
11
2015.094000000000
21
690.188000000000
31
0.0
0
LINE
5
7f3
100
AcDbEntity
8
0-8寸法
6
CONTINUOUS
62
4
100
AcDbLine
10
2434.095000000000
20
1085.188000000000
30
0.0
11
2583.130000000000
21
1085.188000000000
31
0.0
0
LINE
5
7f4
100
AcDbEntity
8
0-6戸当り
6
DOT
62
6
100
AcDbLine
10
2501.594000000000
20
1419.188000000000
30
0.0
11
2480.094000000000
21
1419.188000000000
31
0.0
0
LINE
5
7f5
100
AcDbEntity
8
0-6戸当り
6
DOT
62
6
100
AcDbLine
10
2501.594000000000
20
1427.188000000000
30
0.0
11
2480.094000000000
21
1427.188000000000
31
0.0
0
LINE
5
7f6
100
AcDbEntity
8
0-6戸当り
6
DOT
62
6
100
AcDbLine
10
2480.094000000000
20
1445.188000000000
30
0.0
11
2501.594000000000
21
1445.188000000000
31
0.0
0
LINE
5
7f7
100
AcDbEntity
8
0-6戸当り
6
DOT
62
6
100
AcDbLine
10
2501.594000000000
20
1453.188000000000
30
0.0
11
2480.094000000000
21
1453.188000000000
31
0.0
0
LINE
5
7f8
100
AcDbEntity
8
0-6戸当り
6
CONTINUOUS
62
6
100
AcDbLine
10
2501.594000000000
20
1453.188000000000
30
0.0
11
2525.095000000000
21
1453.188000000000
31
0.0
0
LINE
5
7f9
100
AcDbEntity
8
0-6戸当り
6
CONTINUOUS
62
6
100
AcDbLine
10
2501.594000000000
20
1445.188000000000
30
0.0
11
2525.095000000000
21
1445.188000000000
31
0.0
0
LINE
5
7fa
100
AcDbEntity
8
0-6戸当り
6
CONTINUOUS
62
6
100
AcDbLine
10
2501.594000000000
20
1427.188000000000
30
0.0
11
2525.095000000000
21
1427.188000000000
31
0.0
0
LINE
5
7fb
100
AcDbEntity
8
0-6戸当り
6
CONTINUOUS
62
6
100
AcDbLine
10
2501.594000000000
20
1419.188000000000
30
0.0
11
2525.095000000000
21
1419.188000000000
31
0.0
0
LINE
5
7fc
100
AcDbEntity
8
0-8寸法
6
CONTINUOUS
62
4
100
AcDbLine
10
2484.095000000000
20
1685.188000000000
30
0.0
11
2464.776000000000
21
1690.364000000000
31
0.0
0
LINE
5
7fd
100
AcDbEntity
8
0-8寸法
6
CONTINUOUS
62
4
100
AcDbLine
10
2484.095000000000
20
1685.188000000000
30
0.0
11
2464.776000000000
21
1680.011000000000
31
0.0
0
LINE
5
7fe
100
AcDbEntity
8
0-8寸法
6
CONTINUOUS
62
4
100
AcDbLine
10
2525.095000000000
20
1685.188000000000
30
0.0
11
2404.254000000000
21
1685.188000000000
31
0.0
0
LINE
5
7ff
100
AcDbEntity
8
0-8寸法
6
CONTINUOUS
62
4
100
AcDbLine
10
2484.095000000000
20
1472.715000000000
30
0.0
11
2484.095000000000
21
1695.188000000000
31
0.0
0
LINE
5
800
100
AcDbEntity
8
0-8寸法
6
CONTINUOUS
62
4
100
AcDbLine
10
1701.678000000000
20
1610.188000000000
30
0.0
11
2288.947000000000
21
1610.188000000000
31
0.0
0
LINE
5
801
100
AcDbEntity
8
0-6戸当り
6
CONTINUOUS
62
7
100
AcDbLine
10
2632.094000000000
20
1459.187000000000
30
0.0
11
2620.095000000000
21
1471.187000000000
31
0.0
0
LINE
5
802
100
AcDbEntity
8
0-6戸当り
6
CONTINUOUS
62
7
100
AcDbLine
10
2537.264000000000
20
1459.187000000000
30
0.0
11
2632.094000000000
21
1459.187000000000
31
0.0
0
LINE
5
803
100
AcDbEntity
8
0-6戸当り
6
CONTINUOUS
62
7
100
AcDbLine
10
2537.095000000000
20
1471.187000000000
30
0.0
11
2620.095000000000
21
1471.187000000000
31
0.0
0
LINE
5
804
100
AcDbEntity
8
0-6戸当り
6
CONTINUOUS
62
7
100
AcDbLine
10
2537.264000000000
20
1460.187000000000
30
0.0
11
2631.094000000000
21
1460.187000000000
31
0.0
0
LINE
5
805
100
AcDbEntity
8
0-6戸当り
6
CONTINUOUS
62
7
100
AcDbLine
10
2537.095000000000
20
1470.187000000000
30
0.0
11
2621.095000000000
21
1470.187000000000
31
0.0
0
LINE
5
806
100
AcDbEntity
8
0-6戸当り
6
CONTINUOUS
62
7
100
AcDbLine
10
1303.163000000000
20
1470.672000000000
30
0.0
11
1293.663000000000
21
1476.157000000000
31
0.0
0
LINE
5
807
100
AcDbEntity
8
0-6戸当り
6
CONTINUOUS
62
7
100
AcDbLine
10
1303.163000000000
20
1470.672000000000
30
0.0
11
1303.163000000000
21
1459.703000000000
31
0.0
0
LINE
5
808
100
AcDbEntity
8
0-6戸当り
6
CONTINUOUS
62
7
100
AcDbLine
10
1293.663000000000
20
1454.218000000000
30
0.0
11
1303.163000000000
21
1459.703000000000
31
0.0
0
POLYLINE
5
809
100
AcDbEntity
8
0-6戸当り
6
CONTINUOUS
62
  7
100
AcDb2dPolyline
66
1
10
0.0
20
0.0
30
0.0
70
0
0
VERTEX
5
80a
100
AcDbEntity
8
0-6戸当り
6
CONTINUOUS
62
  7
100
AcDbVertex
100
AcDb2dVertex
10
1293.663000000000
20
1454.218000000000
30
0.0
0
VERTEX
5
80b
100
AcDbEntity
8
0-6戸当り
6
CONTINUOUS
62
  7
100
AcDbVertex
100
AcDb2dVertex
10
1284.163000000000
20
1459.703000000000
30
0.0
0
VERTEX
5
80c
100
AcDbEntity
8
0-6戸当り
6
CONTINUOUS
62
  7
100
AcDbVertex
100
AcDb2dVertex
10
1284.163000000000
20
1470.672000000000
30
0.0
0
VERTEX
5
80d
100
AcDbEntity
8
0-6戸当り
6
CONTINUOUS
62
  7
100
AcDbVertex
100
AcDb2dVertex
10
1293.663000000000
20
1476.157000000000
30
0.0
0
SEQEND
5
80e
100
AcDbEntity
8
0-6戸当り
0
LINE
5
80f
100
AcDbEntity
8
0-5基準線
6
CENTER2
62
7
100
AcDbLine
10
1293.663000000000
20
1482.188000000000
30
0.0
11
1293.663000000000
21
1448.188000000000
31
0.0
0
LINE
5
810
100
AcDbEntity
8
0-5基準線
6
CENTER2
62
7
100
AcDbLine
10
1310.663000000000
20
1465.188000000000
30
0.0
11
1276.663000000000
21
1465.188000000000
31
0.0
0
LINE
5
811
100
AcDbEntity
8
0-9扉体
6
CONTINUOUS
62
7
100
AcDbLine
10
1268.663000000000
20
1385.188000000000
30
0.0
11
1268.663000000000
21
1425.188000000000
31
0.0
0
LINE
5
812
100
AcDbEntity
8
0-9扉体
6
CONTINUOUS
62
7
100
AcDbLine
10
1318.663000000000
20
1425.188000000000
30
0.0
11
1318.663000000000
21
1385.188000000000
31
0.0
0
LINE
5
813
100
AcDbEntity
8
F-F_J_ADD
6
HIDDEN
62
7
100
AcDbLine
10
1268.663000000000
20
1385.188000000000
30
0.0
11
1318.663000000000
21
1385.188000000000
31
0.0
0
LINE
5
814
100
AcDbEntity
8
0-5基準線
6
CENTER2
62
7
100
AcDbLine
10
1255.010000000000
20
1410.188000000000
30
0.0
11
1332.317000000000
21
1410.188000000000
31
0.0
0
LINE
5
815
100
AcDbEntity
8
0-9扉体
6
CONTINUOUS
62
4
100
AcDbLine
10
1318.663000000000
20
1390.188000000000
30
0.0
11
1433.663000000000
21
1390.188000000000
31
0.0
0
LINE
5
816
100
AcDbEntity
8
0-6戸当り
6
CONTINUOUS
62
7
100
AcDbLine
10
1024.663000000000
20
2399.647000000000
30
0.0
11
1012.663000000000
21
2387.647000000000
31
0.0
0
LINE
5
817
100
AcDbEntity
8
0-6戸当り
6
CONTINUOUS
62
7
100
AcDbLine
10
1024.663000000000
20
2304.816000000000
30
0.0
11
1024.663000000000
21
2399.647000000000
31
0.0
0
LINE
5
818
100
AcDbEntity
8
0-6戸当り
6
CONTINUOUS
62
7
100
AcDbLine
10
1012.663000000000
20
2304.647000000000
30
0.0
11
1012.663000000000
21
2387.647000000000
31
0.0
0
LINE
5
819
100
AcDbEntity
8
0-6戸当り
6
CONTINUOUS
62
7
100
AcDbLine
10
1023.663000000000
20
2304.816000000000
30
0.0
11
1023.663000000000
21
2398.647000000000
31
0.0
0
LINE
5
81a
100
AcDbEntity
8
0-6戸当り
6
CONTINUOUS
62
7
100
AcDbLine
10
1013.663000000000
20
2304.647000000000
30
0.0
11
1013.663000000000
21
2388.647000000000
31
0.0
0
CIRCLE
5
81b
100
AcDbEntity
8
0-6戸当り
6
CONTINUOUS
62
6
100
AcDbCircle
10
1018.663000000000
20
1465.188000000000
30
0.0
40
6.000000000000
0
CIRCLE
5
81c
100
AcDbEntity
8
0-6戸当り
6
CONTINUOUS
62
6
100
AcDbCircle
10
1018.663000000000
20
1465.188000000000
30
0.0
40
5.000000000000
0
ARC
5
81d
100
AcDbEntity
8
0-9扉体
6
CONTINUOUS
62
3
100
AcDbCircle
10
1633.663000000000
20
2282.647000000000
30
0.0
40
10.000000000000
100
AcDbArc
50
270.000000000000
51
540.000000000000
0
CIRCLE
5
81e
100
AcDbEntity
8
0-9扉体
6
CONTINUOUS
62
3
100
AcDbCircle
10
1633.663000000000
20
2282.647000000000
30
0.0
40
4.000000000000
0
ARC
5
81f
100
AcDbEntity
8
0-9扉体
6
CONTINUOUS
62
7
100
AcDbCircle
10
1603.663000000000
20
2270.966000000000
30
0.0
40
12.419000000000
100
AcDbArc
50
252.412000000000
51
287.588000000000
0
ARC
5
820
100
AcDbEntity
8
0-9扉体
6
CONTINUOUS
62
7
100
AcDbCircle
10
1598.034000000000
20
2261.870000000000
30
0.0
40
3.323000000000
100
AcDbArc
50
244.386000000000
51
304.385000000000
0
ARC
5
821
100
AcDbEntity
8
0-9扉体
6
CONTINUOUS
62
7
100
AcDbCircle
10
1609.292000000000
20
2261.870000000000
30
0.0
40
3.323000000000
100
AcDbArc
50
235.615000000000
51
295.614000000000
0
ARC
5
822
100
AcDbEntity
8
0-9扉体
6
CONTINUOUS
62
4
100
AcDbCircle
10
1631.663000000000
20
2218.647000000000
30
0.0
40
6.000000000000
100
AcDbArc
50
270.000000000000
51
360.000000000000
0
ARC
5
823
100
AcDbEntity
8
0-9扉体
6
CONTINUOUS
62
4
100
AcDbCircle
10
1586.663000000000
20
2209.647000000000
30
0.0
40
3.000000000000
100
AcDbArc
50
90.000000000000
51
180.000000000000
0
ARC
5
824
100
AcDbEntity
8
0-9扉体
6
CONTINUOUS
62
4
100
AcDbCircle
10
1640.663000000000
20
2263.647000000000
30
0.0
40
3.000000000000
100
AcDbArc
50
90.000000000000
51
180.000000000000
0
ARC
5
825
100
AcDbEntity
8
0-6戸当り
6
CONTINUOUS
62
7
100
AcDbCircle
10
2531.736000000000
20
655.188000000000
30
0.0
40
16.241000000000
100
AcDbArc
50
162.412000000000
51
197.588000000000
0
ARC
5
826
100
AcDbEntity
8
0-6戸当り
6
CONTINUOUS
62
7
100
AcDbCircle
10
2519.840000000000
20
662.548000000000
30
0.0
40
4.345000000000
100
AcDbArc
50
154.383000000000
51
214.383000000000
0
ARC
5
827
100
AcDbEntity
8
0-6戸当り
6
CONTINUOUS
62
7
100
AcDbCircle
10
2519.840000000000
20
647.826000000000
30
0.0
40
4.345000000000
100
AcDbArc
50
145.616000000000
51
205.616000000000
0
ARC
5
828
100
AcDbEntity
8
0-6戸当り
6
CONTINUOUS
62
2
100
AcDbCircle
10
2530.173000000000
20
655.188000000000
30
0.0
40
20.000000000000
100
AcDbArc
50
165.522000000000
51
194.478000000000
0
CIRCLE
5
829
100
AcDbEntity
8
0-6戸当り
6
CONTINUOUS
62
3
100
AcDbCircle
10
1673.663000000000
20
655.187000000000
30
0.0
40
11.000000000000
0
CIRCLE
5
82a
100
AcDbEntity
8
0-6戸当り
6
CONTINUOUS
62
3
100
AcDbCircle
10
1673.663000000000
20
655.187000000000
30
0.0
40
5.000000000000
0
CIRCLE
5
82b
100
AcDbEntity
8
0-6戸当り
6
CONTINUOUS
62
3
100
AcDbCircle
10
1673.663000000000
20
655.187000000000
30
0.0
40
4.000000000000
0
CIRCLE
5
82c
100
AcDbEntity
8
0-6戸当り
6
CONTINUOUS
62
3
100
AcDbCircle
10
1673.663000000000
20
655.187000000000
30
0.0
40
8.487000000000
0
CIRCLE
5
82d
100
AcDbEntity
8
0-6戸当り
6
CONTINUOUS
62
3
100
AcDbCircle
10
913.663000000000
20
655.187000000000
30
0.0
40
11.000000000000
0
CIRCLE
5
82e
100
AcDbEntity
8
0-6戸当り
6
CONTINUOUS
62
3
100
AcDbCircle
10
913.663000000000
20
655.187000000000
30
0.0
40
5.000000000000
0
CIRCLE
5
82f
100
AcDbEntity
8
0-6戸当り
6
CONTINUOUS
62
3
100
AcDbCircle
10
913.663000000000
20
655.187000000000
30
0.0
40
4.000000000000
0
CIRCLE
5
830
100
AcDbEntity
8
0-6戸当り
6
CONTINUOUS
62
3
100
AcDbCircle
10
913.663000000000
20
655.187000000000
30
0.0
40
8.487000000000
0
CIRCLE
5
831
100
AcDbEntity
8
0-6戸当り
6
CONTINUOUS
62
3
100
AcDbCircle
10
1093.663000000000
20
655.187000000000
30
0.0
40
11.000000000000
0
CIRCLE
5
832
100
AcDbEntity
8
0-6戸当り
6
CONTINUOUS
62
3
100
AcDbCircle
10
1093.663000000000
20
655.187000000000
30
0.0
40
5.000000000000
0
CIRCLE
5
833
100
AcDbEntity
8
0-6戸当り
6
CONTINUOUS
62
3
100
AcDbCircle
10
1093.663000000000
20
655.187000000000
30
0.0
40
4.000000000000
0
CIRCLE
5
834
100
AcDbEntity
8
0-6戸当り
6
CONTINUOUS
62
3
100
AcDbCircle
10
1093.663000000000
20
655.187000000000
30
0.0
40
8.487000000000
0
CIRCLE
5
835
100
AcDbEntity
8
0-6戸当り
6
CONTINUOUS
62
6
100
AcDbCircle
10
1018.663000000000
20
1465.188000000000
30
0.0
40
13.000000000000
0
CIRCLE
5
836
100
AcDbEntity
8
0-6戸当り
6
CONTINUOUS
62
3
100
AcDbCircle
10
913.663000000000
20
1415.187000000000
30
0.0
40
11.000000000000
0
CIRCLE
5
837
100
AcDbEntity
8
0-6戸当り
6
CONTINUOUS
62
3
100
AcDbCircle
10
913.663000000000
20
1415.187000000000
30
0.0
40
5.000000000000
0
CIRCLE
5
838
100
AcDbEntity
8
0-6戸当り
6
CONTINUOUS
62
3
100
AcDbCircle
10
913.663000000000
20
1415.187000000000
30
0.0
40
4.000000000000
0
CIRCLE
5
839
100
AcDbEntity
8
0-6戸当り
6
CONTINUOUS
62
3
100
AcDbCircle
10
913.663000000000
20
1415.187000000000
30
0.0
40
8.487000000000
0
CIRCLE
5
83a
100
AcDbEntity
8
0-6戸当り
6
CONTINUOUS
62
3
100
AcDbCircle
10
1673.663000000000
20
1415.187000000000
30
0.0
40
11.000000000000
0
CIRCLE
5
83b
100
AcDbEntity
8
0-6戸当り
6
CONTINUOUS
62
3
100
AcDbCircle
10
1673.663000000000
20
1415.187000000000
30
0.0
40
5.000000000000
0
CIRCLE
5
83c
100
AcDbEntity
8
0-6戸当り
6
CONTINUOUS
62
3
100
AcDbCircle
10
1673.663000000000
20
1415.187000000000
30
0.0
40
4.000000000000
0
CIRCLE
5
83d
100
AcDbEntity
8
0-6戸当り
6
CONTINUOUS
62
3
100
AcDbCircle
10
1673.663000000000
20
1415.187000000000
30
0.0
40
8.487000000000
0
CIRCLE
5
83e
100
AcDbEntity
8
0-6戸当り
6
CONTINUOUS
62
7
100
AcDbCircle
10
1568.663000000000
20
1465.188000000000
30
0.0
40
9.500000000000
0
CIRCLE
5
83f
100
AcDbEntity
8
0-6戸当り
6
CONTINUOUS
62
6
100
AcDbCircle
10
1568.663000000000
20
1465.188000000000
30
0.0
40
6.000000000000
0
CIRCLE
5
840
100
AcDbEntity
8
0-6戸当り
6
CONTINUOUS
62
6
100
AcDbCircle
10
1568.663000000000
20
1465.188000000000
30
0.0
40
5.000000000000
0
CIRCLE
5
841
100
AcDbEntity
8
0-6戸当り
6
CONTINUOUS
62
6
100
AcDbCircle
10
1568.663000000000
20
1465.188000000000
30
0.0
40
13.000000000000
0
ARC
5
842
100
AcDbEntity
8
0-9扉体
6
CONTINUOUS
62
3
100
AcDbCircle
10
953.663000000000
20
2282.647000000000
30
0.0
40
10.000000000000
100
AcDbArc
50
90.000000000000
51
270.000000000000
0
ARC
5
843
100
AcDbEntity
8
0-6戸当り
6
CONTINUOUS
62
7
100
AcDbCircle
10
1673.663000000000
20
2299.288000000000
30
0.0
40
16.241000000000
100
AcDbArc
50
252.412000000000
51
287.588000000000
0
ARC
5
844
100
AcDbEntity
8
0-6戸当り
6
CONTINUOUS
62
7
100
AcDbCircle
10
1666.302000000000
20
2287.392000000000
30
0.0
40
4.345000000000
100
AcDbArc
50
244.383000000000
51
304.383000000000
0
ARC
5
845
100
AcDbEntity
8
0-6戸当り
6
CONTINUOUS
62
7
100
AcDbCircle
10
1681.024000000000
20
2287.392000000000
30
0.0
40
4.345000000000
100
AcDbArc
50
235.616000000000
51
295.616000000000
0
ARC
5
846
100
AcDbEntity
8
0-6戸当り
6
CONTINUOUS
62
2
100
AcDbCircle
10
1673.663000000000
20
2297.726000000000
30
0.0
40
20.000000000000
100
AcDbArc
50
255.522000000000
51
284.478000000000
0
ARC
5
847
100
AcDbEntity
8
0-6戸当り
6
CONTINUOUS
62
7
100
AcDbCircle
10
913.663000000000
20
2299.288000000000
30
0.0
40
16.241000000000
100
AcDbArc
50
252.412000000000
51
287.588000000000
0
ARC
5
848
100
AcDbEntity
8
0-6戸当り
6
CONTINUOUS
62
7
100
AcDbCircle
10
921.023000000000
20
2287.392000000000
30
0.0
40
4.345000000000
100
AcDbArc
50
235.617000000000
51
295.617000000000
0
ARC
5
849
100
AcDbEntity
8
0-6戸当り
6
CONTINUOUS
62
7
100
AcDbCircle
10
906.302000000000
20
2287.392000000000
30
0.0
40
4.345000000000
100
AcDbArc
50
244.384000000000
51
304.384000000000
0
ARC
5
84a
100
AcDbEntity
8
0-6戸当り
6
CONTINUOUS
62
2
100
AcDbCircle
10
913.663000000000
20
2297.726000000000
30
0.0
40
20.000000000000
100
AcDbArc
50
255.522000000000
51
284.478000000000
0
CIRCLE
5
84b
100
AcDbEntity
8
0-6戸当り
6
CONTINUOUS
62
3
100
AcDbCircle
10
1293.663000000000
20
655.187000000000
30
0.0
40
11.000000000000
0
CIRCLE
5
84c
100
AcDbEntity
8
0-6戸当り
6
CONTINUOUS
62
3
100
AcDbCircle
10
1293.663000000000
20
655.187000000000
30
0.0
40
5.000000000000
0
CIRCLE
5
84d
100
AcDbEntity
8
0-6戸当り
6
CONTINUOUS
62
3
100
AcDbCircle
10
1293.663000000000
20
655.187000000000
30
0.0
40
4.000000000000
0
CIRCLE
5
84e
100
AcDbEntity
8
0-6戸当り
6
CONTINUOUS
62
3
100
AcDbCircle
10
1293.663000000000
20
655.187000000000
30
0.0
40
8.487000000000
0
CIRCLE
5
84f
100
AcDbEntity
8
0-6戸当り
6
CONTINUOUS
62
3
100
AcDbCircle
10
1493.663000000000
20
655.187000000000
30
0.0
40
11.000000000000
0
CIRCLE
5
850
100
AcDbEntity
8
0-6戸当り
6
CONTINUOUS
62
3
100
AcDbCircle
10
1493.663000000000
20
655.187000000000
30
0.0
40
5.000000000000
0
CIRCLE
5
851
100
AcDbEntity
8
0-6戸当り
6
CONTINUOUS
62
3
100
AcDbCircle
10
1493.663000000000
20
655.187000000000
30
0.0
40
4.000000000000
0
CIRCLE
5
852
100
AcDbEntity
8
0-6戸当り
6
CONTINUOUS
62
3
100
AcDbCircle
10
1493.663000000000
20
655.187000000000
30
0.0
40
8.487000000000
0
CIRCLE
5
853
100
AcDbEntity
8
0-6戸当り
6
CONTINUOUS
62
3
100
AcDbCircle
10
913.663000000000
20
1235.188000000000
30
0.0
40
11.000000000000
0
CIRCLE
5
854
100
AcDbEntity
8
0-6戸当り
6
CONTINUOUS
62
3
100
AcDbCircle
10
913.663000000000
20
1235.188000000000
30
0.0
40
5.000000000000
0
CIRCLE
5
855
100
AcDbEntity
8
0-6戸当り
6
CONTINUOUS
62
3
100
AcDbCircle
10
913.663000000000
20
1235.188000000000
30
0.0
40
4.000000000000
0
CIRCLE
5
856
100
AcDbEntity
8
0-6戸当り
6
CONTINUOUS
62
3
100
AcDbCircle
10
913.663000000000
20
1235.188000000000
30
0.0
40
8.487000000000
0
CIRCLE
5
857
100
AcDbEntity
8
0-6戸当り
6
CONTINUOUS
62
3
100
AcDbCircle
10
913.663000000000
20
1035.188000000000
30
0.0
40
11.000000000000
0
CIRCLE
5
858
100
AcDbEntity
8
0-6戸当り
6
CONTINUOUS
62
3
100
AcDbCircle
10
913.663000000000
20
1035.188000000000
30
0.0
40
5.000000000000
0
CIRCLE
5
859
100
AcDbEntity
8
0-6戸当り
6
CONTINUOUS
62
3
100
AcDbCircle
10
913.663000000000
20
1035.188000000000
30
0.0
40
4.000000000000
0
CIRCLE
5
85a
100
AcDbEntity
8
0-6戸当り
6
CONTINUOUS
62
3
100
AcDbCircle
10
913.663000000000
20
1035.188000000000
30
0.0
40
8.487000000000
0
CIRCLE
5
85b
100
AcDbEntity
8
0-6戸当り
6
CONTINUOUS
62
3
100
AcDbCircle
10
913.663000000000
20
835.188000000000
30
0.0
40
11.000000000000
0
CIRCLE
5
85c
100
AcDbEntity
8
0-6戸当り
6
CONTINUOUS
62
3
100
AcDbCircle
10
913.663000000000
20
835.188000000000
30
0.0
40
5.000000000000
0
CIRCLE
5
85d
100
AcDbEntity
8
0-6戸当り
6
CONTINUOUS
62
3
100
AcDbCircle
10
913.663000000000
20
835.188000000000
30
0.0
40
4.000000000000
0
CIRCLE
5
85e
100
AcDbEntity
8
0-6戸当り
6
CONTINUOUS
62
3
100
AcDbCircle
10
913.663000000000
20
835.188000000000
30
0.0
40
8.487000000000
0
CIRCLE
5
85f
100
AcDbEntity
8
0-6戸当り
6
CONTINUOUS
62
3
100
AcDbCircle
10
1673.663000000000
20
1235.188000000000
30
0.0
40
11.000000000000
0
CIRCLE
5
860
100
AcDbEntity
8
0-6戸当り
6
CONTINUOUS
62
3
100
AcDbCircle
10
1673.663000000000
20
1235.188000000000
30
0.0
40
5.000000000000
0
CIRCLE
5
861
100
AcDbEntity
8
0-6戸当り
6
CONTINUOUS
62
3
100
AcDbCircle
10
1673.663000000000
20
1235.188000000000
30
0.0
40
4.000000000000
0
CIRCLE
5
862
100
AcDbEntity
8
0-6戸当り
6
CONTINUOUS
62
3
100
AcDbCircle
10
1673.663000000000
20
1235.188000000000
30
0.0
40
8.487000000000
0
CIRCLE
5
863
100
AcDbEntity
8
0-6戸当り
6
CONTINUOUS
62
3
100
AcDbCircle
10
1673.663000000000
20
1035.188000000000
30
0.0
40
11.000000000000
0
CIRCLE
5
864
100
AcDbEntity
8
0-6戸当り
6
CONTINUOUS
62
3
100
AcDbCircle
10
1673.663000000000
20
1035.188000000000
30
0.0
40
5.000000000000
0
CIRCLE
5
865
100
AcDbEntity
8
0-6戸当り
6
CONTINUOUS
62
3
100
AcDbCircle
10
1673.663000000000
20
1035.188000000000
30
0.0
40
4.000000000000
0
CIRCLE
5
866
100
AcDbEntity
8
0-6戸当り
6
CONTINUOUS
62
3
100
AcDbCircle
10
1673.663000000000
20
1035.188000000000
30
0.0
40
8.487000000000
0
CIRCLE
5
867
100
AcDbEntity
8
0-6戸当り
6
CONTINUOUS
62
3
100
AcDbCircle
10
1673.663000000000
20
835.188000000000
30
0.0
40
11.000000000000
0
CIRCLE
5
868
100
AcDbEntity
8
0-6戸当り
6
CONTINUOUS
62
3
100
AcDbCircle
10
1673.663000000000
20
835.188000000000
30
0.0
40
5.000000000000
0
CIRCLE
5
869
100
AcDbEntity
8
0-6戸当り
6
CONTINUOUS
62
3
100
AcDbCircle
10
1673.663000000000
20
835.188000000000
30
0.0
40
4.000000000000
0
CIRCLE
5
86a
100
AcDbEntity
8
0-6戸当り
6
CONTINUOUS
62
3
100
AcDbCircle
10
1673.663000000000
20
835.188000000000
30
0.0
40
8.487000000000
0
CIRCLE
5
86b
100
AcDbEntity
8
0-6戸当り
6
CONTINUOUS
62
3
100
AcDbCircle
10
993.663000000000
20
1415.187000000000
30
0.0
40
11.000000000000
0
CIRCLE
5
86c
100
AcDbEntity
8
0-6戸当り
6
CONTINUOUS
62
3
100
AcDbCircle
10
993.663000000000
20
1415.187000000000
30
0.0
40
5.000000000000
0
CIRCLE
5
86d
100
AcDbEntity
8
0-6戸当り
6
CONTINUOUS
62
3
100
AcDbCircle
10
993.663000000000
20
1415.187000000000
30
0.0
40
4.000000000000
0
CIRCLE
5
86e
100
AcDbEntity
8
0-6戸当り
6
CONTINUOUS
62
3
100
AcDbCircle
10
993.663000000000
20
1415.187000000000
30
0.0
40
8.487000000000
0
CIRCLE
5
86f
100
AcDbEntity
8
0-6戸当り
6
CONTINUOUS
62
3
100
AcDbCircle
10
1193.663000000000
20
1415.187000000000
30
0.0
40
11.000000000000
0
CIRCLE
5
870
100
AcDbEntity
8
0-6戸当り
6
CONTINUOUS
62
3
100
AcDbCircle
10
1193.663000000000
20
1415.187000000000
30
0.0
40
5.000000000000
0
CIRCLE
5
871
100
AcDbEntity
8
0-6戸当り
6
CONTINUOUS
62
3
100
AcDbCircle
10
1193.663000000000
20
1415.187000000000
30
0.0
40
4.000000000000
0
CIRCLE
5
872
100
AcDbEntity
8
0-6戸当り
6
CONTINUOUS
62
3
100
AcDbCircle
10
1193.663000000000
20
1415.187000000000
30
0.0
40
8.487000000000
0
CIRCLE
5
873
100
AcDbEntity
8
0-6戸当り
6
CONTINUOUS
62
3
100
AcDbCircle
10
1393.663000000000
20
1415.187000000000
30
0.0
40
11.000000000000
0
CIRCLE
5
874
100
AcDbEntity
8
0-6戸当り
6
CONTINUOUS
62
3
100
AcDbCircle
10
1393.663000000000
20
1415.187000000000
30
0.0
40
5.000000000000
0
CIRCLE
5
875
100
AcDbEntity
8
0-6戸当り
6
CONTINUOUS
62
3
100
AcDbCircle
10
1393.663000000000
20
1415.187000000000
30
0.0
40
4.000000000000
0
CIRCLE
5
876
100
AcDbEntity
8
0-6戸当り
6
CONTINUOUS
62
3
100
AcDbCircle
10
1393.663000000000
20
1415.187000000000
30
0.0
40
8.487000000000
0
CIRCLE
5
877
100
AcDbEntity
8
0-6戸当り
6
CONTINUOUS
62
3
100
AcDbCircle
10
1593.663000000000
20
1415.187000000000
30
0.0
40
11.000000000000
0
CIRCLE
5
878
100
AcDbEntity
8
0-6戸当り
6
CONTINUOUS
62
3
100
AcDbCircle
10
1593.663000000000
20
1415.187000000000
30
0.0
40
5.000000000000
0
CIRCLE
5
879
100
AcDbEntity
8
0-6戸当り
6
CONTINUOUS
62
3
100
AcDbCircle
10
1593.663000000000
20
1415.187000000000
30
0.0
40
4.000000000000
0
CIRCLE
5
87a
100
AcDbEntity
8
0-6戸当り
6
CONTINUOUS
62
3
100
AcDbCircle
10
1593.663000000000
20
1415.187000000000
30
0.0
40
8.487000000000
0
ARC
5
87b
100
AcDbEntity
8
0-9扉体
6
CONTINUOUS
62
3
100
AcDbCircle
10
2515.095000000000
20
1375.188000000000
30
0.0
40
10.000000000000
100
AcDbArc
50
270.000000000000
51
540.000000000000
0
CIRCLE
5
87c
100
AcDbEntity
8
0-9扉体
6
CONTINUOUS
62
3
100
AcDbCircle
10
2515.095000000000
20
1375.188000000000
30
0.0
40
4.000000000000
0
ARC
5
87d
100
AcDbEntity
8
0-9扉体
6
CONTINUOUS
62
7
100
AcDbCircle
10
2503.414000000000
20
1345.188000000000
30
0.0
40
12.419000000000
100
AcDbArc
50
162.412000000000
51
197.588000000000
0
ARC
5
87e
100
AcDbEntity
8
0-9扉体
6
CONTINUOUS
62
7
100
AcDbCircle
10
2494.317000000000
20
1339.558000000000
30
0.0
40
3.323000000000
100
AcDbArc
50
145.615000000000
51
205.614000000000
0
ARC
5
87f
100
AcDbEntity
8
0-9扉体
6
CONTINUOUS
62
7
100
AcDbCircle
10
2494.317000000000
20
1350.817000000000
30
0.0
40
3.323000000000
100
AcDbArc
50
154.386000000000
51
214.385000000000
0
ARC
5
880
100
AcDbEntity
8
0-9扉体
6
CONTINUOUS
62
3
100
AcDbCircle
10
2515.095000000000
20
695.188000000000
30
0.0
40
10.000000000000
100
AcDbArc
50
180.000000000000
51
450.000000000000
0
CIRCLE
5
881
100
AcDbEntity
8
0-9扉体
6
CONTINUOUS
62
3
100
AcDbCircle
10
2515.095000000000
20
695.188000000000
30
0.0
40
4.000000000000
0
ARC
5
882
100
AcDbEntity
8
0-9扉体
6
CONTINUOUS
62
7
100
AcDbCircle
10
2503.414000000000
20
725.188000000000
30
0.0
40
12.419000000000
100
AcDbArc
50
162.412000000000
51
197.588000000000
0
ARC
5
883
100
AcDbEntity
8
0-9扉体
6
CONTINUOUS
62
7
100
AcDbCircle
10
2494.317000000000
20
730.817000000000
30
0.0
40
3.323000000000
100
AcDbArc
50
154.386000000000
51
214.385000000000
0
ARC
5
884
100
AcDbEntity
8
0-9扉体
6
CONTINUOUS
62
7
100
AcDbCircle
10
2494.317000000000
20
719.559000000000
30
0.0
40
3.323000000000
100
AcDbArc
50
145.615000000000
51
205.614000000000
0
CIRCLE
5
885
100
AcDbEntity
8
0-9扉体
6
CONTINUOUS
62
4
100
AcDbCircle
10
2484.095000000000
20
1435.188000000000
30
0.0
40
8.000000000000
0
CIRCLE
5
886
100
AcDbEntity
8
0-9扉体
6
CONTINUOUS
62
4
100
AcDbCircle
10
2484.095000000000
20
1435.188000000000
30
0.0
40
16.000000000000
0
ARC
5
887
100
AcDbEntity
8
0-6戸当り
6
DOT
62
6
100
AcDbCircle
10
2480.094000000000
20
1436.188000000000
30
0.0
40
9.000000000000
100
AcDbArc
50
90.000000000000
51
270.000000000000
0
ARC
5
888
100
AcDbEntity
8
0-9扉体
6
CONTINUOUS
62
4
100
AcDbCircle
10
2435.595000000000
20
1324.687000000000
30
0.0
40
4.500000000000
100
AcDbArc
50
270.000000000000
51
360.000000000000
0
ARC
5
889
100
AcDbEntity
8
0-9扉体
6
CONTINUOUS
62
4
100
AcDbCircle
10
2494.595000000000
20
1383.687000000000
30
0.0
40
4.500000000000
100
AcDbArc
50
270.000000000000
51
360.000000000000
0
ARC
5
88a
100
AcDbEntity
8
0-9扉体
6
CONTINUOUS
62
4
100
AcDbCircle
10
2446.094000000000
20
1373.187000000000
30
0.0
40
6.000000000000
100
AcDbArc
50
90.000000000000
51
180.000000000000
0
ARC
5
88b
100
AcDbEntity
8
0-9扉体
6
CONTINUOUS
62
4
100
AcDbCircle
10
2435.595000000000
20
750.688000000000
30
0.0
40
4.500000000000
100
AcDbArc
50
0.000000000000
51
90.000000000000
0
ARC
5
88c
100
AcDbEntity
8
0-9扉体
6
CONTINUOUS
62
4
100
AcDbCircle
10
2494.595000000000
20
691.688000000000
30
0.0
40
4.500000000000
100
AcDbArc
50
0.000000000000
51
90.000000000000
0
ARC
5
88d
100
AcDbEntity
8
0-9扉体
6
CONTINUOUS
62
4
100
AcDbCircle
10
2446.094000000000
20
702.188000000000
30
0.0
40
6.000000000000
100
AcDbArc
50
180.000000000000
51
270.000000000000
0
ARC
5
88e
100
AcDbEntity
8
0-6戸当り
6
DOT
62
6
100
AcDbCircle
10
2480.094000000000
20
1436.188000000000
30
0.0
40
17.000000000000
100
AcDbArc
50
90.000000000000
51
270.000000000000
0
CIRCLE
5
88f
100
AcDbEntity
8
0-6戸当り
6
CONTINUOUS
62
7
100
AcDbCircle
10
1293.663000000000
20
1465.188000000000
30
0.0
40
9.500000000000
0
CIRCLE
5
890
100
AcDbEntity
8
0-6戸当り
6
CONTINUOUS
62
6
100
AcDbCircle
10
1293.663000000000
20
1465.188000000000
30
0.0
40
6.000000000000
0
CIRCLE
5
891
100
AcDbEntity
8
0-6戸当り
6
CONTINUOUS
62
6
100
AcDbCircle
10
1293.663000000000
20
1465.188000000000
30
0.0
40
5.000000000000
0
CIRCLE
5
892
100
AcDbEntity
8
0-6戸当り
6
CONTINUOUS
62
6
100
AcDbCircle
10
1293.663000000000
20
1465.188000000000
30
0.0
40
13.000000000000
0
CIRCLE
5
893
100
AcDbEntity
8
0-9扉体
6
CONTINUOUS
62
7
100
AcDbCircle
10
1293.663000000000
20
1410.188000000000
30
0.0
40
12.500000000000
0
POLYLINE
5
894
100
AcDbEntity
  8
0-8寸法
6
CONTINUOUS
62
4
100
AcDb2dPolyline
66
1
10
0
20
0
70
1
40
4.000
41
4.000
0
VERTEX
5
895
100
AcDbEntity
  8
0-8寸法
6
CONTINUOUS
62
4
100
AcDbVertex
100
AcDb2dVertex
10
2523.095
20
1685.187
30
0.0
42
1.000
0
VERTEX
5
896
100
AcDbEntity
  8
0-8寸法
6
CONTINUOUS
62
4
100
AcDbVertex
100
AcDb2dVertex
10
2527.095
20
1685.187
30
0.0
42
1.000
0
SEQEND
5
897
100
AcDbEntity
  8
0-8寸法
0
POLYLINE
5
898
100
AcDbEntity
  8
0-8寸法
6
CONTINUOUS
62
4
100
AcDb2dPolyline
66
1
10
0
20
0
70
1
40
4.000
41
4.000
0
VERTEX
5
899
100
AcDbEntity
  8
0-8寸法
6
CONTINUOUS
62
4
100
AcDbVertex
100
AcDb2dVertex
10
2530.931
20
672.291
30
0.0
42
1.000
0
VERTEX
5
89a
100
AcDbEntity
  8
0-8寸法
6
CONTINUOUS
62
4
100
AcDbVertex
100
AcDb2dVertex
10
2534.931
20
672.291
30
0.0
42
1.000
0
SEQEND
5
89b
100
AcDbEntity
  8
0-8寸法
0
POLYLINE
5
89c
100
AcDbEntity
  8
0-8寸法
6
CONTINUOUS
62
4
100
AcDb2dPolyline
66
1
10
0
20
0
70
1
40
4.000
41
4.000
0
VERTEX
5
89d
100
AcDbEntity
  8
0-8寸法
6
CONTINUOUS
62
4
100
AcDbVertex
100
AcDb2dVertex
10
1058.445
20
1473.356
30
0.0
42
1.000
0
VERTEX
5
89e
100
AcDbEntity
  8
0-8寸法
6
CONTINUOUS
62
4
100
AcDbVertex
100
AcDb2dVertex
10
1062.445
20
1473.356
30
0.0
42
1.000
0
SEQEND
5
89f
100
AcDbEntity
  8
0-8寸法
0
POLYLINE
5
8a0
100
AcDbEntity
  8
0-8寸法
6
CONTINUOUS
62
4
100
AcDb2dPolyline
66
1
10
0
20
0
70
1
40
4.000
41
4.000
0
VERTEX
5
8a1
100
AcDbEntity
  8
0-8寸法
6
CONTINUOUS
62
4
100
AcDbVertex
100
AcDb2dVertex
10
1526.746
20
1451.957
30
0.0
42
1.000
0
VERTEX
5
8a2
100
AcDbEntity
  8
0-8寸法
6
CONTINUOUS
62
4
100
AcDbVertex
100
AcDb2dVertex
10
1530.746
20
1451.957
30
0.0
42
1.000
0
SEQEND
5
8a3
100
AcDbEntity
  8
0-8寸法
0
POLYLINE
5
8a4
100
AcDbEntity
  8
0-8寸法
6
CONTINUOUS
62
4
100
AcDb2dPolyline
66
1
10
0
20
0
70
1
40
4.000
41
4.000
0
VERTEX
5
8a5
100
AcDbEntity
  8
0-8寸法
6
CONTINUOUS
62
4
100
AcDbVertex
100
AcDb2dVertex
10
2352.095
20
1385.187
30
0.0
42
1.000
0
VERTEX
5
8a6
100
AcDbEntity
  8
0-8寸法
6
CONTINUOUS
62
4
100
AcDbVertex
100
AcDb2dVertex
10
2356.095
20
1385.187
30
0.0
42
1.000
0
SEQEND
5
8a7
100
AcDbEntity
  8
0-8寸法
0
TEXT
5
8a8
100
AcDbEntity
8
0-8寸法
62
7
370
-3
100
AcDbText
10
1725.263
20
399.235
30
0.0
40
33.660
1
20
41
0.597
50
0.000
100
AcDbText
0
TEXT
5
8a9
100
AcDbEntity
8
0-8寸法
62
7
370
-3
100
AcDbText
10
825.263
20
399.235
30
0.0
40
33.660
1
20
41
0.597
50
0.000
100
AcDbText
0
TEXT
5
8aa
100
AcDbEntity
8
0-8寸法
62
7
370
-3
100
AcDbText
10
629.615
20
566.787
30
0.0
40
33.660
1
20
41
0.597
50
90.000
100
AcDbText
0
TEXT
5
8ab
100
AcDbEntity
8
0-8寸法
62
7
370
-3
100
AcDbText
10
2823.047
20
655.537
30
0.0
40
33.660
1
100
41
0.775
50
90.000
100
AcDbText
0
TEXT
5
8ac
100
AcDbEntity
8
0-8寸法
62
7
370
-3
100
AcDbText
10
2823.047
20
1380.537
30
0.0
40
33.660
1
150
41
0.710
50
90.000
100
AcDbText
0
TEXT
5
8ad
100
AcDbEntity
8
0-8寸法
62
7
370
-3
100
AcDbText
10
914.013
20
2618.695
30
0.0
40
33.660
1
100
41
0.775
50
0.000
100
AcDbText
0
TEXT
5
8ae
100
AcDbEntity
8
0-8寸法
62
7
370
-3
100
AcDbText
10
1614.013
20
2618.695
30
0.0
40
33.660
1
100
41
0.775
50
0.000
100
AcDbText
0
MTEXT
5
8af
100
AcDbEntity
8
0-8寸法
62
7
370
-3
100
AcDbMText
10
1185.264
20
2614.955
30
0.0
40
31.790
41
0.000
71
7
72
1
1
\W1.093;有効幅{\W0.787; 600}
7
STANDARD
11
1.00000
21
0.00000
31
0.0
0
MTEXT
5
8b0
100
AcDbEntity
8
0-8寸法
62
7
370
-3
100
AcDbMText
10
1185.264
20
2020.495
30
0.0
40
31.790
41
0.000
71
7
72
1
1
\W1.093;扉体幅{\W0.787; 700}
7
STANDARD
11
1.00000
21
0.00000
31
0.0
0
MTEXT
5
8b1
100
AcDbEntity
8
0-8寸法
62
7
370
-3
100
AcDbMText
10
1185.263
20
295.495
30
0.0
40
31.790
41
0.000
71
7
72
1
1
\W1.093;戸当幅{\W0.787; 800}
7
STANDARD
11
1.00000
21
0.00000
31
0.0
0
MTEXT
5
8b2
100
AcDbEntity
8
0-8寸法
62
7
370
-3
100
AcDbMText
10
1185.264
20
495.495
30
0.0
40
31.790
41
0.000
71
7
72
1
1
\W1.093;扉体幅{\W0.787; 700}
7
STANDARD
11
1.00000
21
0.00000
31
0.0
0
MTEXT
5
8b3
100
AcDbEntity
8
0-8寸法
62
7
370
-3
100
AcDbMText
10
733.355
20
926.787
30
0.0
40
31.790
41
0.000
71
7
72
1
1
\W1.093;扉体高{\W0.787; 700}
7
STANDARD
11
0.00000
21
1.00000
31
0.0
0
MTEXT
5
8b4
100
AcDbEntity
8
0-8寸法
62
7
370
-3
100
AcDbMText
10
533.355
20
951.787
30
0.0
40
31.790
41
0.000
71
7
72
1
1
\W1.093;戸当高{\W0.787; 850}
7
STANDARD
11
0.00000
21
1.00000
31
0.0
0
TEXT
5
8b5
100
AcDbEntity
8
0-8寸法
62
7
370
-3
100
AcDbText
10
1264.013
20
1624.235
30
0.0
40
33.660
1
420
41
0.603
50
0.000
100
AcDbText
0
TEXT
5
8b6
100
AcDbEntity
8
0-8寸法
62
7
370
-3
100
AcDbText
10
974.013
20
399.235
30
0.0
40
33.660
1
180
41
0.705
50
0.000
100
AcDbText
0
TEXT
5
8b7
100
AcDbEntity
8
0-8寸法
62
7
370
-3
100
AcDbText
10
1554.013
20
399.235
30
0.0
40
33.660
1
180
41
0.705
50
0.000
100
AcDbText
0
TEXT
5
8b8
100
AcDbEntity
8
0-8寸法
62
7
370
-3
100
AcDbText
10
629.615
20
715.537
30
0.0
40
33.660
1
180
41
0.705
50
90.000
100
AcDbText
0
TEXT
5
8b9
100
AcDbEntity
8
0-8寸法
62
7
370
-3
100
AcDbText
10
629.615
20
1295.537
30
0.0
40
33.660
1
180
41
0.705
50
90.000
100
AcDbText
0
TEXT
5
8ba
100
AcDbEntity
8
0-8寸法
62
7
370
-3
100
AcDbText
10
629.615
20
1431.787
30
0.0
40
33.660
1
70
41
0.654
50
90.000
100
AcDbText
0
TEXT
5
8bb
100
AcDbEntity
8
0-8寸法
62
7
370
-3
100
AcDbText
10
1185.263
20
399.235
30
0.0
40
33.660
1
2x200P=400
41
0.613
50
0.000
100
AcDbText
0
TEXT
5
8bc
100
AcDbEntity
8
0-8寸法
62
7
370
-3
100
AcDbText
10
1264.013
20
1724.235
30
0.0
40
33.660
1
550
41
0.604
50
0.000
100
AcDbText
0
TEXT
5
8bd
100
AcDbEntity
8
0-8寸法
62
7
370
-3
100
AcDbText
10
629.615
20
926.787
30
0.0
40
33.660
1
2x200P=400
41
0.613
50
90.000
100
AcDbText
0
TEXT
5
8be
100
AcDbEntity
8
0-8寸法
62
7
370
-3
100
AcDbText
10
1185.263
20
1824.235
30
0.0
40
33.660
1
3x200P=600
41
0.616
50
0.000
100
AcDbText
0
MTEXT
5
8bf
100
AcDbEntity
8
0-8寸法
62
7
370
-3
100
AcDbMText
10
2826.787
20
926.787
30
0.0
40
31.790
41
0.000
71
7
72
1
1
\W1.093;有効高{\W0.787; 600}
7
STANDARD
11
0.00000
21
1.00000
31
0.0
0
TEXT
5
8c0
100
AcDbEntity
8
0-A文字
62
7
370
-3
100
AcDbText
10
1060.354
20
1279.235
30
0.0
40
33.660
1
L65x65x6    (SS400)
41
0.674
50
0.000
100
AcDbText
0
TEXT
5
8c1
100
AcDbEntity
8
0-A文字
62
7
370
-3
100
AcDbText
10
1356.625
20
873.037
30
0.0
40
33.660
1
L65x65x6(SS400)
41
0.621
50
90.000
100
AcDbText
0
TEXT
5
8c2
100
AcDbEntity
8
0-A文字
62
7
370
-3
100
AcDbText
10
1569.615
20
873.037
30
0.0
40
33.660
1
L65x65x6(SS400)
41
0.621
50
90.000
100
AcDbText
0
TEXT
5
8c3
100
AcDbEntity
8
0-A文字
62
7
370
-3
100
AcDbText
10
1060.354
20
764.235
30
0.0
40
33.660
1
L65x65x6    (SS400)
41
0.674
50
0.000
100
AcDbText
0
TEXT
5
8c4
100
AcDbEntity
8
0-A文字
62
7
370
-3
100
AcDbText
10
2104.769
20
1072.118
30
0.0
40
33.660
1
水圧方向
41
0.963
50
0.000
100
AcDbText
0
MTEXT
5
8c5
100
AcDbEntity
8
0-8寸法
62
7
370
-3
100
AcDbMText
10
2112.826
20
1495.495
30
0.0
40
31.790
41
0.000
71
7
72
1
1
\W1.093;▽{\W0.787;H.W.L.}
7
STANDARD
11
1.00000
21
0.00000
31
0.0
0
TEXT
5
8c6
100
AcDbEntity
8
0-8寸法
62
7
370
-3
100
AcDbText
10
2340.047
20
1461.787
30
0.0
40
33.660
1
50
41
0.626
50
90.000
100
AcDbText
0
TEXT
5
8c7
100
AcDbEntity
8
0-8寸法
62
7
370
-3
100
AcDbText
10
2340.047
20
1276.787
30
0.0
40
33.660
1
50
41
0.626
50
90.000
100
AcDbText
0
TEXT
5
8c8
100
AcDbEntity
8
0-8寸法
62
7
370
-3
100
AcDbText
10
2447.659
20
1099.235
30
0.0
40
33.660
1
65
41
0.566
50
0.000
100
AcDbText
0
MTEXT
5
8c9
100
AcDbEntity
8
0-8寸法
62
7
370
-3
100
AcDbMText
10
2014.787
20
950.537
30
0.0
40
31.790
41
0.000
71
7
72
1
1
\W1.093;設計水深{\W0.787; 2.40 m}
7
STANDARD
11
0.00000
21
1.00000
31
0.0
0
TEXT
5
8ca
100
AcDbEntity
8
0-8寸法
62
7
370
-3
100
AcDbText
10
2421.195
20
1699.235
30
0.0
40
33.660
1
41
41
0.752
50
0.000
100
AcDbText
0
LINE
5
8cb
100
AcDbEntity
8
0-9扉体
6
CONTINUOUS
62
4
100
AcDbLine
10
2486.594000000000
20
1459.187000000000
30
0.0
11
2466.595000000000
21
1459.187000000000
31
0.0
0
LINE
5
8cc
100
AcDbEntity
8
0-9扉体
6
CONTINUOUS
62
4
100
AcDbLine
10
2501.594000000000
20
1444.187000000000
30
0.0
11
2501.594000000000
21
1408.688000000000
31
0.0
0
ARC
5
8cd
100
AcDbEntity
8
0-9扉体
6
CONTINUOUS
62
4
100
AcDbCircle
10
2486.594000000000
20
1444.187000000000
30
0.0
40
15.000000000000
100
AcDbArc
50
0.000000000000
51
90.000000000000
0
LINE
5
8ce
100
AcDbEntity
8
0-8寸法
6
CONTINUOUS
62
4
100
AcDbLine
10
1701.678000000000
20
1610.188000000000
30
0.0
11
1528.746000000000
21
1451.958000000000
31
0.0
0
LINE
5
8cf
100
AcDbEntity
8
0-8寸法
6
CONTINUOUS
62
4
100
AcDbLine
10
943.663000000000
20
1610.188000000000
30
0.0
11
1060.444000000000
21
1473.357000000000
31
0.0
0
LINE
5
8d0
100
AcDbEntity
8
0-8寸法
6
CONTINUOUS
62
4
100
AcDbLine
10
2402.095000000000
20
485.188000000000
30
0.0
11
2532.931000000000
21
672.292000000000
31
0.0
0
LINE
5
8d1
100
AcDbEntity
8
0-8寸法
6
CONTINUOUS
62
4
100
AcDbLine
10
2402.095000000000
20
285.188000000000
30
0.0
11
2537.095000000000
21
635.188000000000
31
0.0
0
LINE
5
8d2
100
AcDbEntity
8
0-8寸法
6
CONTINUOUS
62
4
100
AcDbLine
10
1794.793403978054
20
485.188000000000
30
0.0
11
2402.095000000000
21
485.188000000000
31
0.0
0
LINE
5
8d3
100
AcDbEntity
8
0-8寸法
6
CONTINUOUS
62
4
100
AcDbLine
10
1794.793403978054
20
385.188000000000
30
0.0
11
2402.095000000000
21
385.188000000000
31
0.0
0
TEXT
5
8d4
100
AcDbEntity
8
0-8寸法
62
7
370
-3
100
AcDbText
10
2551.445
20
1699.235
30
0.0
40
33.660
1
12t
41
0.640
50
0.000
100
AcDbText
0
TEXT
5
8d5
100
AcDbEntity
8
0-8寸法
62
7
370
-3
100
AcDbText
10
2549.152
20
1099.235
30
0.0
40
33.660
1
6t
41
0.574
50
0.000
100
AcDbText
0
LINE
5
8d6
100
AcDbEntity
8
0-8寸法
6
CONTINUOUS
62
4
100
AcDbLine
10
1701.679000000000
20
2110.188000000000
30
0.0
11
2386.141000000000
21
2110.188000000000
31
0.0
0
LINE
5
8d7
100
AcDbEntity
8
0-8寸法
6
CONTINUOUS
62
4
100
AcDbLine
10
1701.679000000000
20
2010.188000000000
30
0.0
11
2386.141000000000
21
2010.188000000000
31
0.0
0
LINE
5
8d8
100
AcDbEntity
8
0-8寸法
6
CONTINUOUS
62
4
100
AcDbLine
10
1701.679000000000
20
1910.188000000000
30
0.0
11
2386.141000000000
21
1910.188000000000
31
0.0
0
LINE
5
8d9
100
AcDbEntity
8
0-8寸法
6
CONTINUOUS
62
4
100
AcDbLine
10
1701.679000000000
20
2110.188000000000
30
0.0
11
1701.679000000000
21
1910.188000000000
31
0.0
0
LINE
5
8da
100
AcDbEntity
8
0-8寸法
6
CONTINUOUS
62
4
100
AcDbLine
10
943.663000000000
20
1810.188000000000
30
0.0
11
943.663000000000
21
1610.188000000000
31
0.0
0
MTEXT
5
8db
100
AcDbEntity
8
0-8寸法
62
7
370
-3
100
AcDbMText
10
1730.141
20
2120.495
30
0.0
40
31.790
41
0.000
71
7
72
1
1
\W1.093;水密ゴム{\W0.787; }Ｐ型{\W0.787; }φ{\W0.787;20x60x8(CRｺﾞﾑ)}
7
STANDARD
11
1.00000
21
0.00000
31
0.0
0
MTEXT
5
8dc
100
AcDbEntity
8
0-8寸法
62
7
370
-3
100
AcDbMText
10
1718.819
20
2020.495
30
0.0
40
31.790
41
0.000
71
7
72
1
1
\W1.093;ゴム押え{\W0.787; PL-6t(SUS304)}　
7
STANDARD
11
1.00000
21
0.00000
31
0.0
0
MTEXT
5
8dd
100
AcDbEntity
8
0-8寸法
62
7
370
-3
100
AcDbMText
10
1718.369
20
1923.615
30
0.0
40
31.790
41
0.000
71
7
72
1
1
\W1.093;皿{\W0.787;BT&NT  M8(SUS304}相当{\W0.787;)}
7
STANDARD
11
1.00000
21
0.00000
31
0.0
0
MTEXT
5
8de
100
AcDbEntity
8
0-8寸法
62
7
370
-3
100
AcDbMText
10
1718.801
20
1620.495
30
0.0
40
31.790
41
0.000
71
7
72
1
1
\W1.093;吊り金具{\W0.787;   PL-9t(SS400)}
7
STANDARD
11
1.00000
21
0.00000
31
0.0
0
MTEXT
5
8df
100
AcDbEntity
8
0-8寸法
62
7
370
-3
100
AcDbMText
10
1811.880
20
495.495
30
0.0
40
31.790
41
0.000
71
7
72
1
1
\W1.093;戸当り{\W0.787;  PL-12t(SS400)}
7
STANDARD
11
1.00000
21
0.00000
31
0.0
0
MTEXT
5
8e0
100
AcDbEntity
8
0-8寸法
62
7
370
-3
100
AcDbMText
10
1811.898
20
395.495
30
0.0
40
31.790
41
0.000
71
7
72
1
1
\W1.093;金属系{\W0.787;ｱﾝｶ- M10(SUS304}相当{\W0.787;)}
7
STANDARD
11
1.00000
21
0.00000
31
0.0
0
TEXT
5
8e1
100
AcDbEntity
8
0-8寸法
62
7
370
-3
100
AcDbText
10
1875.895
20
299.235
30
0.0
40
33.660
1
シ－リング剤充填とする。
41
0.963
50
0.000
100
AcDbText
0
LINE
5
8e2
100
AcDbEntity
8
0-5基準線
6
CENTER2
62
7
100
AcDbLine
10
1293.663000000000
20
1544.008911204272
30
0.0
11
1293.663000000000
21
585.188000000000
31
0.0
0
TEXT
5
8e3
100
AcDbEntity
8
0-A文字
62
7
370
-3
100
AcDbText
10
1036.163
20
1104.791
30
0.0
40
33.660
41
0.893
50
0.000
1
ｽｷﾝﾌﾟﾚ-ﾄ
72
1
11
1124.564
21
1121.151
31
0.0
100
AcDbText
73
2
0
TEXT
5
8e4
100
AcDbEntity
8
0-A文字
62
7
370
-3
100
AcDbText
10
1069.913
20
1044.791
30
0.0
40
33.660
41
0.577
50
0.000
1
PL-6t
72
1
11
1124.564
21
1061.151
31
0.0
100
AcDbText
73
2
0
TEXT
5
8e5
100
AcDbEntity
8
0-A文字
62
7
370
-3
100
AcDbText
10
1047.413
20
994.791
30
0.0
40
33.660
41
0.694
50
0.000
1
(SS400)
72
1
11
1124.564
21
1011.151
31
0.0
100
AcDbText
73
2
0
TEXT
5
8e6
100
AcDbEntity
8
0-8寸法
62
7
370
-3
100
AcDbText
10
2556.672
20
999.235
30
0.0
40
33.660
41
0.597
50
0.000
1
20
72
1
11
2577.572
21
1015.595
31
0.0
100
AcDbText
73
2
0
LINE
5
8e7
100
AcDbEntity
8
0-6戸当り
6
CONTINUOUS
62
3
100
AcDbLine
10
2503.995000000000
20
1454.800000000000
30
0.0
11
2512.944000000000
21
1454.800000000000
31
0.0
0
LINE
5
8e8
100
AcDbEntity
8
0-6戸当り
6
CONTINUOUS
62
3
100
AcDbLine
10
2503.995000000000
20
1475.575000000000
30
0.0
11
2512.944000000000
21
1475.575000000000
31
0.0
0
LINE
5
8e9
100
AcDbEntity
8
0-6戸当り
6
CONTINUOUS
62
3
100
AcDbLine
10
2503.193000000000
20
1474.188000000000
30
0.0
11
2503.193000000000
21
1456.187000000000
31
0.0
0
LINE
5
8ea
100
AcDbEntity
8
0-6戸当り
6
CONTINUOUS
62
3
100
AcDbLine
10
2503.995000000000
20
1470.374000000000
30
0.0
11
2512.944000000000
21
1470.374000000000
31
0.0
0
LINE
5
8eb
100
AcDbEntity
8
0-6戸当り
6
CONTINUOUS
62
3
100
AcDbLine
10
2503.995000000000
20
1460.001000000000
30
0.0
11
2512.944000000000
21
1460.001000000000
31
0.0
0
LINE
5
8ec
100
AcDbEntity
8
0-6戸当り
6
CONTINUOUS
62
3
100
AcDbLine
10
2503.193000000000
20
1474.188000000000
30
0.0
11
2503.653000000000
21
1474.983000000000
31
0.0
0
LINE
5
8ed
100
AcDbEntity
8
0-6戸当り
6
CONTINUOUS
62
3
100
AcDbLine
10
2503.193000000000
20
1456.187000000000
30
0.0
11
2503.653000000000
21
1455.392000000000
31
0.0
0
LINE
5
8ee
100
AcDbEntity
8
0-6戸当り
6
CONTINUOUS
62
3
100
AcDbLine
10
2495.344000000000
20
1471.187000000000
30
0.0
11
2495.344000000000
21
1459.187000000000
31
0.0
0
LINE
5
8ef
100
AcDbEntity
8
0-6戸当り
6
CONTINUOUS
62
3
100
AcDbLine
10
2495.344000000000
20
1471.187000000000
30
0.0
11
2503.193000000000
21
1471.187000000000
31
0.0
0
LINE
5
8f0
100
AcDbEntity
8
0-6戸当り
6
CONTINUOUS
62
3
100
AcDbLine
10
2495.344000000000
20
1468.938000000000
30
0.0
11
2503.193000000000
21
1468.938000000000
31
0.0
0
LINE
5
8f1
100
AcDbEntity
8
0-6戸当り
6
CONTINUOUS
62
3
100
AcDbLine
10
2495.344000000000
20
1461.438000000000
30
0.0
11
2503.193000000000
21
1461.438000000000
31
0.0
0
LINE
5
8f2
100
AcDbEntity
8
0-6戸当り
6
CONTINUOUS
62
3
100
AcDbLine
10
2495.344000000000
20
1459.187000000000
30
0.0
11
2503.193000000000
21
1459.187000000000
31
0.0
0
LINE
5
8f3
100
AcDbEntity
8
0-5基準線
6
CENTER2
62
7
100
AcDbLine
10
2492.398000000000
20
1465.188000000000
30
0.0
11
2635.902000000000
21
1465.188000000000
31
0.0
0
ARC
5
8f4
100
AcDbEntity
8
0-6戸当り
6
CONTINUOUS
62
3
100
AcDbCircle
10
2507.815000000000
20
1472.975000000000
30
0.0
40
4.621000000000
100
AcDbArc
50
145.757000000000
51
214.243000000000
0
ARC
5
8f5
100
AcDbEntity
8
0-6戸当り
6
CONTINUOUS
62
3
100
AcDbCircle
10
2520.383000000000
20
1465.188000000000
30
0.0
40
17.190000000000
100
AcDbArc
50
162.440000000000
51
197.560000000000
0
ARC
5
8f6
100
AcDbEntity
8
0-6戸当り
6
CONTINUOUS
62
3
100
AcDbCircle
10
2507.815000000000
20
1457.400000000000
30
0.0
40
4.621000000000
100
AcDbArc
50
145.757000000000
51
214.243000000000
0
ARC
5
8f7
100
AcDbEntity
8
0-6戸当り
6
CONTINUOUS
62
2
100
AcDbCircle
10
2514.423000000000
20
1465.188000000000
30
0.0
40
20.000000000000
100
AcDbArc
50
162.543000000000
51
197.457000000000
0
LINE
5
8f8
100
AcDbEntity
8
0-6戸当り
6
CONTINUOUS
62
3
100
AcDbLine
10
2513.746000000000
20
1454.800000000000
30
0.0
11
2522.695000000000
21
1454.800000000000
31
0.0
0
LINE
5
8f9
100
AcDbEntity
8
0-6戸当り
6
CONTINUOUS
62
3
100
AcDbLine
10
2513.746000000000
20
1475.575000000000
30
0.0
11
2522.695000000000
21
1475.575000000000
31
0.0
0
LINE
5
8fa
100
AcDbEntity
8
0-6戸当り
6
CONTINUOUS
62
3
100
AcDbLine
10
2513.746000000000
20
1470.374000000000
30
0.0
11
2522.695000000000
21
1470.374000000000
31
0.0
0
LINE
5
8fb
100
AcDbEntity
8
0-6戸当り
6
CONTINUOUS
62
3
100
AcDbLine
10
2513.746000000000
20
1460.001000000000
30
0.0
11
2522.695000000000
21
1460.001000000000
31
0.0
0
LINE
5
8fc
100
AcDbEntity
8
0-6戸当り
6
CONTINUOUS
62
3
100
AcDbLine
10
2512.944000000000
20
1474.188000000000
30
0.0
11
2513.404000000000
21
1474.983000000000
31
0.0
0
LINE
5
8fd
100
AcDbEntity
8
0-6戸当り
6
CONTINUOUS
62
3
100
AcDbLine
10
2512.944000000000
20
1456.187000000000
30
0.0
11
2513.404000000000
21
1455.392000000000
31
0.0
0
ARC
5
8fe
100
AcDbEntity
8
0-6戸当り
6
CONTINUOUS
62
3
100
AcDbCircle
10
2517.566000000000
20
1472.975000000000
30
0.0
40
4.621000000000
100
AcDbArc
50
145.757000000000
51
214.243000000000
0
ARC
5
8ff
100
AcDbEntity
8
0-6戸当り
6
CONTINUOUS
62
3
100
AcDbCircle
10
2530.134000000000
20
1465.188000000000
30
0.0
40
17.190000000000
100
AcDbArc
50
162.440000000000
51
197.560000000000
0
ARC
5
900
100
AcDbEntity
8
0-6戸当り
6
CONTINUOUS
62
3
100
AcDbCircle
10
2517.566000000000
20
1457.400000000000
30
0.0
40
4.621000000000
100
AcDbArc
50
145.757000000000
51
214.243000000000
0
LINE
5
901
100
AcDbEntity
8
0-6戸当り
6
CONTINUOUS
62
3
100
AcDbLine
10
2512.944000000000
20
1475.575000000000
30
0.0
11
2512.944000000000
21
1454.800000000000
31
0.0
0
LINE
5
902
100
AcDbEntity
8
0-5基準線
6
CENTER2
62
7
100
AcDbLine
10
1018.663000000000
20
2260.966612372788
30
0.0
11
1018.663000000000
21
2417.061000000000
31
0.0
0
LINE
5
903
100
AcDbEntity
8
0-6戸当り
6
CONTINUOUS
62
7
100
AcDbLine
10
1009.163000000000
20
2270.247000000000
30
0.0
11
1009.163000000000
21
2280.247000000000
31
0.0
0
LINE
5
904
100
AcDbEntity
8
0-6戸当り
6
CONTINUOUS
62
7
100
AcDbLine
10
1028.163000000000
20
2270.247000000000
30
0.0
11
1028.163000000000
21
2280.247000000000
31
0.0
0
LINE
5
905
100
AcDbEntity
8
0-6戸当り
6
CONTINUOUS
62
7
100
AcDbLine
10
1028.163000000000
20
2270.247000000000
30
0.0
11
1009.163000000000
21
2270.247000000000
31
0.0
0
LINE
5
906
100
AcDbEntity
8
0-6戸当り
6
CONTINUOUS
62
3
100
AcDbLine
10
1024.663000000000
20
2262.647000000000
30
0.0
11
1012.663000000000
21
2262.647000000000
31
0.0
0
LINE
5
907
100
AcDbEntity
8
0-6戸当り
6
CONTINUOUS
62
3
100
AcDbLine
10
1022.413000000000
20
2262.647000000000
30
0.0
11
1022.413000000000
21
2270.247000000000
31
0.0
0
LINE
5
908
100
AcDbEntity
8
0-6戸当り
6
CONTINUOUS
62
3
100
AcDbLine
10
1024.663000000000
20
2262.647000000000
30
0.0
11
1024.663000000000
21
2270.247000000000
31
0.0
0
LINE
5
909
100
AcDbEntity
8
0-6戸当り
6
CONTINUOUS
62
3
100
AcDbLine
10
1014.913000000000
20
2262.647000000000
30
0.0
11
1014.913000000000
21
2270.247000000000
31
0.0
0
LINE
5
90a
100
AcDbEntity
8
0-6戸当り
6
CONTINUOUS
62
3
100
AcDbLine
10
1012.663000000000
20
2262.647000000000
30
0.0
11
1012.663000000000
21
2270.247000000000
31
0.0
0
LINE
5
90b
100
AcDbEntity
8
0-6戸当り
6
CONTINUOUS
62
7
100
AcDbLine
10
1018.663000000000
20
2271.096000000000
30
0.0
11
1018.663000000000
21
2280.247000000000
31
0.0
0
ARC
5
90c
100
AcDbEntity
8
0-6戸当り
6
CONTINUOUS
62
7
100
AcDbCircle
10
1013.913000000000
20
2283.967000000000
30
0.0
40
13.720000000000
100
AcDbArc
50
249.744000000000
51
290.256000000000
0
ARC
5
90d
100
AcDbEntity
8
0-6戸当り
6
CONTINUOUS
62
7
100
AcDbCircle
10
1023.413000000000
20
2283.967000000000
30
0.0
40
13.720000000000
100
AcDbArc
50
249.744000000000
51
290.256000000000
0
ARC
5
90e
100
AcDbEntity
8
0-6戸当り
6
CONTINUOUS
62
2
100
AcDbCircle
10
1018.663000000000
20
2281.726000000000
30
0.0
40
20.000000000000
100
AcDbArc
50
252.543000000000
51
287.457000000000
0
LINE
5
90f
100
AcDbEntity
8
0-6戸当り
6
CONTINUOUS
62
7
100
AcDbLine
10
1009.163000000000
20
2280.247000000000
30
0.0
11
1009.163000000000
21
2290.247000000000
31
0.0
0
LINE
5
910
100
AcDbEntity
8
0-6戸当り
6
CONTINUOUS
62
7
100
AcDbLine
10
1028.163000000000
20
2280.247000000000
30
0.0
11
1009.163000000000
21
2280.247000000000
31
0.0
0
LINE
5
911
100
AcDbEntity
8
0-6戸当り
6
CONTINUOUS
62
7
100
AcDbLine
10
1018.663000000000
20
2281.096000000000
30
0.0
11
1018.663000000000
21
2290.247000000000
31
0.0
0
ARC
5
912
100
AcDbEntity
8
0-6戸当り
6
CONTINUOUS
62
7
100
AcDbCircle
10
1013.913000000000
20
2293.967000000000
30
0.0
40
13.720000000000
100
AcDbArc
50
249.744000000000
51
290.256000000000
0
ARC
5
913
100
AcDbEntity
8
0-6戸当り
6
CONTINUOUS
62
7
100
AcDbCircle
10
1023.413000000000
20
2293.967000000000
30
0.0
40
13.720000000000
100
AcDbArc
50
249.744000000000
51
290.256000000000
0
LINE
5
914
100
AcDbEntity
8
0-6戸当り
6
CONTINUOUS
62
7
100
AcDbLine
10
1028.163000000000
20
2280.247000000000
30
0.0
11
1028.163000000000
21
2290.247000000000
31
0.0
0
LINE
5
915
100
AcDbEntity
8
0-9扉体
6
CONTINUOUS
62
4
100
AcDbLine
10
938.663000000000
20
2272.647000000000
30
0.0
11
1009.163000000000
21
2272.647000000000
31
0.0
0
LINE
5
916
100
AcDbEntity
8
0-9扉体
6
CONTINUOUS
62
4
100
AcDbLine
10
1028.163000000000
20
2272.647000000000
30
0.0
11
1051.063000000000
21
2272.647000000000
31
0.0
0
LINE
5
917
100
AcDbEntity
8
0-9扉体
6
CONTINUOUS
62
4
100
AcDbLine
10
938.663000000000
20
2266.647000000000
30
0.0
11
1012.663000000000
21
2266.647000000000
31
0.0
0
LINE
5
918
100
AcDbEntity
8
0-9扉体
6
CONTINUOUS
62
4
100
AcDbLine
10
1024.663000000000
20
2266.647000000000
30
0.0
11
1040.163000000000
21
2266.647000000000
31
0.0
0
LINE
5
919
100
AcDbEntity
8
0-9扉体
6
CONTINUOUS
62
7
100
AcDbLine
10
1308.663000000000
20
1435.188000000000
30
0.0
11
1278.663000000000
21
1435.188000000000
31
0.0
0
POLYLINE
5
91a
100
AcDbEntity
8
0-9扉体
6
CONTINUOUS
62
  7
100
AcDb2dPolyline
66
1
10
0.0
20
0.0
30
0.0
70
0
0
VERTEX
5
91b
100
AcDbEntity
8
0-9扉体
6
CONTINUOUS
62
  7
100
AcDbVertex
100
AcDb2dVertex
10
1293.663000000000
20
2256.647000000000
30
0.0
0
VERTEX
5
91c
100
AcDbEntity
8
0-9扉体
6
CONTINUOUS
62
  7
100
AcDbVertex
100
AcDb2dVertex
10
1268.663000000000
20
2256.647000000000
30
0.0
0
VERTEX
5
91d
100
AcDbEntity
8
0-9扉体
6
CONTINUOUS
62
  7
100
AcDbVertex
100
AcDb2dVertex
10
1268.663000000000
20
2244.647000000000
30
0.0
0
VERTEX
5
91e
100
AcDbEntity
8
0-9扉体
6
CONTINUOUS
62
  7
100
AcDbVertex
100
AcDb2dVertex
10
1293.663000000000
20
2244.647000000000
30
0.0
0
SEQEND
5
91f
100
AcDbEntity
8
0-9扉体
0
LINE
5
920
100
AcDbEntity
8
0-9扉体
6
CONTINUOUS
62
7
100
AcDbLine
10
1278.663000000000
20
2244.647000000000
30
0.0
11
1278.663000000000
21
2256.647000000000
31
0.0
0
LINE
5
921
100
AcDbEntity
8
0-9扉体
6
CONTINUOUS
62
7
100
AcDbLine
10
1318.663000000000
20
1425.188000000000
30
0.0
11
1308.663000000000
21
1435.188000000000
31
0.0
0
LINE
5
922
100
AcDbEntity
8
0-9扉体
6
CONTINUOUS
62
7
100
AcDbLine
10
1268.663000000000
20
1425.188000000000
30
0.0
11
1278.663000000000
21
1435.188000000000
31
0.0
0
TEXT
5
923
100
AcDbEntity
8
0-7図枠
62
7
370
-3
100
AcDbText
10
3016.870
20
359.432
30
0.0
40
37.807
41
0.856
50
0.000
1
図示
72
1
11
3060.001
21
375.000
31
0.0
100
AcDbText
73
2
0
TEXT
5
924
100
AcDbEntity
8
0-7図枠
62
7
370
-3
100
AcDbText
10
3121.907
20
464.432
30
0.0
40
37.807
41
0.856
50
0.000
1
標準図
72
1
11
3187.502
21
480.000
31
0.0
100
AcDbText
73
2
0
ENDSEC
 0
SECTION
  2
OBJECTS
 0
DICTIONARY
  5
C
100
AcDbDictionary
  3
ACAD_GROUP
350
D
  3
ACAD_MLINESTYLE
350
E
 0
DICTIONARY
  5
D
102
{ACAD_REACTORS
102
}
100
AcDbDictionary
 0
DICTIONARY
  5
E
102
{ACAD_REACTORS
102
}
100
AcDbDictionary
  3
STANDARD
350
13
0
MLINESTYLE
  5
13
102
{ACAD_REACTORS
102
}
100
AcDbMlineStyle
  2
STANDARD
 70
    0
3

62
256
51
90.0
52
90.0
71
0
0
ACDBPLACEHOLDER
  5
14
102
{ACAD_REACTORS
102
}
0
ENDSEC
0
EOF
